  0
SECTION
  2
HEADER
  9
$ACADVER
  1
AC1009
  9
$INSBASE
 10
0
 20
0
 30
0
  9
$EXTMIN
 10
0
 20
0
  9
$EXTMAX
 10
420
 20
297
  9
$LIMMIN
 10
0
 20
0
  9
$LIMMAX
 10
420
 20
297
  9
$LTSCALE
 40
1
  0
ENDSEC
  0
SECTION
  2
TABLES
  0
TABLE
  2
LTYPE
 70
     9
  0
LTYPE
  2
CONTINUOUS
 70
    64
  3
実線
 72
    65
 73
     0
 40
0.0
  0
LTYPE
  2
DASHED1
 70
    64
  3
--  --  --  --  --  --  --  --  
 72
    65
 73
     2
 40
2.5
 49
1.25
 49
-1.25
  0
LTYPE
  2
DASHED2
 70
    64
  3
----    ----    ----    ----    
 72
    65
 73
     2
 40
5.0
 49
2.5
 49
-2.5
  0
LTYPE
  2
DASHED3
 70
    64
  3
------  ------  ------  ------  
 72
    65
 73
     2
 40
5.0
 49
3.75
 49
-1.25
  0
LTYPE
  2
CENTER1
 70
    64
  3
----- - ----- - ----- - ----- - 
 72
    65
 73
     4
 40
10.0
 49
6.25
 49
-1.25
 49
1.25
 49
-1.25
  0
LTYPE
  2
CENTER2
 70
    64
  3
----------  --  ----------  --  
 72
    65
 73
     4
 40
20.0
 49
12.5
 49
-2.5
 49
2.5
 49
-2.5
  0
LTYPE
  2
PHANTOM1
 70
    64
  3
--- - - --- - - --- - - --- - - 
 72
    65
 73
     6
 40
10.0
 49
3.25
 49
-1.25
 49
1.25
 49
-1.25
 49
1.25
 49
-1.25
  0
LTYPE
  2
PHANTOM2
 70
    64
  3
--------  -  -  --------  -  -  
 72
    65
 73
     6
 40
20.0
 49
10.0
 49
-2.5
 49
1.25
 49
-2.5
 49
1.25
 49
-2.5
  0
LTYPE
  2
DOT
 70
    64
  3
-   -   -   -   -   -   -   -   
 72
    65
 73
     2
 40
2.5
 49
0.625
 49
-1.875
  0
LTYPE
  2
DUMMY
 70
    64
  3
ダミー
 72
    65
 73
     0
 40
0.0
  0
LTYPE
  2
RAND1
 70
    64
  3
ランダム線1
 72
    65
 73
     4
 40
10.0
 49
1.0
 49
-2.0
 49
3.0
 49
-4.0
  0
LTYPE
  2
RAND2
 70
    64
  3
ランダム線2
 72
    65
 73
     4
 40
14.0
 49
2.0
 49
-3.0
 49
4.0
 49
-5.0
  0
LTYPE
  2
RAND3
 70
    64
  3
ランダム線3
 72
    65
 73
     4
 40
18.0
 49
3.0
 49
-4.0
 49
5.0
 49
-6.0
  0
LTYPE
  2
RAND4
 70
    64
  3
ランダム線4
 72
    65
 73
     4
 40
22.0
 49
4.0
 49
-5.0
 49
6.0
 49
-7.0
  0
LTYPE
  2
RAND5
 70
    64
  3
ランダム線5
 72
    65
 73
     4
 40
26.0
 49
5.0
 49
-6.0
 49
7.0
 49
-8.0
  0
LTYPE
  2
LONG1
 70
    64
  3
----------  --  ----------  --  
 72
    65
 73
     4
 40
40.0
 49
32.5
 49
-2.5
 49
2.5
 49
-2.5
  0
LTYPE
  2
LONG2
 70
    64
  3
--------  -  -  --------  -  -  
 72
    65
 73
     6
 40
40.0
 49
30.0
 49
-2.5
 49
1.25
 49
-2.5
 49
1.25
 49
-2.5
  0
LTYPE
  2
LONG3
 70
    64
  3
+++++++++++++++..+++++++++++++++
 72
    65
 73
     2
 40
40.0
 49
37.5
 49
-2.5
  0
LTYPE
  2
LONG4
 70
    64
  3
+++++++++++++++..+++++++++++++++
 72
    65
 73
     2
 40
80.0
 49
75.0
 49
-5.0
  0
LTYPE
  2
LONG5
 70
    64
  3
----------  --  ----------  --  
 72
    65
 73
     4
 40
60.0
 49
37.5
 49
-7.5
 49
7.5
 49
-7.5
  0
LTYPE
  2
dashed
 70
   64
  3
-------   -------------   ------
 72
   65
 73
    2
 40
7.5
 49
6
 49
-1.5
  0
LTYPE
  2
dashed_spaced
 70
   64
  3
----        --------        ----
 72
   65
 73
    2
 40
12
 49
6
 49
-6
  0
LTYPE
  2
long_dashed_dotted
 70
   64
  3
------------- --- --------------
 72
   65
 73
    4
 40
15.25
 49
12
 49
-1.5
 49
0.25
 49
-1.5
  0
LTYPE
  2
long_dashed_double-dotted
 70
   64
  3
----------- --- --- ------------
 72
   65
 73
    6
 40
17
 49
12
 49
-1.5
 49
0.25
 49
-1.5
 49
0.25
 49
-1.5
  0
LTYPE
  2
long_dashed_triplicate-dotted
 70
   64
  3
--------- --- --- --- ----------
 72
   65
 73
    8
 40
18.75
 49
12
 49
-1.5
 49
0.25
 49
-1.5
 49
0.25
 49
-1.5
 49
0.25
 49
-1.5
  0
LTYPE
  2
dotted
 70
   64
  3
   -       -       -       -    
 72
   65
 73
    2
 40
1.75
 49
0.25
 49
-1.5
  0
LTYPE
  2
chain
 70
   64
  3
-------------- -- --------------
 72
   65
 73
    4
 40
18.5
 49
12
 49
-1.5
 49
3.5
 49
-1.5
  0
LTYPE
  2
chain_double_dash
 70
   64
  3
------------ -- -- -------------
 72
   65
 73
    6
 40
23.5
 49
12
 49
-1.5
 49
3.5
 49
-1.5
 49
3.5
 49
-1.5
  0
LTYPE
  2
dashed_dotted
 70
   64
  3
-----------     -     ----------
 72
   65
 73
    4
 40
9.25
 49
6
 49
-1.5
 49
0.25
 49
-1.5
  0
LTYPE
  2
double-dashed_dotted
 70
   64
  3
------   -----------   -   -----
 72
   65
 73
    6
 40
16.75
 49
6
 49
-1.5
 49
6
 49
-1.5
 49
0.25
 49
-1.5
  0
LTYPE
  2
dashed_double-dotted
 70
   64
  3
---------    -    -    ---------
 72
   65
 73
    6
 40
11
 49
6
 49
-1.5
 49
0.25
 49
-1.5
 49
0.25
 49
-1.5
  0
LTYPE
  2
double-dashed_double-dotted
 70
   64
  3
-----   ---------   -   -   ----
 72
   65
 73
    8
 40
18.5
 49
6
 49
-1.5
 49
6
 49
-1.5
 49
0.25
 49
-1.5
 49
0.25
 49
-1.5
  0
LTYPE
  2
dashed_triplicate-dotted
 70
   64
  3
-------    -    -    -    ------
 72
   65
 73
    8
 40
12.75
 49
6
 49
-1.5
 49
0.25
 49
-1.5
 49
0.25
 49
-1.5
 49
0.25
 49
-1.5
  0
LTYPE
  2
double-dashed_triplicate-dotted
 70
   64
  3
-----  ---------  -  -  -  -----
 72
   65
 73
   10
 40
20.25
 49
6
 49
-1.5
 49
6
 49
-1.5
 49
0.25
 49
-1.5
 49
0.25
 49
-1.5
 49
0.25
 49
-1.5
  0
LTYPE
  2
undefined
 70
   64
  3
--------------------------------
 72
   65
 73
    0
 40
0
  0
ENDTAB
  0
TABLE
  2
STYLE
  5
3
100
AcDbSymbolTable
 70
     1
  0
STYLE
  5
10
100
AcDbSymbolTableRecord
100
AcDbTextStyleTableRecord
  2
STANDARD
 70
     0
 40
0.0
 41
1.0
 50
0.0
 71
     0
 42
0.2
  3
txt
  4
bigfont.shx
  0
STYLE
  5
26
100
AcDbSymbolTableRecord
100
AcDbTextStyleTableRecord
  2
TATEGAKI
 70
    68
 40
0.0
 41
1.0
 50
0.0
 71
     0
 42
1.0
  3
txt
  4
bigfont.shx
  0
ENDTAB
  0
TABLE
  2
LAYER
 70
    6
  0
LAYER
  2
_0-0_
 70
   64
 62
    7
  6
CONTINUOUS
  0
LAYER
  2
_0-1_
 70
   64
 62
    7
  6
CONTINUOUS
  0
LAYER
  2
_1-0_
 70
   64
 62
    7
  6
CONTINUOUS
  0
LAYER
  2
_1-1_
 70
   64
 62
    7
  6
CONTINUOUS
  0
LAYER
  2
_1-2_
 70
   64
 62
    7
  6
CONTINUOUS
  0
LAYER
  2
ADD_LINE
 70
   64
 62
    7
  6
CONTINUOUS
  0
ENDTAB
  0
ENDSEC
  0
SECTION
  2
BLOCKS
  0
ENDSEC
  0
SECTION
  2
ENTITIES
  0
LINE
  8
_0-0_
  6
CONTINUOUS
 62
    5
 10
12.432428308435391
 20
278.51351351351354
 11
412.43244892842063
 21
278.51351351351354
  0
LINE
  8
_0-0_
  6
CONTINUOUS
 62
    5
 10
412.43244892842063
 20
8.5135135135135158
 11
12.432428308435391
 21
8.5135135135135158
  0
LINE
  8
_0-0_
  6
CONTINUOUS
 62
    5
 10
412.43244892842063
 20
28.513511451515001
 11
12.432415936444272
 21
28.513511451515001
  0
LINE
  8
_0-0_
  6
CONTINUOUS
 62
    5
 10
377.43248192039698
 20
8.5135135135135158
 11
377.43248192039698
 21
28.513511451515001
  0
LINE
  8
_0-0_
  6
CONTINUOUS
 62
    5
 10
142.70271507469386
 20
28.513511451515001
 11
142.70271507469386
 21
8.5135135135135158
  0
LINE
  8
_0-0_
  6
CONTINUOUS
 62
    5
 10
220.54054054054055
 20
28.513511451515001
 11
220.54054054054055
 21
8.5135135135135158
  0
LINE
  8
_0-0_
  6
CONTINUOUS
 62
    5
 10
142.70271507469386
 20
18.513512482514244
 11
220.54054054054055
 21
18.513512482514244
  0
LINE
  8
_0-0_
  6
CONTINUOUS
 62
    5
 10
402.16218690614443
 20
24.324325870823216
 11
389.59456985061234
 21
11.756758303255651
  0
LINE
  8
_1-0_
  6
CONTINUOUS
 62
    7
 10
66.600011877111484
 20
171.2594728212099
 11
66.600011877111484
 21
170.65946836729307
  0
LINE
  8
_1-0_
  6
CONTINUOUS
 62
    7
 10
66.600011877111484
 20
170.65946836729307
 11
66.600011877111484
 21
171.2594728212099
  0
LINE
  8
_1-0_
  6
CONTINUOUS
 62
    7
 10
66.600011877111484
 20
171.2594728212099
 11
71.399998020481405
 21
171.2594728212099
  0
LINE
  8
_1-0_
  6
CONTINUOUS
 62
    7
 10
71.399998020481405
 20
171.2594728212099
 11
71.399998020481405
 21
170.65946836729307
  0
LINE
  8
_1-0_
  6
CONTINUOUS
 62
    7
 10
71.399998020481405
 20
170.65946836729307
 11
66.600011877111484
 21
170.65946836729307
  0
LINE
  8
_1-0_
  6
CONTINUOUS
 62
    7
 10
66.600011877111484
 20
171.2594728212099
 11
71.399998020481405
 21
170.65946836729307
  0
LINE
  8
_1-0_
  6
CONTINUOUS
 62
    7
 10
127.20000395903718
 20
170.65946836729307
 11
127.20000395903718
 21
171.2594728212099
  0
LINE
  8
_1-0_
  6
CONTINUOUS
 62
    7
 10
127.20000395903718
 20
171.2594728212099
 11
131.99999010240711
 21
171.2594728212099
  0
LINE
  8
_1-0_
  6
CONTINUOUS
 62
    7
 10
131.99999010240711
 20
171.2594728212099
 11
131.99999010240711
 21
170.65946836729307
  0
LINE
  8
_1-0_
  6
CONTINUOUS
 62
    7
 10
131.99999010240711
 20
170.65946836729307
 11
127.20000395903718
 21
170.65946836729307
  0
LINE
  8
_1-0_
  6
CONTINUOUS
 62
    7
 10
127.20000395903718
 20
171.2594728212099
 11
131.99999010240711
 21
170.65946836729307
  0
LINE
  8
_1-0_
  6
CONTINUOUS
 62
    7
 10
187.79999604096284
 20
170.65946836729307
 11
187.79999604096284
 21
171.2594728212099
  0
LINE
  8
_1-0_
  6
CONTINUOUS
 62
    7
 10
187.79999604096284
 20
171.2594728212099
 11
192.59998218433279
 21
171.2594728212099
  0
LINE
  8
_1-0_
  6
CONTINUOUS
 62
    7
 10
192.59998218433279
 20
171.2594728212099
 11
192.59998218433279
 21
170.65946836729307
  0
LINE
  8
_1-0_
  6
CONTINUOUS
 62
    7
 10
192.59998218433279
 20
170.65946836729307
 11
187.79999604096284
 21
170.65946836729307
  0
LINE
  8
_1-0_
  6
CONTINUOUS
 62
    7
 10
187.79999604096284
 20
171.2594728212099
 11
192.59998218433279
 21
170.65946836729307
  0
LINE
  8
_1-0_
  6
CONTINUOUS
 62
    7
 10
248.39998812288852
 20
170.65946836729307
 11
248.39998812288852
 21
171.2594728212099
  0
LINE
  8
_1-0_
  6
CONTINUOUS
 62
    7
 10
248.39998812288852
 20
171.2594728212099
 11
253.19997426625847
 21
171.2594728212099
  0
LINE
  8
_1-0_
  6
CONTINUOUS
 62
    7
 10
253.19997426625847
 20
171.2594728212099
 11
253.19997426625847
 21
170.65946836729307
  0
LINE
  8
_1-0_
  6
CONTINUOUS
 62
    7
 10
253.19997426625847
 20
170.65946836729307
 11
248.39998812288852
 21
170.65946836729307
  0
LINE
  8
_1-0_
  6
CONTINUOUS
 62
    7
 10
248.39998812288852
 20
171.2594728212099
 11
253.19997426625847
 21
170.65946836729307
  0
LINE
  8
_0-1_
  6
CONTINUOUS
 62
    7
 10
204.30876035948057
 20
125.27581292229731
 11
222.972972972973
 21
125.27581292229731
  0
LINE
  8
_0-1_
  6
CONTINUOUS
 62
    7
 10
206.85654923722552
 20
118.27581457189612
 11
222.972972972973
 21
118.27581457189612
  0
LINE
  8
_0-1_
  6
CONTINUOUS
 62
    7
 10
209.40436285895271
 20
111.27581622149494
 11
222.972972972973
 21
111.27581622149494
  0
LINE
  8
_0-1_
  6
CONTINUOUS
 62
    7
 10
211.95215173669766
 20
104.27581787109375
 11
222.972972972973
 21
104.27581787109375
  0
LINE
  8
_0-1_
  6
CONTINUOUS
 62
    7
 10
214.49994061444258
 20
97.275813334697006
 11
222.972972972973
 21
97.275813334697006
  0
LINE
  8
_1-0_
  6
CONTINUOUS
 62
    7
 10
323.29690469277875
 20
151.46621704101562
 11
315.2969030431799
 21
159.46623106260557
  0
LINE
  8
_1-0_
  6
CONTINUOUS
 62
    7
 10
323.29690469277875
 20
154.29465216559333
 11
315.2969030431799
 21
162.29465381519216
  0
LINE
  8
_1-0_
  6
CONTINUOUS
 62
    7
 10
323.29690469277875
 20
157.1230749181799
 11
315.2969030431799
 21
165.12307656777872
  0
LINE
  8
_1-0_
  6
CONTINUOUS
 62
    7
 10
323.29690469277875
 20
159.9515100427576
 11
315.2969030431799
 21
167.95151169235643
  0
LINE
  8
_1-0_
  6
CONTINUOUS
 62
    7
 10
323.29690469277875
 20
162.77993279534419
 11
315.2969030431799
 21
170.77994681693414
  0
LINE
  8
_1-0_
  6
CONTINUOUS
 62
    7
 10
323.29690469277875
 20
165.60836791992187
 11
315.2969030431799
 21
173.60835719752956
  0
LINE
  8
_1-2_
  6
CONTINUOUS
 62
    7
 10
324.29690799197635
 20
113.48630750501479
 11
323.29690469277875
 21
113.48630750501479
  0
LINE
  8
_1-2_
  6
CONTINUOUS
 62
    7
 10
324.29690799197635
 20
126.89461372994089
 11
324.29690799197635
 21
113.48630750501479
  0
LINE
  8
_1-2_
  6
CONTINUOUS
 62
    7
 10
323.29690469277875
 20
126.89461372994089
 11
323.29690469277875
 21
113.48630750501479
  0
LINE
  8
_1-2_
  6
CONTINUOUS
 62
    7
 10
323.29690469277875
 20
113.48630750501479
 11
315.2969030431799
 21
113.48630750501479
  0
LINE
  8
_1-2_
  6
CONTINUOUS
 62
    7
 10
315.2969030431799
 20
126.89461372994089
 11
315.2969030431799
 21
113.48630750501479
  0
LINE
  8
_1-0_
  6
CONTINUOUS
 62
    7
 10
320.27027027027032
 20
149.18918918918919
 11
338.01717397328969
 21
100.42994731181378
  0
LINE
  8
_1-0_
  6
CONTINUOUS
 62
    7
 10
338.01717397328969
 20
100.42994731181378
 11
342.97297297297297
 21
100.42994731181378
  0
LINE
  8
_1-0_
  6
CONTINUOUS
 62
    7
 10
65.544192339922915
 20
169.45945945945948
 11
315.2969030431799
 21
169.45945945945948
  0
LINE
  8
_1-0_
  6
DASHED1
 62
    3
 10
65.544192339922915
 20
170.05946391337628
 11
314.99235410948057
 21
170.05946391337628
  0
LINE
  8
_1-2_
  6
CONTINUOUS
 62
    7
 10
185.42054047455659
 20
177.17077306798987
 11
214.49994061444258
 21
97.275813334697006
  0
LINE
  8
_1-0_
  6
CONTINUOUS
 62
    7
 10
323.29690469277875
 20
148.45946440825591
 11
315.2969030431799
 21
148.45946440825591
  0
LINE
  8
_1-0_
  6
CONTINUOUS
 62
    7
 10
317.81838906777875
 20
148.45946440825591
 11
315.2969030431799
 21
150.98095043285474
  0
LINE
  8
_1-0_
  6
CONTINUOUS
 62
    7
 10
320.64682419235646
 20
148.45946440825591
 11
315.2969030431799
 21
153.8093731854413
  0
LINE
  8
_1-0_
  6
CONTINUOUS
 62
    7
 10
315.2969030431799
 20
148.45946440825591
 11
315.2969030431799
 21
139.45945945945948
  0
LINE
  8
_1-0_
  6
CONTINUOUS
 62
    7
 10
65.544192339922915
 20
137.45946523305534
 11
312.29689314558703
 21
137.45946523305534
  0
LINE
  8
_1-0_
  6
CONTINUOUS
 62
    7
 10
312.29689314558703
 20
139.45945945945948
 11
312.29689314558703
 21
137.45946523305534
  0
LINE
  8
_1-0_
  6
DASHED1
 62
    7
 10
65.544192339922915
 20
139.45945945945948
 11
312.29689314558703
 21
139.45945945945948
  0
LINE
  8
_1-0_
  6
CONTINUOUS
 62
    7
 10
312.29689314558703
 20
139.45945945945948
 11
315.2969030431799
 21
139.45945945945948
  0
LINE
  8
_1-0_
  6
CONTINUOUS
 62
    7
 10
65.544192339922915
 20
159.45946358345651
 11
315.2969030431799
 21
159.45946358345651
  0
LINE
  8
_1-0_
  6
CONTINUOUS
 62
    7
 10
101.97172010267104
 20
159.45946358345651
 11
79.971721752269843
 21
137.45946523305534
  0
LINE
  8
_1-0_
  6
CONTINUOUS
 62
    7
 10
104.80015522724874
 20
159.45946358345651
 11
82.800150690851993
 21
137.45946523305534
  0
LINE
  8
_1-0_
  6
CONTINUOUS
 62
    7
 10
107.62856560784418
 20
159.45946358345651
 11
85.628567257442995
 21
137.45946523305534
  0
LINE
  8
_1-0_
  6
CONTINUOUS
 62
    7
 10
234.05404580605997
 20
159.45946358345651
 11
212.0540474556588
 21
137.45946523305534
  0
LINE
  8
_1-0_
  6
CONTINUOUS
 62
    7
 10
236.88248093063768
 20
159.45946358345651
 11
214.88248258023651
 21
137.45946523305534
  0
LINE
  8
_1-0_
  6
CONTINUOUS
 62
    7
 10
239.71091605521539
 20
159.45946358345651
 11
217.71091770481419
 21
137.45946523305534
  0
CIRCLE
  8
_1-0_
  6
CONTINUOUS
 62
    7
 10
71.555829434781458
 20
167.55896078573693
 40
0.0970232325631218
  0
CIRCLE
  8
_1-0_
  6
CONTINUOUS
 62
    7
 10
74.368675850533151
 20
167.42175540408573
 40
0.0970232325631218
  0
CIRCLE
  8
_1-0_
  6
CONTINUOUS
 62
    7
 10
72.722130852776615
 20
166.11824241844386
 40
0.0970232325631218
  0
CIRCLE
  8
_1-0_
  6
CONTINUOUS
 62
    7
 10
71.555829434781458
 20
166.11824241844386
 40
0.0970232325631218
  0
CIRCLE
  8
_1-0_
  6
CONTINUOUS
 62
    7
 10
71.89886144689612
 20
166.39266555373734
 40
0.0970232325631218
  0
CIRCLE
  8
_1-0_
  6
CONTINUOUS
 62
    7
 10
74.711707862647813
 20
166.04962735562711
 40
0.0970232325631218
  0
CIRCLE
  8
_1-0_
  6
CONTINUOUS
 62
    7
 10
73.339586000184738
 20
165.43217839421453
 40
0.0970232325631218
  0
CIRCLE
  8
_1-0_
  6
CONTINUOUS
 62
    7
 10
79.445528597445104
 20
165.43217839421453
 40
0.0970232325631218
  0
CIRCLE
  8
_1-0_
  6
CONTINUOUS
 62
    7
 10
81.435099421320729
 20
165.98102466480154
 40
0.0970232325631218
  0
CIRCLE
  8
_1-0_
  6
CONTINUOUS
 62
    7
 10
87.60964470940668
 20
165.98102466480154
 40
0.0970232325631218
  0
CIRCLE
  8
_1-0_
  6
CONTINUOUS
 62
    7
 10
81.16067628602724
 20
166.87290913349875
 40
0.0970232325631218
  0
CIRCLE
  8
_1-0_
  6
CONTINUOUS
 62
    7
 10
79.171099276156042
 20
167.62757584855365
 40
0.0970232325631218
  0
CIRCLE
  8
_1-0_
  6
CONTINUOUS
 62
    7
 10
76.221041292757604
 20
166.18684510926943
 40
0.0970232325631218
  0
CIRCLE
  8
_1-0_
  6
CONTINUOUS
 62
    7
 10
82.395586580843542
 20
164.88333212362755
 40
0.0970232325631218
  0
CIRCLE
  8
_1-0_
  6
CONTINUOUS
 62
    7
 10
84.590977849187084
 20
165.08915256809544
 40
0.0970232325631218
  0
CIRCLE
  8
_1-0_
  6
CONTINUOUS
 62
    7
 10
83.150253295898438
 20
166.11824241844386
 40
0.0970232325631218
  0
CIRCLE
  8
_1-0_
  6
CONTINUOUS
 62
    7
 10
83.630490689664285
 20
167.28453765044341
 40
0.0970232325631218
  0
CIRCLE
  8
_1-0_
  6
CONTINUOUS
 62
    7
 10
85.277041873416394
 20
167.90199898384714
 40
0.0970232325631218
  0
CIRCLE
  8
_1-0_
  6
CONTINUOUS
 62
    7
 10
90.216670680690456
 20
167.55896078573693
 40
0.0970232325631218
  0
CIRCLE
  8
_1-0_
  6
CONTINUOUS
 62
    7
 10
92.274856567382813
 20
165.91242197397594
 40
0.0970232325631218
  0
CIRCLE
  8
_1-0_
  6
CONTINUOUS
 62
    7
 10
88.570131868929479
 20
165.29497301256336
 40
0.0970232325631218
  0
CIRCLE
  8
_1-0_
  6
CONTINUOUS
 62
    7
 10
85.620067699535483
 20
165.56938377586573
 40
0.0970232325631218
  0
CIRCLE
  8
_1-0_
  6
CONTINUOUS
 62
    7
 10
78.279220993454402
 20
164.95193481445312
 40
0.0970232325631218
  0
CIRCLE
  8
_1-0_
  6
CONTINUOUS
 62
    7
 10
77.181528452280418
 20
164.67751167915964
 40
0.0970232325631218
  0
CIRCLE
  8
_1-0_
  6
CONTINUOUS
 62
    7
 10
75.740797712996198
 20
164.47169123469172
 40
0.0970232325631218
  0
CIRCLE
  8
_1-0_
  6
CONTINUOUS
 62
    7
 10
73.957041147592918
 20
164.67751167915964
 40
0.0970232325631218
  0
CIRCLE
  8
_1-0_
  6
CONTINUOUS
 62
    7
 10
71.487226743955887
 20
164.60890898833404
 40
0.0970232325631218
  0
CIRCLE
  8
_1-0_
  6
CONTINUOUS
 62
    7
 10
74.711707862647813
 20
167.21593495961784
 40
0.0970232325631218
  0
CIRCLE
  8
_1-0_
  6
CONTINUOUS
 62
    7
 10
76.838496440165756
 20
167.55896078573693
 40
0.0970232325631218
  0
CIRCLE
  8
_1-0_
  6
CONTINUOUS
 62
    7
 10
78.347829870275547
 20
168.10781942831505
 40
0.0970232325631218
  0
CIRCLE
  8
_1-0_
  6
CONTINUOUS
 62
    7
 10
80.954855841559322
 20
168.51944794525971
 40
0.0970232325631218
  0
CIRCLE
  8
_1-0_
  6
CONTINUOUS
 62
    7
 10
80.131586435678855
 20
165.08915256809544
 40
0.0970232325631218
  0
CIRCLE
  8
_1-0_
  6
CONTINUOUS
 62
    7
 10
78.142009425807657
 20
165.91242197397594
 40
0.0970232325631218
  0
CIRCLE
  8
_1-0_
  6
CONTINUOUS
 62
    7
 10
80.2001953125
 20
164.40308854386615
 40
0.0970232325631218
  0
CIRCLE
  8
_1-0_
  6
CONTINUOUS
 62
    7
 10
85.139824119774076
 20
164.19726809939823
 40
0.0970232325631218
  0
CIRCLE
  8
_1-0_
  6
CONTINUOUS
 62
    7
 10
89.050369262695313
 20
163.99144765493034
 40
0.0970232325631218
  0
CIRCLE
  8
_1-0_
  6
CONTINUOUS
 62
    7
 10
94.264427391258451
 20
164.54030629750847
 40
0.0970232325631218
  0
CIRCLE
  8
_1-0_
  6
CONTINUOUS
 62
    7
 10
90.422491125158373
 20
164.47169123469172
 40
0.0970232325631218
  0
CIRCLE
  8
_1-0_
  6
CONTINUOUS
 62
    7
 10
87.884067844700169
 20
167.14733226879224
 40
0.0970232325631218
  0
CIRCLE
  8
_1-0_
  6
CONTINUOUS
 62
    7
 10
93.509760676203555
 20
168.24502480996622
 40
0.0970232325631218
  0
CIRCLE
  8
_1-0_
  6
CONTINUOUS
 62
    7
 10
87.952676721521328
 20
168.58805063608531
 40
0.0970232325631218
  0
CIRCLE
  8
_1-0_
  6
CONTINUOUS
 62
    7
 10
95.636555439717071
 20
167.14733226879224
 40
0.0970232325631218
  0
CIRCLE
  8
_1-0_
  6
CONTINUOUS
 62
    7
 10
93.098132159258867
 20
167.01011451514992
 40
0.0970232325631218
  0
CIRCLE
  8
_1-0_
  6
CONTINUOUS
 62
    7
 10
92.069036122914909
 20
165.29497301256336
 40
0.0970232325631218
  0
CIRCLE
  8
_1-0_
  6
CONTINUOUS
 62
    7
 10
95.11630084063556
 20
167.55896078573693
 40
0.0970232325631218
  0
CIRCLE
  8
_1-0_
  6
CONTINUOUS
 62
    7
 10
97.929147256387253
 20
167.42175540408573
 40
0.0970232325631218
  0
CIRCLE
  8
_1-0_
  6
CONTINUOUS
 62
    7
 10
96.282602258630703
 20
166.11824241844386
 40
0.0970232325631218
  0
CIRCLE
  8
_1-0_
  6
CONTINUOUS
 62
    7
 10
95.11630084063556
 20
166.11824241844386
 40
0.0970232325631218
  0
CIRCLE
  8
_1-0_
  6
CONTINUOUS
 62
    7
 10
95.459332852750222
 20
166.39266555373734
 40
0.0970232325631218
  0
CIRCLE
  8
_1-0_
  6
CONTINUOUS
 62
    7
 10
98.272179268501901
 20
166.04962735562711
 40
0.0970232325631218
  0
CIRCLE
  8
_1-0_
  6
CONTINUOUS
 62
    7
 10
96.900057406038854
 20
165.43217839421453
 40
0.0970232325631218
  0
CIRCLE
  8
_1-0_
  6
CONTINUOUS
 62
    7
 10
103.00600000329921
 20
165.43217839421453
 40
0.0970232325631218
  0
CIRCLE
  8
_1-0_
  6
CONTINUOUS
 62
    7
 10
104.99557082717483
 20
165.98102466480154
 40
0.0970232325631218
  0
CIRCLE
  8
_1-0_
  6
CONTINUOUS
 62
    7
 10
111.17010992926521
 20
165.98102466480154
 40
0.0970232325631218
  0
CIRCLE
  8
_1-0_
  6
CONTINUOUS
 62
    7
 10
104.72114769188134
 20
166.87290913349875
 40
0.0970232325631218
  0
CIRCLE
  8
_1-0_
  6
CONTINUOUS
 62
    7
 10
102.73157068201014
 20
167.62757584855365
 40
0.0970232325631218
  0
CIRCLE
  8
_1-0_
  6
CONTINUOUS
 62
    7
 10
99.781512698611706
 20
166.18684510926943
 40
0.0970232325631218
  0
CIRCLE
  8
_1-0_
  6
CONTINUOUS
 62
    7
 10
105.95605798669764
 20
164.88333212362755
 40
0.0970232325631218
  0
CIRCLE
  8
_1-0_
  6
CONTINUOUS
 62
    7
 10
108.15144306904561
 20
165.08915256809544
 40
0.0970232325631218
  0
CIRCLE
  8
_1-0_
  6
CONTINUOUS
 62
    7
 10
106.71072470175254
 20
166.11824241844386
 40
0.0970232325631218
  0
CIRCLE
  8
_1-0_
  6
CONTINUOUS
 62
    7
 10
107.19095590952281
 20
167.28453765044341
 40
0.0970232325631218
  0
CIRCLE
  8
_1-0_
  6
CONTINUOUS
 62
    7
 10
108.83751946526606
 20
167.90199898384714
 40
0.0970232325631218
  0
CIRCLE
  8
_1-0_
  6
CONTINUOUS
 62
    7
 10
113.777135900549
 20
167.55896078573693
 40
0.0970232325631218
  0
CIRCLE
  8
_1-0_
  6
CONTINUOUS
 62
    7
 10
115.83532797323691
 20
165.91242197397594
 40
0.0970232325631218
  0
CIRCLE
  8
_1-0_
  6
CONTINUOUS
 62
    7
 10
112.13059708878801
 20
165.29497301256336
 40
0.0970232325631218
  0
CIRCLE
  8
_1-0_
  6
CONTINUOUS
 62
    7
 10
109.18054529138514
 20
165.56938377586573
 40
0.0970232325631218
  0
CIRCLE
  8
_1-0_
  6
CONTINUOUS
 62
    7
 10
101.83969239930849
 20
164.95193481445312
 40
0.0970232325631218
  0
CIRCLE
  8
_1-0_
  6
CONTINUOUS
 62
    7
 10
100.74199985813451
 20
164.67751167915964
 40
0.0970232325631218
  0
CIRCLE
  8
_1-0_
  6
CONTINUOUS
 62
    7
 10
99.3012691188503
 20
164.47169123469172
 40
0.0970232325631218
  0
CIRCLE
  8
_1-0_
  6
CONTINUOUS
 62
    7
 10
97.517512553447006
 20
164.67751167915964
 40
0.0970232325631218
  0
CIRCLE
  8
_1-0_
  6
CONTINUOUS
 62
    7
 10
95.047698149809975
 20
164.60890898833404
 40
0.0970232325631218
  0
CIRCLE
  8
_1-0_
  6
CONTINUOUS
 62
    7
 10
98.272179268501901
 20
167.21593495961784
 40
0.0970232325631218
  0
CIRCLE
  8
_1-0_
  6
CONTINUOUS
 62
    7
 10
100.39896784601986
 20
167.55896078573693
 40
0.0970232325631218
  0
CIRCLE
  8
_1-0_
  6
CONTINUOUS
 62
    7
 10
101.90830127612965
 20
168.10781942831505
 40
0.0970232325631218
  0
CIRCLE
  8
_1-0_
  6
CONTINUOUS
 62
    7
 10
103.69205784153294
 20
165.08915256809544
 40
0.0970232325631218
  0
CIRCLE
  8
_1-0_
  6
CONTINUOUS
 62
    7
 10
101.70248083166175
 20
165.91242197397594
 40
0.0970232325631218
  0
CIRCLE
  8
_1-0_
  6
CONTINUOUS
 62
    7
 10
103.7606667183541
 20
164.40308854386615
 40
0.0970232325631218
  0
CIRCLE
  8
_1-0_
  6
CONTINUOUS
 62
    7
 10
108.7002893396326
 20
164.19726809939823
 40
0.0970232325631218
  0
CIRCLE
  8
_1-0_
  6
CONTINUOUS
 62
    7
 10
112.61084066854941
 20
163.99144765493034
 40
0.0970232325631218
  0
CIRCLE
  8
_1-0_
  6
CONTINUOUS
 62
    7
 10
117.82490498310811
 20
164.54030629750847
 40
0.0970232325631218
  0
CIRCLE
  8
_1-0_
  6
CONTINUOUS
 62
    7
 10
113.9829563450169
 20
164.47169123469172
 40
0.0970232325631218
  0
CIRCLE
  8
_1-0_
  6
CONTINUOUS
 62
    7
 10
111.44454543654983
 20
167.14733226879224
 40
0.0970232325631218
  0
CIRCLE
  8
_1-0_
  6
CONTINUOUS
 62
    7
 10
117.07023826805322
 20
168.24502480996622
 40
0.0970232325631218
  0
CIRCLE
  8
_1-0_
  6
CONTINUOUS
 62
    7
 10
119.19703303156673
 20
167.14733226879224
 40
0.0970232325631218
  0
CIRCLE
  8
_1-0_
  6
CONTINUOUS
 62
    7
 10
116.65859737911741
 20
167.01011451514992
 40
0.0970232325631218
  0
CIRCLE
  8
_1-0_
  6
CONTINUOUS
 62
    7
 10
115.62950752876901
 20
165.29497301256336
 40
0.0970232325631218
  0
CIRCLE
  8
_1-0_
  6
CONTINUOUS
 62
    7
 10
120.4549181139147
 20
167.55896078573693
 40
0.0970232325631218
  0
CIRCLE
  8
_1-0_
  6
CONTINUOUS
 62
    7
 10
123.26776452966639
 20
167.42175540408573
 40
0.0970232325631218
  0
CIRCLE
  8
_1-0_
  6
CONTINUOUS
 62
    7
 10
121.62122571790542
 20
166.11824241844386
 40
0.0970232325631218
  0
CIRCLE
  8
_1-0_
  6
CONTINUOUS
 62
    7
 10
120.4549181139147
 20
166.11824241844386
 40
0.0970232325631218
  0
CIRCLE
  8
_1-0_
  6
CONTINUOUS
 62
    7
 10
120.79795631202492
 20
166.39266555373734
 40
0.0970232325631218
  0
CIRCLE
  8
_1-0_
  6
CONTINUOUS
 62
    7
 10
123.61080272777662
 20
166.04962735562711
 40
0.0970232325631218
  0
CIRCLE
  8
_1-0_
  6
CONTINUOUS
 62
    7
 10
122.23868705130913
 20
165.43217839421453
 40
0.0970232325631218
  0
CIRCLE
  8
_1-0_
  6
CONTINUOUS
 62
    7
 10
128.34462346257391
 20
165.43217839421453
 40
0.0970232325631218
  0
CIRCLE
  8
_1-0_
  6
CONTINUOUS
 62
    7
 10
130.3342004724451
 20
165.98102466480154
 40
0.0970232325631218
  0
CIRCLE
  8
_1-0_
  6
CONTINUOUS
 62
    7
 10
136.50873957453547
 20
165.98102466480154
 40
0.0970232325631218
  0
CIRCLE
  8
_1-0_
  6
CONTINUOUS
 62
    7
 10
130.05976496516047
 20
166.87290913349875
 40
0.0970232325631218
  0
CIRCLE
  8
_1-0_
  6
CONTINUOUS
 62
    7
 10
128.07020032728042
 20
167.62757584855365
 40
0.0970232325631218
  0
CIRCLE
  8
_1-0_
  6
CONTINUOUS
 62
    7
 10
125.12013615788641
 20
166.18684510926943
 40
0.0970232325631218
  0
CIRCLE
  8
_1-0_
  6
CONTINUOUS
 62
    7
 10
131.29468763196792
 20
164.88333212362755
 40
0.0970232325631218
  0
CIRCLE
  8
_1-0_
  6
CONTINUOUS
 62
    7
 10
133.49007271431589
 20
165.08915256809544
 40
0.0970232325631218
  0
CIRCLE
  8
_1-0_
  6
CONTINUOUS
 62
    7
 10
132.04935434702281
 20
166.11824241844386
 40
0.0970232325631218
  0
CIRCLE
  8
_1-0_
  6
CONTINUOUS
 62
    7
 10
132.52958555479307
 20
167.28453765044341
 40
0.0970232325631218
  0
CIRCLE
  8
_1-0_
  6
CONTINUOUS
 62
    7
 10
134.17613673854518
 20
167.90199898384714
 40
0.0970232325631218
  0
CIRCLE
  8
_1-0_
  6
CONTINUOUS
 62
    7
 10
139.11576554581927
 20
167.55896078573693
 40
0.0970232325631218
  0
CIRCLE
  8
_1-0_
  6
CONTINUOUS
 62
    7
 10
141.17394524651604
 20
165.91242197397594
 40
0.0970232325631218
  0
CIRCLE
  8
_1-0_
  6
CONTINUOUS
 62
    7
 10
137.46922673405828
 20
165.29497301256336
 40
0.0970232325631218
  0
CIRCLE
  8
_1-0_
  6
CONTINUOUS
 62
    7
 10
134.51916256466427
 20
165.56938377586573
 40
0.0970232325631218
  0
CIRCLE
  8
_1-0_
  6
CONTINUOUS
 62
    7
 10
127.1783158585832
 20
164.95193481445312
 40
0.0970232325631218
  0
CIRCLE
  8
_1-0_
  6
CONTINUOUS
 62
    7
 10
126.08062331740922
 20
164.67751167915964
 40
0.0970232325631218
  0
CIRCLE
  8
_1-0_
  6
CONTINUOUS
 62
    7
 10
124.639892578125
 20
164.47169123469172
 40
0.0970232325631218
  0
CIRCLE
  8
_1-0_
  6
CONTINUOUS
 62
    7
 10
122.85613601272172
 20
164.67751167915964
 40
0.0970232325631218
  0
CIRCLE
  8
_1-0_
  6
CONTINUOUS
 62
    7
 10
120.38632779508025
 20
164.60890898833404
 40
0.0970232325631218
  0
CIRCLE
  8
_1-0_
  6
CONTINUOUS
 62
    7
 10
123.61080272777662
 20
167.21593495961784
 40
0.0970232325631218
  0
CIRCLE
  8
_1-0_
  6
CONTINUOUS
 62
    7
 10
125.737585119299
 20
167.55896078573693
 40
0.0970232325631218
  0
CIRCLE
  8
_1-0_
  6
CONTINUOUS
 62
    7
 10
127.24691854940879
 20
168.10781942831505
 40
0.0970232325631218
  0
CIRCLE
  8
_1-0_
  6
CONTINUOUS
 62
    7
 10
129.0306874868032
 20
165.08915256809544
 40
0.0970232325631218
  0
CIRCLE
  8
_1-0_
  6
CONTINUOUS
 62
    7
 10
127.04109810494089
 20
165.91242197397594
 40
0.0970232325631218
  0
CIRCLE
  8
_1-0_
  6
CONTINUOUS
 62
    7
 10
129.0992901776288
 20
164.40308854386615
 40
0.0970232325631218
  0
CIRCLE
  8
_1-0_
  6
CONTINUOUS
 62
    7
 10
134.03891898490289
 20
164.19726809939823
 40
0.0970232325631218
  0
CIRCLE
  8
_1-0_
  6
CONTINUOUS
 62
    7
 10
137.94945794182854
 20
163.99144765493034
 40
0.0970232325631218
  0
CIRCLE
  8
_1-0_
  6
CONTINUOUS
 62
    7
 10
143.16352225638727
 20
164.54030629750847
 40
0.0970232325631218
  0
CIRCLE
  8
_1-0_
  6
CONTINUOUS
 62
    7
 10
139.32158599028716
 20
164.47169123469172
 40
0.0970232325631218
  0
CIRCLE
  8
_1-0_
  6
CONTINUOUS
 62
    7
 10
136.78316270982899
 20
167.14733226879224
 40
0.0970232325631218
  0
CIRCLE
  8
_1-0_
  6
CONTINUOUS
 62
    7
 10
142.40885554133234
 20
168.24502480996622
 40
0.0970232325631218
  0
CIRCLE
  8
_1-0_
  6
CONTINUOUS
 62
    7
 10
144.53565030484586
 20
167.14733226879224
 40
0.0970232325631218
  0
CIRCLE
  8
_1-0_
  6
CONTINUOUS
 62
    7
 10
141.99722702438768
 20
167.01011451514992
 40
0.0970232325631218
  0
CIRCLE
  8
_1-0_
  6
CONTINUOUS
 62
    7
 10
140.96812480204815
 20
165.29497301256336
 40
0.0970232325631218
  0
CIRCLE
  8
_1-0_
  6
CONTINUOUS
 62
    7
 10
150.23892789273648
 20
167.55896078573693
 40
0.0970232325631218
  0
CIRCLE
  8
_1-0_
  6
CONTINUOUS
 62
    7
 10
153.05177430848818
 20
167.42175540408573
 40
0.0970232325631218
  0
CIRCLE
  8
_1-0_
  6
CONTINUOUS
 62
    7
 10
151.40522312473607
 20
166.11824241844386
 40
0.0970232325631218
  0
CIRCLE
  8
_1-0_
  6
CONTINUOUS
 62
    7
 10
150.23892789273648
 20
166.11824241844386
 40
0.0970232325631218
  0
CIRCLE
  8
_1-0_
  6
CONTINUOUS
 62
    7
 10
150.58195371885557
 20
166.39266555373734
 40
0.0970232325631218
  0
CIRCLE
  8
_1-0_
  6
CONTINUOUS
 62
    7
 10
153.39480013460727
 20
166.04962735562711
 40
0.0970232325631218
  0
CIRCLE
  8
_1-0_
  6
CONTINUOUS
 62
    7
 10
152.02267208614865
 20
165.43217839421453
 40
0.0970232325631218
  0
CIRCLE
  8
_1-0_
  6
CONTINUOUS
 62
    7
 10
158.12862086940456
 20
165.43217839421453
 40
0.0970232325631218
  0
CIRCLE
  8
_1-0_
  6
CONTINUOUS
 62
    7
 10
160.11818550728464
 20
165.98102466480154
 40
0.0970232325631218
  0
CIRCLE
  8
_1-0_
  6
CONTINUOUS
 62
    7
 10
166.29273698136615
 20
165.98102466480154
 40
0.0970232325631218
  0
CIRCLE
  8
_1-0_
  6
CONTINUOUS
 62
    7
 10
159.84377474398227
 20
166.87290913349875
 40
0.0970232325631218
  0
CIRCLE
  8
_1-0_
  6
CONTINUOUS
 62
    7
 10
157.85418536211995
 20
167.62757584855365
 40
0.0970232325631218
  0
CIRCLE
  8
_1-0_
  6
CONTINUOUS
 62
    7
 10
154.90413356471706
 20
166.18684510926943
 40
0.0970232325631218
  0
CIRCLE
  8
_1-0_
  6
CONTINUOUS
 62
    7
 10
161.07867266680745
 20
164.88333212362755
 40
0.0970232325631218
  0
CIRCLE
  8
_1-0_
  6
CONTINUOUS
 62
    7
 10
163.27407012114654
 20
165.08915256809544
 40
0.0970232325631218
  0
CIRCLE
  8
_1-0_
  6
CONTINUOUS
 62
    7
 10
161.83333938186234
 20
166.11824241844386
 40
0.0970232325631218
  0
CIRCLE
  8
_1-0_
  6
CONTINUOUS
 62
    7
 10
162.31358296162375
 20
167.28453765044341
 40
0.0970232325631218
  0
CIRCLE
  8
_1-0_
  6
CONTINUOUS
 62
    7
 10
163.96013414537586
 20
167.90199898384714
 40
0.0970232325631218
  0
CIRCLE
  8
_1-0_
  6
CONTINUOUS
 62
    7
 10
168.89976295264992
 20
167.55896078573693
 40
0.0970232325631218
  0
CIRCLE
  8
_1-0_
  6
CONTINUOUS
 62
    7
 10
170.95795502533784
 20
165.91242197397594
 40
0.0970232325631218
  0
CIRCLE
  8
_1-0_
  6
CONTINUOUS
 62
    7
 10
167.25322414088893
 20
165.29497301256336
 40
0.0970232325631218
  0
CIRCLE
  8
_1-0_
  6
CONTINUOUS
 62
    7
 10
164.30315997149495
 20
165.56938377586573
 40
0.0970232325631218
  0
CIRCLE
  8
_1-0_
  6
CONTINUOUS
 62
    7
 10
156.96231326541385
 20
164.95193481445312
 40
0.0970232325631218
  0
CIRCLE
  8
_1-0_
  6
CONTINUOUS
 62
    7
 10
155.86462072423987
 20
164.67751167915964
 40
0.0970232325631218
  0
CIRCLE
  8
_1-0_
  6
CONTINUOUS
 62
    7
 10
154.42388998495568
 20
164.47169123469172
 40
0.0970232325631218
  0
CIRCLE
  8
_1-0_
  6
CONTINUOUS
 62
    7
 10
152.64013341955237
 20
164.67751167915964
 40
0.0970232325631218
  0
CIRCLE
  8
_1-0_
  6
CONTINUOUS
 62
    7
 10
150.17031282991977
 20
164.60890898833404
 40
0.0970232325631218
  0
CIRCLE
  8
_1-0_
  6
CONTINUOUS
 62
    7
 10
153.39480013460727
 20
167.21593495961784
 40
0.0970232325631218
  0
CIRCLE
  8
_1-0_
  6
CONTINUOUS
 62
    7
 10
155.52159489812078
 20
167.55896078573693
 40
0.0970232325631218
  0
CIRCLE
  8
_1-0_
  6
CONTINUOUS
 62
    7
 10
157.03092832823057
 20
168.10781942831505
 40
0.0970232325631218
  0
CIRCLE
  8
_1-0_
  6
CONTINUOUS
 62
    7
 10
158.81467252164273
 20
165.08915256809544
 40
0.0970232325631218
  0
CIRCLE
  8
_1-0_
  6
CONTINUOUS
 62
    7
 10
156.82510788376268
 20
165.91242197397594
 40
0.0970232325631218
  0
CIRCLE
  8
_1-0_
  6
CONTINUOUS
 62
    7
 10
158.88328758445948
 20
164.40308854386615
 40
0.0970232325631218
  0
CIRCLE
  8
_1-0_
  6
CONTINUOUS
 62
    7
 10
163.82291639173354
 20
164.19726809939823
 40
0.0970232325631218
  0
CIRCLE
  8
_1-0_
  6
CONTINUOUS
 62
    7
 10
167.73346772065034
 20
163.99144765493034
 40
0.0970232325631218
  0
CIRCLE
  8
_1-0_
  6
CONTINUOUS
 62
    7
 10
172.94751966321792
 20
164.54030629750847
 40
0.0970232325631218
  0
CIRCLE
  8
_1-0_
  6
CONTINUOUS
 62
    7
 10
169.10558339711784
 20
164.47169123469172
 40
0.0970232325631218
  0
CIRCLE
  8
_1-0_
  6
CONTINUOUS
 62
    7
 10
166.56716011665964
 20
167.14733226879224
 40
0.0970232325631218
  0
CIRCLE
  8
_1-0_
  6
CONTINUOUS
 62
    7
 10
172.19285294816302
 20
168.24502480996622
 40
0.0970232325631218
  0
CIRCLE
  8
_1-0_
  6
CONTINUOUS
 62
    7
 10
174.31964771167654
 20
167.14733226879224
 40
0.0970232325631218
  0
CIRCLE
  8
_1-0_
  6
CONTINUOUS
 62
    7
 10
171.78122443121833
 20
167.01011451514992
 40
0.0970232325631218
  0
CIRCLE
  8
_1-0_
  6
CONTINUOUS
 62
    7
 10
170.75213458086995
 20
165.29497301256336
 40
0.0970232325631218
  0
CIRCLE
  8
_1-0_
  6
CONTINUOUS
 62
    7
 10
177.3556848474451
 20
167.55896078573693
 40
0.0970232325631218
  0
CIRCLE
  8
_1-0_
  6
CONTINUOUS
 62
    7
 10
180.1685312631968
 20
167.42175540408573
 40
0.0970232325631218
  0
CIRCLE
  8
_1-0_
  6
CONTINUOUS
 62
    7
 10
178.52198007944469
 20
166.11824241844386
 40
0.0970232325631218
  0
CIRCLE
  8
_1-0_
  6
CONTINUOUS
 62
    7
 10
177.3556848474451
 20
166.11824241844386
 40
0.0970232325631218
  0
CIRCLE
  8
_1-0_
  6
CONTINUOUS
 62
    7
 10
177.69871067356419
 20
166.39266555373734
 40
0.0970232325631218
  0
CIRCLE
  8
_1-0_
  6
CONTINUOUS
 62
    7
 10
180.51155708931589
 20
166.04962735562711
 40
0.0970232325631218
  0
CIRCLE
  8
_1-0_
  6
CONTINUOUS
 62
    7
 10
179.13942904085727
 20
165.43217839421453
 40
0.0970232325631218
  0
CIRCLE
  8
_1-0_
  6
CONTINUOUS
 62
    7
 10
185.24537782411318
 20
165.43217839421453
 40
0.0970232325631218
  0
CIRCLE
  8
_1-0_
  6
CONTINUOUS
 62
    7
 10
187.23494246199326
 20
165.98102466480154
 40
0.0970232325631218
  0
CIRCLE
  8
_1-0_
  6
CONTINUOUS
 62
    7
 10
193.40949393607477
 20
165.98102466480154
 40
0.0970232325631218
  0
CIRCLE
  8
_1-0_
  6
CONTINUOUS
 62
    7
 10
186.96053169869089
 20
166.87290913349875
 40
0.0970232325631218
  0
CIRCLE
  8
_1-0_
  6
CONTINUOUS
 62
    7
 10
184.97094231682857
 20
167.62757584855365
 40
0.0970232325631218
  0
CIRCLE
  8
_1-0_
  6
CONTINUOUS
 62
    7
 10
182.02089051942568
 20
166.18684510926943
 40
0.0970232325631218
  0
CIRCLE
  8
_1-0_
  6
CONTINUOUS
 62
    7
 10
188.19542962151607
 20
164.88333212362755
 40
0.0970232325631218
  0
CIRCLE
  8
_1-0_
  6
CONTINUOUS
 62
    7
 10
190.39082707585516
 20
165.08915256809544
 40
0.0970232325631218
  0
CIRCLE
  8
_1-0_
  6
CONTINUOUS
 62
    7
 10
188.95009633657097
 20
166.11824241844386
 40
0.0970232325631218
  0
CIRCLE
  8
_1-0_
  6
CONTINUOUS
 62
    7
 10
189.43033991633237
 20
167.28453765044341
 40
0.0970232325631218
  0
CIRCLE
  8
_1-0_
  6
CONTINUOUS
 62
    7
 10
191.07689110008448
 20
167.90199898384714
 40
0.0970232325631218
  0
CIRCLE
  8
_1-0_
  6
CONTINUOUS
 62
    7
 10
196.01651990735854
 20
167.55896078573693
 40
0.0970232325631218
  0
CIRCLE
  8
_1-0_
  6
CONTINUOUS
 62
    7
 10
198.07471198004646
 20
165.91242197397594
 40
0.0970232325631218
  0
CIRCLE
  8
_1-0_
  6
CONTINUOUS
 62
    7
 10
194.36998109559755
 20
165.29497301256336
 40
0.0970232325631218
  0
CIRCLE
  8
_1-0_
  6
CONTINUOUS
 62
    7
 10
191.41991692620357
 20
165.56938377586573
 40
0.0970232325631218
  0
CIRCLE
  8
_1-0_
  6
CONTINUOUS
 62
    7
 10
184.07907022012247
 20
164.95193481445312
 40
0.0970232325631218
  0
CIRCLE
  8
_1-0_
  6
CONTINUOUS
 62
    7
 10
182.98137767894849
 20
164.67751167915964
 40
0.0970232325631218
  0
CIRCLE
  8
_1-0_
  6
CONTINUOUS
 62
    7
 10
181.54064693966427
 20
164.47169123469172
 40
0.0970232325631218
  0
CIRCLE
  8
_1-0_
  6
CONTINUOUS
 62
    7
 10
179.75689037426099
 20
164.67751167915964
 40
0.0970232325631218
  0
CIRCLE
  8
_1-0_
  6
CONTINUOUS
 62
    7
 10
177.28706978462839
 20
164.60890898833404
 40
0.0970232325631218
  0
CIRCLE
  8
_1-0_
  6
CONTINUOUS
 62
    7
 10
180.51155708931589
 20
167.21593495961784
 40
0.0970232325631218
  0
CIRCLE
  8
_1-0_
  6
CONTINUOUS
 62
    7
 10
182.6383518528294
 20
167.55896078573693
 40
0.0970232325631218
  0
CIRCLE
  8
_1-0_
  6
CONTINUOUS
 62
    7
 10
184.14768528293919
 20
168.10781942831505
 40
0.0970232325631218
  0
CIRCLE
  8
_1-0_
  6
CONTINUOUS
 62
    7
 10
185.93142947635135
 20
165.08915256809544
 40
0.0970232325631218
  0
CIRCLE
  8
_1-0_
  6
CONTINUOUS
 62
    7
 10
183.9418648384713
 20
165.91242197397594
 40
0.0970232325631218
  0
CIRCLE
  8
_1-0_
  6
CONTINUOUS
 62
    7
 10
186.00004453916807
 20
164.40308854386615
 40
0.0970232325631218
  0
CIRCLE
  8
_1-0_
  6
CONTINUOUS
 62
    7
 10
190.93967334644216
 20
164.19726809939823
 40
0.0970232325631218
  0
CIRCLE
  8
_1-0_
  6
CONTINUOUS
 62
    7
 10
194.85022467535896
 20
163.99144765493034
 40
0.0970232325631218
  0
CIRCLE
  8
_1-0_
  6
CONTINUOUS
 62
    7
 10
200.06427661792654
 20
164.54030629750847
 40
0.0970232325631218
  0
CIRCLE
  8
_1-0_
  6
CONTINUOUS
 62
    7
 10
196.22234035182646
 20
164.47169123469172
 40
0.0970232325631218
  0
CIRCLE
  8
_1-0_
  6
CONTINUOUS
 62
    7
 10
193.68391707136826
 20
167.14733226879224
 40
0.0970232325631218
  0
CIRCLE
  8
_1-0_
  6
CONTINUOUS
 62
    7
 10
199.30960990287164
 20
168.24502480996622
 40
0.0970232325631218
  0
CIRCLE
  8
_1-0_
  6
CONTINUOUS
 62
    7
 10
201.43640466638516
 20
167.14733226879224
 40
0.0970232325631218
  0
CIRCLE
  8
_1-0_
  6
CONTINUOUS
 62
    7
 10
198.89798138592695
 20
167.01011451514992
 40
0.0970232325631218
  0
CIRCLE
  8
_1-0_
  6
CONTINUOUS
 62
    7
 10
197.86889153557857
 20
165.29497301256336
 40
0.0970232325631218
  0
CIRCLE
  8
_1-0_
  6
CONTINUOUS
 62
    7
 10
201.13843763196792
 20
167.55896078573693
 40
0.0970232325631218
  0
CIRCLE
  8
_1-0_
  6
CONTINUOUS
 62
    7
 10
203.95128404771961
 20
167.42175540408573
 40
0.0970232325631218
  0
CIRCLE
  8
_1-0_
  6
CONTINUOUS
 62
    7
 10
202.3047328639675
 20
166.11824241844386
 40
0.0970232325631218
  0
CIRCLE
  8
_1-0_
  6
CONTINUOUS
 62
    7
 10
201.13843763196792
 20
166.11824241844386
 40
0.0970232325631218
  0
CIRCLE
  8
_1-0_
  6
CONTINUOUS
 62
    7
 10
201.48146345808701
 20
166.39266555373734
 40
0.0970232325631218
  0
CIRCLE
  8
_1-0_
  6
CONTINUOUS
 62
    7
 10
204.2943098738387
 20
166.04962735562711
 40
0.0970232325631218
  0
CIRCLE
  8
_1-0_
  6
CONTINUOUS
 62
    7
 10
202.92218182538008
 20
165.43217839421453
 40
0.0970232325631218
  0
CIRCLE
  8
_1-0_
  6
CONTINUOUS
 62
    7
 10
209.02813060863599
 20
165.43217839421453
 40
0.0970232325631218
  0
CIRCLE
  8
_1-0_
  6
CONTINUOUS
 62
    7
 10
211.01769524651607
 20
165.98102466480154
 40
0.0970232325631218
  0
CIRCLE
  8
_1-0_
  6
CONTINUOUS
 62
    7
 10
217.19223434860643
 20
165.98102466480154
 40
0.0970232325631218
  0
CIRCLE
  8
_1-0_
  6
CONTINUOUS
 62
    7
 10
210.7432844832137
 20
166.87290913349875
 40
0.0970232325631218
  0
CIRCLE
  8
_1-0_
  6
CONTINUOUS
 62
    7
 10
208.75369510135135
 20
167.62757584855365
 40
0.0970232325631218
  0
CIRCLE
  8
_1-0_
  6
CONTINUOUS
 62
    7
 10
205.80364330394849
 20
166.18684510926943
 40
0.0970232325631218
  0
CIRCLE
  8
_1-0_
  6
CONTINUOUS
 62
    7
 10
211.97818240603885
 20
164.88333212362755
 40
0.0970232325631218
  0
CIRCLE
  8
_1-0_
  6
CONTINUOUS
 62
    7
 10
214.17356748838682
 20
165.08915256809544
 40
0.0970232325631218
  0
CIRCLE
  8
_1-0_
  6
CONTINUOUS
 62
    7
 10
212.73284912109375
 20
166.11824241844386
 40
0.0970232325631218
  0
CIRCLE
  8
_1-0_
  6
CONTINUOUS
 62
    7
 10
213.2131050728463
 20
167.28453765044341
 40
0.0970232325631218
  0
CIRCLE
  8
_1-0_
  6
CONTINUOUS
 62
    7
 10
214.85964388460727
 20
167.90199898384714
 40
0.0970232325631218
  0
CIRCLE
  8
_1-0_
  6
CONTINUOUS
 62
    7
 10
219.79926031989021
 20
167.55896078573693
 40
0.0970232325631218
  0
CIRCLE
  8
_1-0_
  6
CONTINUOUS
 62
    7
 10
221.85746476456927
 20
165.91242197397594
 40
0.0970232325631218
  0
CIRCLE
  8
_1-0_
  6
CONTINUOUS
 62
    7
 10
218.15274625211151
 20
165.29497301256336
 40
0.0970232325631218
  0
CIRCLE
  8
_1-0_
  6
CONTINUOUS
 62
    7
 10
215.20266971072635
 20
165.56938377586573
 40
0.0970232325631218
  0
CIRCLE
  8
_1-0_
  6
CONTINUOUS
 62
    7
 10
207.86182300464529
 20
164.95193481445312
 40
0.0970232325631218
  0
CIRCLE
  8
_1-0_
  6
CONTINUOUS
 62
    7
 10
206.7641304634713
 20
164.67751167915964
 40
0.0970232325631218
  0
CIRCLE
  8
_1-0_
  6
CONTINUOUS
 62
    7
 10
205.32339972418708
 20
164.47169123469172
 40
0.0970232325631218
  0
CIRCLE
  8
_1-0_
  6
CONTINUOUS
 62
    7
 10
203.5396431587838
 20
164.67751167915964
 40
0.0970232325631218
  0
CIRCLE
  8
_1-0_
  6
CONTINUOUS
 62
    7
 10
201.0698225691512
 20
164.60890898833404
 40
0.0970232325631218
  0
CIRCLE
  8
_1-0_
  6
CONTINUOUS
 62
    7
 10
204.2943098738387
 20
167.21593495961784
 40
0.0970232325631218
  0
CIRCLE
  8
_1-0_
  6
CONTINUOUS
 62
    7
 10
206.42110463735222
 20
167.55896078573693
 40
0.0970232325631218
  0
CIRCLE
  8
_1-0_
  6
CONTINUOUS
 62
    7
 10
207.93043806746201
 20
168.10781942831505
 40
0.0970232325631218
  0
CIRCLE
  8
_1-0_
  6
CONTINUOUS
 62
    7
 10
209.71418226087417
 20
165.08915256809544
 40
0.0970232325631218
  0
CIRCLE
  8
_1-0_
  6
CONTINUOUS
 62
    7
 10
207.72461762299409
 20
165.91242197397594
 40
0.0970232325631218
  0
CIRCLE
  8
_1-0_
  6
CONTINUOUS
 62
    7
 10
209.78279732369089
 20
164.40308854386615
 40
0.0970232325631218
  0
CIRCLE
  8
_1-0_
  6
CONTINUOUS
 62
    7
 10
214.72243850295609
 20
164.19726809939823
 40
0.0970232325631218
  0
CIRCLE
  8
_1-0_
  6
CONTINUOUS
 62
    7
 10
218.63297745988177
 20
163.99144765493034
 40
0.0970232325631218
  0
CIRCLE
  8
_1-0_
  6
CONTINUOUS
 62
    7
 10
223.84702940244932
 20
164.54030629750847
 40
0.0970232325631218
  0
CIRCLE
  8
_1-0_
  6
CONTINUOUS
 62
    7
 10
220.00508076435813
 20
164.47169123469172
 40
0.0970232325631218
  0
CIRCLE
  8
_1-0_
  6
CONTINUOUS
 62
    7
 10
217.46666985589107
 20
167.14733226879224
 40
0.0970232325631218
  0
CIRCLE
  8
_1-0_
  6
CONTINUOUS
 62
    7
 10
223.09236268739443
 20
168.24502480996622
 40
0.0970232325631218
  0
CIRCLE
  8
_1-0_
  6
CONTINUOUS
 62
    7
 10
225.21915745090794
 20
167.14733226879224
 40
0.0970232325631218
  0
CIRCLE
  8
_1-0_
  6
CONTINUOUS
 62
    7
 10
222.68074654244089
 20
167.01011451514992
 40
0.0970232325631218
  0
CIRCLE
  8
_1-0_
  6
CONTINUOUS
 62
    7
 10
221.65164432010135
 20
165.29497301256336
 40
0.0970232325631218
  0
CIRCLE
  8
_1-0_
  6
CONTINUOUS
 62
    7
 10
226.47704253325591
 20
167.55896078573693
 40
0.0970232325631218
  0
CIRCLE
  8
_1-0_
  6
CONTINUOUS
 62
    7
 10
229.2898889490076
 20
167.42175540408573
 40
0.0970232325631218
  0
CIRCLE
  8
_1-0_
  6
CONTINUOUS
 62
    7
 10
227.64335013724664
 20
166.11824241844386
 40
0.0970232325631218
  0
CIRCLE
  8
_1-0_
  6
CONTINUOUS
 62
    7
 10
226.47704253325591
 20
166.11824241844386
 40
0.0970232325631218
  0
CIRCLE
  8
_1-0_
  6
CONTINUOUS
 62
    7
 10
226.820068359375
 20
166.39266555373734
 40
0.0970232325631218
  0
CIRCLE
  8
_1-0_
  6
CONTINUOUS
 62
    7
 10
229.63291477512669
 20
166.04962735562711
 40
0.0970232325631218
  0
CIRCLE
  8
_1-0_
  6
CONTINUOUS
 62
    7
 10
228.26078672666807
 20
165.43217839421453
 40
0.0970232325631218
  0
CIRCLE
  8
_1-0_
  6
CONTINUOUS
 62
    7
 10
234.36673550992401
 20
165.43217839421453
 40
0.0970232325631218
  0
CIRCLE
  8
_1-0_
  6
CONTINUOUS
 62
    7
 10
236.35630014780406
 20
165.98102466480154
 40
0.0970232325631218
  0
CIRCLE
  8
_1-0_
  6
CONTINUOUS
 62
    7
 10
242.53086399387669
 20
165.98102466480154
 40
0.0970232325631218
  0
CIRCLE
  8
_1-0_
  6
CONTINUOUS
 62
    7
 10
236.08188938450169
 20
166.87290913349875
 40
0.0970232325631218
  0
CIRCLE
  8
_1-0_
  6
CONTINUOUS
 62
    7
 10
234.09230000263938
 20
167.62757584855365
 40
0.0970232325631218
  0
CIRCLE
  8
_1-0_
  6
CONTINUOUS
 62
    7
 10
231.14224820523651
 20
166.18684510926943
 40
0.0970232325631218
  0
CIRCLE
  8
_1-0_
  6
CONTINUOUS
 62
    7
 10
237.31678730732688
 20
164.88333212362755
 40
0.0970232325631218
  0
CIRCLE
  8
_1-0_
  6
CONTINUOUS
 62
    7
 10
239.51219713365711
 20
165.08915256809544
 40
0.0970232325631218
  0
CIRCLE
  8
_1-0_
  6
CONTINUOUS
 62
    7
 10
238.07145402238177
 20
166.11824241844386
 40
0.0970232325631218
  0
CIRCLE
  8
_1-0_
  6
CONTINUOUS
 62
    7
 10
238.55168523015203
 20
167.28453765044341
 40
0.0970232325631218
  0
CIRCLE
  8
_1-0_
  6
CONTINUOUS
 62
    7
 10
240.19824878589529
 20
167.90199898384714
 40
0.0970232325631218
  0
CIRCLE
  8
_1-0_
  6
CONTINUOUS
 62
    7
 10
245.1378899651605
 20
167.55896078573693
 40
0.0970232325631218
  0
CIRCLE
  8
_1-0_
  6
CONTINUOUS
 62
    7
 10
247.19606966585727
 20
165.91242197397594
 40
0.0970232325631218
  0
CIRCLE
  8
_1-0_
  6
CONTINUOUS
 62
    7
 10
243.49132640941724
 20
165.29497301256336
 40
0.0970232325631218
  0
CIRCLE
  8
_1-0_
  6
CONTINUOUS
 62
    7
 10
240.54127461201438
 20
165.56938377586573
 40
0.0970232325631218
  0
CIRCLE
  8
_1-0_
  6
CONTINUOUS
 62
    7
 10
233.20042790593328
 20
164.95193481445312
 40
0.0970232325631218
  0
CIRCLE
  8
_1-0_
  6
CONTINUOUS
 62
    7
 10
232.1027353647593
 20
164.67751167915964
 40
0.0970232325631218
  0
CIRCLE
  8
_1-0_
  6
CONTINUOUS
 62
    7
 10
230.66201699746622
 20
164.47169123469172
 40
0.0970232325631218
  0
CIRCLE
  8
_1-0_
  6
CONTINUOUS
 62
    7
 10
228.8782480600718
 20
164.67751167915964
 40
0.0970232325631218
  0
CIRCLE
  8
_1-0_
  6
CONTINUOUS
 62
    7
 10
226.40842747043919
 20
164.60890898833404
 40
0.0970232325631218
  0
CIRCLE
  8
_1-0_
  6
CONTINUOUS
 62
    7
 10
229.63291477512669
 20
167.21593495961784
 40
0.0970232325631218
  0
CIRCLE
  8
_1-0_
  6
CONTINUOUS
 62
    7
 10
231.75970953864021
 20
167.55896078573693
 40
0.0970232325631218
  0
CIRCLE
  8
_1-0_
  6
CONTINUOUS
 62
    7
 10
233.26904296875
 20
168.10781942831505
 40
0.0970232325631218
  0
CIRCLE
  8
_1-0_
  6
CONTINUOUS
 62
    7
 10
235.05278716216216
 20
165.08915256809544
 40
0.0970232325631218
  0
CIRCLE
  8
_1-0_
  6
CONTINUOUS
 62
    7
 10
233.06322252428211
 20
165.91242197397594
 40
0.0970232325631218
  0
CIRCLE
  8
_1-0_
  6
CONTINUOUS
 62
    7
 10
235.12140222497891
 20
164.40308854386615
 40
0.0970232325631218
  0
CIRCLE
  8
_1-0_
  6
CONTINUOUS
 62
    7
 10
240.06101866026185
 20
164.19726809939823
 40
0.0970232325631218
  0
CIRCLE
  8
_1-0_
  6
CONTINUOUS
 62
    7
 10
243.97158236116977
 20
163.99144765493034
 40
0.0970232325631218
  0
CIRCLE
  8
_1-0_
  6
CONTINUOUS
 62
    7
 10
249.18563430373734
 20
164.54030629750847
 40
0.0970232325631218
  0
CIRCLE
  8
_1-0_
  6
CONTINUOUS
 62
    7
 10
245.34371040962839
 20
164.47169123469172
 40
0.0970232325631218
  0
CIRCLE
  8
_1-0_
  6
CONTINUOUS
 62
    7
 10
242.80527475717906
 20
167.14733226879224
 40
0.0970232325631218
  0
CIRCLE
  8
_1-0_
  6
CONTINUOUS
 62
    7
 10
248.43096758868245
 20
168.24502480996622
 40
0.0970232325631218
  0
CIRCLE
  8
_1-0_
  6
CONTINUOUS
 62
    7
 10
250.55776235219597
 20
167.14733226879224
 40
0.0970232325631218
  0
CIRCLE
  8
_1-0_
  6
CONTINUOUS
 62
    7
 10
248.01932669974664
 20
167.01011451514992
 40
0.0970232325631218
  0
CIRCLE
  8
_1-0_
  6
CONTINUOUS
 62
    7
 10
246.99024922138938
 20
165.29497301256336
 40
0.0970232325631218
  0
CIRCLE
  8
_1-0_
  6
CONTINUOUS
 62
    7
 10
252.92702339790964
 20
167.55896078573693
 40
0.0970232325631218
  0
CIRCLE
  8
_1-0_
  6
CONTINUOUS
 62
    7
 10
255.73986981366133
 20
167.42175540408573
 40
0.0970232325631218
  0
CIRCLE
  8
_1-0_
  6
CONTINUOUS
 62
    7
 10
254.09333100190034
 20
166.11824241844386
 40
0.0970232325631218
  0
CIRCLE
  8
_1-0_
  6
CONTINUOUS
 62
    7
 10
252.92702339790964
 20
166.11824241844386
 40
0.0970232325631218
  0
CIRCLE
  8
_1-0_
  6
CONTINUOUS
 62
    7
 10
253.27004922402872
 20
166.39266555373734
 40
0.0970232325631218
  0
CIRCLE
  8
_1-0_
  6
CONTINUOUS
 62
    7
 10
256.08289563978042
 20
166.04962735562711
 40
0.0970232325631218
  0
CIRCLE
  8
_1-0_
  6
CONTINUOUS
 62
    7
 10
254.7107675913218
 20
165.43217839421453
 40
0.0970232325631218
  0
CIRCLE
  8
_1-0_
  6
CONTINUOUS
 62
    7
 10
260.81671637457771
 20
165.43217839421453
 40
0.0970232325631218
  0
CIRCLE
  8
_1-0_
  6
CONTINUOUS
 62
    7
 10
262.80628101245776
 20
165.98102466480154
 40
0.0970232325631218
  0
CIRCLE
  8
_1-0_
  6
CONTINUOUS
 62
    7
 10
268.98084485853042
 20
165.98102466480154
 40
0.0970232325631218
  0
CIRCLE
  8
_1-0_
  6
CONTINUOUS
 62
    7
 10
262.53187024915542
 20
166.87290913349875
 40
0.0970232325631218
  0
CIRCLE
  8
_1-0_
  6
CONTINUOUS
 62
    7
 10
260.54228086729307
 20
167.62757584855365
 40
0.0970232325631218
  0
CIRCLE
  8
_1-0_
  6
CONTINUOUS
 62
    7
 10
257.59222906989021
 20
166.18684510926943
 40
0.0970232325631218
  0
CIRCLE
  8
_1-0_
  6
CONTINUOUS
 62
    7
 10
263.76676817198057
 20
164.88333212362755
 40
0.0970232325631218
  0
CIRCLE
  8
_1-0_
  6
CONTINUOUS
 62
    7
 10
265.96217799831084
 20
165.08915256809544
 40
0.0970232325631218
  0
CIRCLE
  8
_1-0_
  6
CONTINUOUS
 62
    7
 10
264.52143488703547
 20
166.11824241844386
 40
0.0970232325631218
  0
CIRCLE
  8
_1-0_
  6
CONTINUOUS
 62
    7
 10
265.00166609480578
 20
167.28453765044341
 40
0.0970232325631218
  0
CIRCLE
  8
_1-0_
  6
CONTINUOUS
 62
    7
 10
266.64822965054901
 20
167.90199898384714
 40
0.0970232325631218
  0
CIRCLE
  8
_1-0_
  6
CONTINUOUS
 62
    7
 10
271.58787082981422
 20
167.55896078573693
 40
0.0970232325631218
  0
CIRCLE
  8
_1-0_
  6
CONTINUOUS
 62
    7
 10
273.64605053051099
 20
165.91242197397594
 40
0.0970232325631218
  0
CIRCLE
  8
_1-0_
  6
CONTINUOUS
 62
    7
 10
269.94130727407094
 20
165.29497301256336
 40
0.0970232325631218
  0
CIRCLE
  8
_1-0_
  6
CONTINUOUS
 62
    7
 10
266.99125547666807
 20
165.56938377586573
 40
0.0970232325631218
  0
CIRCLE
  8
_1-0_
  6
CONTINUOUS
 62
    7
 10
259.65040877058703
 20
164.95193481445312
 40
0.0970232325631218
  0
CIRCLE
  8
_1-0_
  6
CONTINUOUS
 62
    7
 10
258.55271622941302
 20
164.67751167915964
 40
0.0970232325631218
  0
CIRCLE
  8
_1-0_
  6
CONTINUOUS
 62
    7
 10
257.11199786211995
 20
164.47169123469172
 40
0.0970232325631218
  0
CIRCLE
  8
_1-0_
  6
CONTINUOUS
 62
    7
 10
255.32822892472552
 20
164.67751167915964
 40
0.0970232325631218
  0
CIRCLE
  8
_1-0_
  6
CONTINUOUS
 62
    7
 10
252.85840833509292
 20
164.60890898833404
 40
0.0970232325631218
  0
CIRCLE
  8
_1-0_
  6
CONTINUOUS
 62
    7
 10
256.08289563978042
 20
167.21593495961784
 40
0.0970232325631218
  0
CIRCLE
  8
_1-0_
  6
CONTINUOUS
 62
    7
 10
258.20969040329391
 20
167.55896078573693
 40
0.0970232325631218
  0
CIRCLE
  8
_1-0_
  6
CONTINUOUS
 62
    7
 10
259.71902383340375
 20
168.10781942831505
 40
0.0970232325631218
  0
CIRCLE
  8
_1-0_
  6
CONTINUOUS
 62
    7
 10
261.50276802681589
 20
165.08915256809544
 40
0.0970232325631218
  0
CIRCLE
  8
_1-0_
  6
CONTINUOUS
 62
    7
 10
259.51320338893584
 20
165.91242197397594
 40
0.0970232325631218
  0
CIRCLE
  8
_1-0_
  6
CONTINUOUS
 62
    7
 10
261.5713830896326
 20
164.40308854386615
 40
0.0970232325631218
  0
CIRCLE
  8
_1-0_
  6
CONTINUOUS
 62
    7
 10
266.51099952491558
 20
164.19726809939823
 40
0.0970232325631218
  0
CIRCLE
  8
_1-0_
  6
CONTINUOUS
 62
    7
 10
270.42156322582349
 20
163.99144765493034
 40
0.0970232325631218
  0
CIRCLE
  8
_1-0_
  6
CONTINUOUS
 62
    7
 10
275.63561516839104
 20
164.54030629750847
 40
0.0970232325631218
  0
CIRCLE
  8
_1-0_
  6
CONTINUOUS
 62
    7
 10
271.79369127428208
 20
164.47169123469172
 40
0.0970232325631218
  0
CIRCLE
  8
_1-0_
  6
CONTINUOUS
 62
    7
 10
269.25525562183276
 20
167.14733226879224
 40
0.0970232325631218
  0
CIRCLE
  8
_1-0_
  6
CONTINUOUS
 62
    7
 10
274.88094845333615
 20
168.24502480996622
 40
0.0970232325631218
  0
CIRCLE
  8
_1-0_
  6
CONTINUOUS
 62
    7
 10
277.00774321684969
 20
167.14733226879224
 40
0.0970232325631218
  0
CIRCLE
  8
_1-0_
  6
CONTINUOUS
 62
    7
 10
274.46930756440037
 20
167.01011451514992
 40
0.0970232325631218
  0
CIRCLE
  8
_1-0_
  6
CONTINUOUS
 62
    7
 10
273.44023008604307
 20
165.29497301256336
 40
0.0970232325631218
  0
CIRCLE
  8
_1-0_
  6
CONTINUOUS
 62
    7
 10
294.71352242134714
 20
167.55896078573693
 40
0.0970232325631218
  0
CIRCLE
  8
_1-0_
  6
CONTINUOUS
 62
    7
 10
297.52636883709886
 20
167.42175540408573
 40
0.0970232325631218
  0
CIRCLE
  8
_1-0_
  6
CONTINUOUS
 62
    7
 10
295.87983002533787
 20
166.11824241844386
 40
0.0970232325631218
  0
CIRCLE
  8
_1-0_
  6
CONTINUOUS
 62
    7
 10
294.71352242134714
 20
166.11824241844386
 40
0.0970232325631218
  0
CIRCLE
  8
_1-0_
  6
CONTINUOUS
 62
    7
 10
295.05654824746625
 20
166.39266555373734
 40
0.0970232325631218
  0
CIRCLE
  8
_1-0_
  6
CONTINUOUS
 62
    7
 10
297.86939466321792
 20
166.04962735562711
 40
0.0970232325631218
  0
CIRCLE
  8
_1-0_
  6
CONTINUOUS
 62
    7
 10
296.49726661475933
 20
165.43217839421453
 40
0.0970232325631218
  0
CIRCLE
  8
_1-0_
  6
CONTINUOUS
 62
    7
 10
302.60321539801521
 20
165.43217839421453
 40
0.0970232325631218
  0
CIRCLE
  8
_1-0_
  6
CONTINUOUS
 62
    7
 10
304.59278003589526
 20
165.98102466480154
 40
0.0970232325631218
  0
CIRCLE
  8
_1-0_
  6
CONTINUOUS
 62
    7
 10
310.76734388196792
 20
165.98102466480154
 40
0.0970232325631218
  0
CIRCLE
  8
_1-0_
  6
CONTINUOUS
 62
    7
 10
304.31836927259292
 20
166.87290913349875
 40
0.0970232325631218
  0
CIRCLE
  8
_1-0_
  6
CONTINUOUS
 62
    7
 10
302.32877989073057
 20
167.62757584855365
 40
0.0970232325631218
  0
CIRCLE
  8
_1-0_
  6
CONTINUOUS
 62
    7
 10
299.37872809332771
 20
166.18684510926943
 40
0.0970232325631218
  0
CIRCLE
  8
_1-0_
  6
CONTINUOUS
 62
    7
 10
305.55326719541807
 20
164.88333212362755
 40
0.0970232325631218
  0
CIRCLE
  8
_1-0_
  6
CONTINUOUS
 62
    7
 10
307.74867702174834
 20
165.08915256809544
 40
0.0970232325631218
  0
CIRCLE
  8
_1-0_
  6
CONTINUOUS
 62
    7
 10
306.30793391047297
 20
166.11824241844386
 40
0.0970232325631218
  0
CIRCLE
  8
_1-0_
  6
CONTINUOUS
 62
    7
 10
306.78816511824328
 20
167.28453765044341
 40
0.0970232325631218
  0
CIRCLE
  8
_1-0_
  6
CONTINUOUS
 62
    7
 10
308.43472867398651
 20
167.90199898384714
 40
0.0970232325631218
  0
CIRCLE
  8
_1-0_
  6
CONTINUOUS
 62
    7
 10
313.37436985325172
 20
167.55896078573693
 40
0.0970232325631218
  0
CIRCLE
  8
_1-0_
  6
CONTINUOUS
 62
    7
 10
311.72780629750844
 20
165.29497301256336
 40
0.0970232325631218
  0
CIRCLE
  8
_1-0_
  6
CONTINUOUS
 62
    7
 10
308.77775450010557
 20
165.56938377586573
 40
0.0970232325631218
  0
CIRCLE
  8
_1-0_
  6
CONTINUOUS
 62
    7
 10
301.43690779402453
 20
164.95193481445312
 40
0.0970232325631218
  0
CIRCLE
  8
_1-0_
  6
CONTINUOUS
 62
    7
 10
300.33921525285052
 20
164.67751167915964
 40
0.0970232325631218
  0
CIRCLE
  8
_1-0_
  6
CONTINUOUS
 62
    7
 10
298.89849688555745
 20
164.47169123469172
 40
0.0970232325631218
  0
CIRCLE
  8
_1-0_
  6
CONTINUOUS
 62
    7
 10
297.11472794816302
 20
164.67751167915964
 40
0.0970232325631218
  0
CIRCLE
  8
_1-0_
  6
CONTINUOUS
 62
    7
 10
294.64490735853042
 20
164.60890898833404
 40
0.0970232325631218
  0
CIRCLE
  8
_1-0_
  6
CONTINUOUS
 62
    7
 10
297.86939466321792
 20
167.21593495961784
 40
0.0970232325631218
  0
CIRCLE
  8
_1-0_
  6
CONTINUOUS
 62
    7
 10
299.99618942673146
 20
167.55896078573693
 40
0.0970232325631218
  0
CIRCLE
  8
_1-0_
  6
CONTINUOUS
 62
    7
 10
301.50552285684125
 20
168.10781942831505
 40
0.0970232325631218
  0
CIRCLE
  8
_1-0_
  6
CONTINUOUS
 62
    7
 10
303.28926705025339
 20
165.08915256809544
 40
0.0970232325631218
  0
CIRCLE
  8
_1-0_
  6
CONTINUOUS
 62
    7
 10
301.29970241237334
 20
165.91242197397594
 40
0.0970232325631218
  0
CIRCLE
  8
_1-0_
  6
CONTINUOUS
 62
    7
 10
303.3578821130701
 20
164.40308854386615
 40
0.0970232325631218
  0
CIRCLE
  8
_1-0_
  6
CONTINUOUS
 62
    7
 10
308.29749854835308
 20
164.19726809939823
 40
0.0970232325631218
  0
CIRCLE
  8
_1-0_
  6
CONTINUOUS
 62
    7
 10
312.20806224926099
 20
163.99144765493034
 40
0.0970232325631218
  0
CIRCLE
  8
_1-0_
  6
CONTINUOUS
 62
    7
 10
313.58019029771964
 20
164.47169123469172
 40
0.0970232325631218
  0
CIRCLE
  8
_1-0_
  6
CONTINUOUS
 62
    7
 10
311.04175464527026
 20
167.14733226879224
 40
0.0970232325631218
  0
CIRCLE
  8
_1-0_
  6
CONTINUOUS
 62
    7
 10
282.48873324007604
 20
167.55896078573693
 40
0.0970232325631218
  0
CIRCLE
  8
_1-0_
  6
CONTINUOUS
 62
    7
 10
285.30157965582771
 20
167.42175540408573
 40
0.0970232325631218
  0
CIRCLE
  8
_1-0_
  6
CONTINUOUS
 62
    7
 10
283.65501610008448
 20
166.11824241844386
 40
0.0970232325631218
  0
CIRCLE
  8
_1-0_
  6
CONTINUOUS
 62
    7
 10
282.48873324007604
 20
166.11824241844386
 40
0.0970232325631218
  0
CIRCLE
  8
_1-0_
  6
CONTINUOUS
 62
    7
 10
282.8317590661951
 20
166.39266555373734
 40
0.0970232325631218
  0
CIRCLE
  8
_1-0_
  6
CONTINUOUS
 62
    7
 10
285.64460548194683
 20
166.04962735562711
 40
0.0970232325631218
  0
CIRCLE
  8
_1-0_
  6
CONTINUOUS
 62
    7
 10
284.27247743348818
 20
165.43217839421453
 40
0.0970232325631218
  0
CIRCLE
  8
_1-0_
  6
CONTINUOUS
 62
    7
 10
290.37842621674412
 20
165.43217839421453
 40
0.0970232325631218
  0
CIRCLE
  8
_1-0_
  6
CONTINUOUS
 62
    7
 10
292.36799085462417
 20
165.98102466480154
 40
0.0970232325631218
  0
CIRCLE
  8
_1-0_
  6
CONTINUOUS
 62
    7
 10
298.54252995671453
 20
165.98102466480154
 40
0.0970232325631218
  0
CIRCLE
  8
_1-0_
  6
CONTINUOUS
 62
    7
 10
292.09358009132183
 20
166.87290913349875
 40
0.0970232325631218
  0
CIRCLE
  8
_1-0_
  6
CONTINUOUS
 62
    7
 10
290.10399070945948
 20
167.62757584855365
 40
0.0970232325631218
  0
CIRCLE
  8
_1-0_
  6
CONTINUOUS
 62
    7
 10
287.15393891205662
 20
166.18684510926943
 40
0.0970232325631218
  0
CIRCLE
  8
_1-0_
  6
CONTINUOUS
 62
    7
 10
293.32847801414698
 20
164.88333212362755
 40
0.0970232325631218
  0
CIRCLE
  8
_1-0_
  6
CONTINUOUS
 62
    7
 10
295.52386309649495
 20
165.08915256809544
 40
0.0970232325631218
  0
CIRCLE
  8
_1-0_
  6
CONTINUOUS
 62
    7
 10
294.08314472920188
 20
166.11824241844386
 40
0.0970232325631218
  0
CIRCLE
  8
_1-0_
  6
CONTINUOUS
 62
    7
 10
294.56340068095443
 20
167.28453765044341
 40
0.0970232325631218
  0
CIRCLE
  8
_1-0_
  6
CONTINUOUS
 62
    7
 10
296.20993949271536
 20
167.90199898384714
 40
0.0970232325631218
  0
CIRCLE
  8
_1-0_
  6
CONTINUOUS
 62
    7
 10
301.14955592799834
 20
167.55896078573693
 40
0.0970232325631218
  0
CIRCLE
  8
_1-0_
  6
CONTINUOUS
 62
    7
 10
303.2077603726774
 20
165.91242197397594
 40
0.0970232325631218
  0
CIRCLE
  8
_1-0_
  6
CONTINUOUS
 62
    7
 10
299.50304186021964
 20
165.29497301256336
 40
0.0970232325631218
  0
CIRCLE
  8
_1-0_
  6
CONTINUOUS
 62
    7
 10
296.55296531883448
 20
165.56938377586573
 40
0.0970232325631218
  0
CIRCLE
  8
_1-0_
  6
CONTINUOUS
 62
    7
 10
289.21211861275339
 20
164.95193481445312
 40
0.0970232325631218
  0
CIRCLE
  8
_1-0_
  6
CONTINUOUS
 62
    7
 10
288.11442607157943
 20
164.67751167915964
 40
0.0970232325631218
  0
CIRCLE
  8
_1-0_
  6
CONTINUOUS
 62
    7
 10
286.67368296030406
 20
164.47169123469172
 40
0.0970232325631218
  0
CIRCLE
  8
_1-0_
  6
CONTINUOUS
 62
    7
 10
284.88993876689193
 20
164.67751167915964
 40
0.0970232325631218
  0
CIRCLE
  8
_1-0_
  6
CONTINUOUS
 62
    7
 10
282.42011817725933
 20
164.60890898833404
 40
0.0970232325631218
  0
CIRCLE
  8
_1-0_
  6
CONTINUOUS
 62
    7
 10
285.64460548194683
 20
167.21593495961784
 40
0.0970232325631218
  0
CIRCLE
  8
_1-0_
  6
CONTINUOUS
 62
    7
 10
287.77140024546031
 20
167.55896078573693
 40
0.0970232325631218
  0
CIRCLE
  8
_1-0_
  6
CONTINUOUS
 62
    7
 10
289.2807336755701
 20
168.10781942831505
 40
0.0970232325631218
  0
CIRCLE
  8
_1-0_
  6
CONTINUOUS
 62
    7
 10
291.06447786898229
 20
165.08915256809544
 40
0.0970232325631218
  0
CIRCLE
  8
_1-0_
  6
CONTINUOUS
 62
    7
 10
289.07491323110219
 20
165.91242197397594
 40
0.0970232325631218
  0
CIRCLE
  8
_1-0_
  6
CONTINUOUS
 62
    7
 10
291.13309293179901
 20
164.40308854386615
 40
0.0970232325631218
  0
CIRCLE
  8
_1-0_
  6
CONTINUOUS
 62
    7
 10
296.07273411106422
 20
164.19726809939823
 40
0.0970232325631218
  0
CIRCLE
  8
_1-0_
  6
CONTINUOUS
 62
    7
 10
299.9832730679899
 20
163.99144765493034
 40
0.0970232325631218
  0
CIRCLE
  8
_1-0_
  6
CONTINUOUS
 62
    7
 10
305.19732501055745
 20
164.54030629750847
 40
0.0970232325631218
  0
CIRCLE
  8
_1-0_
  6
CONTINUOUS
 62
    7
 10
301.35537637246625
 20
164.47169123469172
 40
0.0970232325631218
  0
CIRCLE
  8
_1-0_
  6
CONTINUOUS
 62
    7
 10
298.81696546399917
 20
167.14733226879224
 40
0.0970232325631218
  0
CIRCLE
  8
_1-0_
  6
CONTINUOUS
 62
    7
 10
304.44265829550255
 20
168.24502480996622
 40
0.0970232325631218
  0
CIRCLE
  8
_1-0_
  6
CONTINUOUS
 62
    7
 10
306.56945305901604
 20
167.14733226879224
 40
0.0970232325631218
  0
CIRCLE
  8
_1-0_
  6
CONTINUOUS
 62
    7
 10
304.03104215054901
 20
167.01011451514992
 40
0.0970232325631218
  0
CIRCLE
  8
_1-0_
  6
CONTINUOUS
 62
    7
 10
303.00193992820948
 20
165.29497301256336
 40
0.0970232325631218
  0
CIRCLE
  8
_1-0_
  6
CONTINUOUS
 62
    7
 10
280.04378035261828
 20
167.55896078573693
 40
0.0970232325631218
  0
CIRCLE
  8
_1-0_
  6
CONTINUOUS
 62
    7
 10
282.85662676836995
 20
167.42175540408573
 40
0.0970232325631218
  0
CIRCLE
  8
_1-0_
  6
CONTINUOUS
 62
    7
 10
281.21006321262672
 20
166.11824241844386
 40
0.0970232325631218
  0
CIRCLE
  8
_1-0_
  6
CONTINUOUS
 62
    7
 10
280.04378035261828
 20
166.11824241844386
 40
0.0970232325631218
  0
CIRCLE
  8
_1-0_
  6
CONTINUOUS
 62
    7
 10
280.38680617873734
 20
166.39266555373734
 40
0.0970232325631218
  0
CIRCLE
  8
_1-0_
  6
CONTINUOUS
 62
    7
 10
283.19965259448901
 20
166.04962735562711
 40
0.0970232325631218
  0
CIRCLE
  8
_1-0_
  6
CONTINUOUS
 62
    7
 10
281.82752454603042
 20
165.43217839421453
 40
0.0970232325631218
  0
CIRCLE
  8
_1-0_
  6
CONTINUOUS
 62
    7
 10
287.93347332928636
 20
165.43217839421453
 40
0.0970232325631218
  0
CIRCLE
  8
_1-0_
  6
CONTINUOUS
 62
    7
 10
289.92303796716641
 20
165.98102466480154
 40
0.0970232325631218
  0
CIRCLE
  8
_1-0_
  6
CONTINUOUS
 62
    7
 10
296.09757706925677
 20
165.98102466480154
 40
0.0970232325631218
  0
CIRCLE
  8
_1-0_
  6
CONTINUOUS
 62
    7
 10
289.64862720386401
 20
166.87290913349875
 40
0.0970232325631218
  0
CIRCLE
  8
_1-0_
  6
CONTINUOUS
 62
    7
 10
287.65903782200172
 20
167.62757584855365
 40
0.0970232325631218
  0
CIRCLE
  8
_1-0_
  6
CONTINUOUS
 62
    7
 10
284.70898602459886
 20
166.18684510926943
 40
0.0970232325631218
  0
CIRCLE
  8
_1-0_
  6
CONTINUOUS
 62
    7
 10
290.88352512668922
 20
164.88333212362755
 40
0.0970232325631218
  0
CIRCLE
  8
_1-0_
  6
CONTINUOUS
 62
    7
 10
293.07891020903719
 20
165.08915256809544
 40
0.0970232325631218
  0
CIRCLE
  8
_1-0_
  6
CONTINUOUS
 62
    7
 10
291.63819184174412
 20
166.11824241844386
 40
0.0970232325631218
  0
CIRCLE
  8
_1-0_
  6
CONTINUOUS
 62
    7
 10
292.11844779349661
 20
167.28453765044341
 40
0.0970232325631218
  0
CIRCLE
  8
_1-0_
  6
CONTINUOUS
 62
    7
 10
293.7649866052576
 20
167.90199898384714
 40
0.0970232325631218
  0
CIRCLE
  8
_1-0_
  6
CONTINUOUS
 62
    7
 10
298.70460304054058
 20
167.55896078573693
 40
0.0970232325631218
  0
CIRCLE
  8
_1-0_
  6
CONTINUOUS
 62
    7
 10
300.76280748521964
 20
165.91242197397594
 40
0.0970232325631218
  0
CIRCLE
  8
_1-0_
  6
CONTINUOUS
 62
    7
 10
297.05808897276182
 20
165.29497301256336
 40
0.0970232325631218
  0
CIRCLE
  8
_1-0_
  6
CONTINUOUS
 62
    7
 10
294.10801243137672
 20
165.56938377586573
 40
0.0970232325631218
  0
CIRCLE
  8
_1-0_
  6
CONTINUOUS
 62
    7
 10
286.76716572529563
 20
164.95193481445312
 40
0.0970232325631218
  0
CIRCLE
  8
_1-0_
  6
CONTINUOUS
 62
    7
 10
285.66947318412161
 20
164.67751167915964
 40
0.0970232325631218
  0
CIRCLE
  8
_1-0_
  6
CONTINUOUS
 62
    7
 10
284.2287300728463
 20
164.47169123469172
 40
0.0970232325631218
  0
CIRCLE
  8
_1-0_
  6
CONTINUOUS
 62
    7
 10
282.44498587943411
 20
164.67751167915964
 40
0.0970232325631218
  0
CIRCLE
  8
_1-0_
  6
CONTINUOUS
 62
    7
 10
279.97516528980151
 20
164.60890898833404
 40
0.0970232325631218
  0
CIRCLE
  8
_1-0_
  6
CONTINUOUS
 62
    7
 10
283.19965259448901
 20
167.21593495961784
 40
0.0970232325631218
  0
CIRCLE
  8
_1-0_
  6
CONTINUOUS
 62
    7
 10
285.32644735800255
 20
167.55896078573693
 40
0.0970232325631218
  0
CIRCLE
  8
_1-0_
  6
CONTINUOUS
 62
    7
 10
286.83578078811234
 20
168.10781942831505
 40
0.0970232325631218
  0
CIRCLE
  8
_1-0_
  6
CONTINUOUS
 62
    7
 10
288.61952498152453
 20
165.08915256809544
 40
0.0970232325631218
  0
CIRCLE
  8
_1-0_
  6
CONTINUOUS
 62
    7
 10
286.62996034364443
 20
165.91242197397594
 40
0.0970232325631218
  0
CIRCLE
  8
_1-0_
  6
CONTINUOUS
 62
    7
 10
288.68814004434125
 20
164.40308854386615
 40
0.0970232325631218
  0
CIRCLE
  8
_1-0_
  6
CONTINUOUS
 62
    7
 10
293.62778122360646
 20
164.19726809939823
 40
0.0970232325631218
  0
CIRCLE
  8
_1-0_
  6
CONTINUOUS
 62
    7
 10
297.53832018053214
 20
163.99144765493034
 40
0.0970232325631218
  0
CIRCLE
  8
_1-0_
  6
CONTINUOUS
 62
    7
 10
302.75237212309969
 20
164.54030629750847
 40
0.0970232325631218
  0
CIRCLE
  8
_1-0_
  6
CONTINUOUS
 62
    7
 10
298.91042348500844
 20
164.47169123469172
 40
0.0970232325631218
  0
CIRCLE
  8
_1-0_
  6
CONTINUOUS
 62
    7
 10
296.37201257654141
 20
167.14733226879224
 40
0.0970232325631218
  0
CIRCLE
  8
_1-0_
  6
CONTINUOUS
 62
    7
 10
301.99770540804479
 20
168.24502480996622
 40
0.0970232325631218
  0
CIRCLE
  8
_1-0_
  6
CONTINUOUS
 62
    7
 10
304.12450017155828
 20
167.14733226879224
 40
0.0970232325631218
  0
CIRCLE
  8
_1-0_
  6
CONTINUOUS
 62
    7
 10
301.58608926309125
 20
167.01011451514992
 40
0.0970232325631218
  0
CIRCLE
  8
_1-0_
  6
CONTINUOUS
 62
    7
 10
300.55698704075172
 20
165.29497301256336
 40
0.0970232325631218
  0
CIRCLE
  8
_1-0_
  6
CONTINUOUS
 62
    7
 10
142.85324509079393
 20
164.81646151156039
 40
0.0970232325631218
  0
CIRCLE
  8
_1-0_
  6
CONTINUOUS
 62
    7
 10
149.0277841928843
 20
164.81646151156039
 40
0.0970232325631218
  0
CIRCLE
  8
_1-0_
  6
CONTINUOUS
 62
    7
 10
142.5788095835093
 20
165.7083459802576
 40
0.0970232325631218
  0
CIRCLE
  8
_1-0_
  6
CONTINUOUS
 62
    7
 10
143.81373225031672
 20
163.71876897038641
 40
0.0970232325631218
  0
CIRCLE
  8
_1-0_
  6
CONTINUOUS
 62
    7
 10
146.00911733266472
 20
163.92458941485432
 40
0.0970232325631218
  0
CIRCLE
  8
_1-0_
  6
CONTINUOUS
 62
    7
 10
144.56839896537164
 20
164.95367926520271
 40
0.0970232325631218
  0
CIRCLE
  8
_1-0_
  6
CONTINUOUS
 62
    7
 10
145.0486301731419
 20
166.11997449720229
 40
0.0970232325631218
  0
CIRCLE
  8
_1-0_
  6
CONTINUOUS
 62
    7
 10
146.69518135689401
 20
166.73743583060602
 40
0.0970232325631218
  0
CIRCLE
  8
_1-0_
  6
CONTINUOUS
 62
    7
 10
149.98827135240711
 20
164.13040985932221
 40
0.0970232325631218
  0
CIRCLE
  8
_1-0_
  6
CONTINUOUS
 62
    7
 10
147.0382071830131
 20
164.40482062262458
 40
0.0970232325631218
  0
CIRCLE
  8
_1-0_
  6
CONTINUOUS
 62
    7
 10
141.54973210515203
 20
163.92458941485432
 40
0.0970232325631218
  0
CIRCLE
  8
_1-0_
  6
CONTINUOUS
 62
    7
 10
141.61833479597763
 20
163.238525390625
 40
0.0970232325631218
  0
CIRCLE
  8
_1-0_
  6
CONTINUOUS
 62
    7
 10
146.55796360325169
 20
163.03270494615711
 40
0.0970232325631218
  0
CIRCLE
  8
_1-0_
  6
CONTINUOUS
 62
    7
 10
149.30220732817779
 20
165.98276911555109
 40
0.0970232325631218
  0
CIRCLE
  8
_1-0_
  6
CONTINUOUS
 62
    7
 10
171.67616148252745
 20
164.23418612093539
 40
0.0970232325631218
  0
CIRCLE
  8
_1-0_
  6
CONTINUOUS
 62
    7
 10
177.85070058461784
 20
164.23418612093539
 40
0.0970232325631218
  0
CIRCLE
  8
_1-0_
  6
CONTINUOUS
 62
    7
 10
171.40172597524284
 20
165.1260705896326
 40
0.0970232325631218
  0
CIRCLE
  8
_1-0_
  6
CONTINUOUS
 62
    7
 10
172.63664864205026
 20
163.13649357976141
 40
0.0970232325631218
  0
CIRCLE
  8
_1-0_
  6
CONTINUOUS
 62
    7
 10
174.83203372439823
 20
163.34231402422932
 40
0.0970232325631218
  0
CIRCLE
  8
_1-0_
  6
CONTINUOUS
 62
    7
 10
173.39131535710516
 20
164.37140387457771
 40
0.0970232325631218
  0
CIRCLE
  8
_1-0_
  6
CONTINUOUS
 62
    7
 10
173.87154656487544
 20
165.53769910657729
 40
0.0970232325631218
  0
CIRCLE
  8
_1-0_
  6
CONTINUOUS
 62
    7
 10
175.51809774862755
 20
166.15516043998102
 40
0.0970232325631218
  0
CIRCLE
  8
_1-0_
  6
CONTINUOUS
 62
    7
 10
178.81118774414062
 20
163.54813446869721
 40
0.0970232325631218
  0
CIRCLE
  8
_1-0_
  6
CONTINUOUS
 62
    7
 10
175.86112357474664
 20
163.82254523199958
 40
0.0970232325631218
  0
CIRCLE
  8
_1-0_
  6
CONTINUOUS
 62
    7
 10
170.37264849688557
 20
163.34231402422932
 40
0.0970232325631218
  0
CIRCLE
  8
_1-0_
  6
CONTINUOUS
 62
    7
 10
170.44125118771115
 20
162.65625
 40
0.0970232325631218
  0
CIRCLE
  8
_1-0_
  6
CONTINUOUS
 62
    7
 10
175.38087999498524
 20
162.45042955553211
 40
0.0970232325631218
  0
CIRCLE
  8
_1-0_
  6
CONTINUOUS
 62
    7
 10
178.12512371991133
 20
165.40049372492609
 40
0.0970232325631218
  0
CIRCLE
  8
_1-0_
  6
CONTINUOUS
 62
    7
 10
308.90602730415964
 20
162.54941785657729
 40
0.0970232325631218
  0
CIRCLE
  8
_1-0_
  6
CONTINUOUS
 62
    7
 10
307.73971970016896
 20
162.54941785657729
 40
0.0970232325631218
  0
CIRCLE
  8
_1-0_
  6
CONTINUOUS
 62
    7
 10
310.89559194203969
 20
162.48080279376057
 40
0.0970232325631218
  0
CIRCLE
  8
_1-0_
  6
CONTINUOUS
 62
    7
 10
309.52346389358109
 20
161.86335383234797
 40
0.0970232325631218
  0
CIRCLE
  8
_1-0_
  6
CONTINUOUS
 62
    7
 10
312.40492537214953
 20
162.61802054740289
 40
0.0970232325631218
  0
CIRCLE
  8
_1-0_
  6
CONTINUOUS
 62
    7
 10
311.92469416437922
 20
160.90286667282518
 40
0.0970232325631218
  0
CIRCLE
  8
_1-0_
  6
CONTINUOUS
 62
    7
 10
310.14092522698479
 20
161.10868711729307
 40
0.0970232325631218
  0
CIRCLE
  8
_1-0_
  6
CONTINUOUS
 62
    7
 10
307.67110463735219
 20
161.0400844264675
 40
0.0970232325631218
  0
CIRCLE
  8
_1-0_
  6
CONTINUOUS
 62
    7
 10
303.40462349556589
 20
161.86335383234797
 40
0.0970232325631218
  0
CIRCLE
  8
_1-0_
  6
CONTINUOUS
 62
    7
 10
305.39418813344594
 20
162.41220010293497
 40
0.0970232325631218
  0
CIRCLE
  8
_1-0_
  6
CONTINUOUS
 62
    7
 10
311.56872723553636
 20
162.41220010293497
 40
0.0970232325631218
  0
CIRCLE
  8
_1-0_
  6
CONTINUOUS
 62
    7
 10
300.18013619087839
 20
162.61802054740289
 40
0.0970232325631218
  0
CIRCLE
  8
_1-0_
  6
CONTINUOUS
 62
    7
 10
306.35467529296875
 20
161.31450756176099
 40
0.0970232325631218
  0
CIRCLE
  8
_1-0_
  6
CONTINUOUS
 62
    7
 10
308.55006037531672
 20
161.52032800622891
 40
0.0970232325631218
  0
CIRCLE
  8
_1-0_
  6
CONTINUOUS
 62
    7
 10
307.10934200802365
 20
162.54941785657729
 40
0.0970232325631218
  0
CIRCLE
  8
_1-0_
  6
CONTINUOUS
 62
    7
 10
312.52923913904141
 20
161.7261484506968
 40
0.0970232325631218
  0
CIRCLE
  8
_1-0_
  6
CONTINUOUS
 62
    7
 10
309.57916259765625
 20
162.00055921399917
 40
0.0970232325631218
  0
CIRCLE
  8
_1-0_
  6
CONTINUOUS
 62
    7
 10
302.23831589157521
 20
161.38311025258659
 40
0.0970232325631218
  0
CIRCLE
  8
_1-0_
  6
CONTINUOUS
 62
    7
 10
301.1406233504012
 20
161.10868711729307
 40
0.0970232325631218
  0
CIRCLE
  8
_1-0_
  6
CONTINUOUS
 62
    7
 10
299.69988023912589
 20
160.90286667282518
 40
0.0970232325631218
  0
CIRCLE
  8
_1-0_
  6
CONTINUOUS
 62
    7
 10
304.09067514780406
 20
161.52032800622891
 40
0.0970232325631218
  0
CIRCLE
  8
_1-0_
  6
CONTINUOUS
 62
    7
 10
302.10111050992401
 20
162.34359741210937
 40
0.0970232325631218
  0
CIRCLE
  8
_1-0_
  6
CONTINUOUS
 62
    7
 10
304.15929021062078
 20
160.83426398199958
 40
0.0970232325631218
  0
CIRCLE
  8
_1-0_
  6
CONTINUOUS
 62
    7
 10
309.09893138988599
 20
160.62844353753169
 40
0.0970232325631218
  0
CIRCLE
  8
_1-0_
  6
CONTINUOUS
 62
    7
 10
313.00947034681167
 20
160.42262309306378
 40
0.0970232325631218
  0
CIRCLE
  8
_1-0_
  6
CONTINUOUS
 62
    7
 10
300.95967060810813
 20
161.86335383234797
 40
0.0970232325631218
  0
CIRCLE
  8
_1-0_
  6
CONTINUOUS
 62
    7
 10
302.94923524598818
 20
162.41220010293497
 40
0.0970232325631218
  0
CIRCLE
  8
_1-0_
  6
CONTINUOUS
 62
    7
 10
309.12377434807854
 20
162.41220010293497
 40
0.0970232325631218
  0
CIRCLE
  8
_1-0_
  6
CONTINUOUS
 62
    7
 10
303.90972240551099
 20
161.31450756176099
 40
0.0970232325631218
  0
CIRCLE
  8
_1-0_
  6
CONTINUOUS
 62
    7
 10
306.10510748785896
 20
161.52032800622891
 40
0.0970232325631218
  0
CIRCLE
  8
_1-0_
  6
CONTINUOUS
 62
    7
 10
304.66438912056589
 20
162.54941785657729
 40
0.0970232325631218
  0
CIRCLE
  8
_1-0_
  6
CONTINUOUS
 62
    7
 10
310.08428625158365
 20
161.7261484506968
 40
0.0970232325631218
  0
CIRCLE
  8
_1-0_
  6
CONTINUOUS
 62
    7
 10
307.13420971019849
 20
162.00055921399917
 40
0.0970232325631218
  0
CIRCLE
  8
_1-0_
  6
CONTINUOUS
 62
    7
 10
299.7933630041174
 20
161.38311025258659
 40
0.0970232325631218
  0
CIRCLE
  8
_1-0_
  6
CONTINUOUS
 62
    7
 10
301.6457222603463
 20
161.52032800622891
 40
0.0970232325631218
  0
CIRCLE
  8
_1-0_
  6
CONTINUOUS
 62
    7
 10
301.71433732316302
 20
160.83426398199958
 40
0.0970232325631218
  0
CIRCLE
  8
_1-0_
  6
CONTINUOUS
 62
    7
 10
306.65397850242823
 20
160.62844353753169
 40
0.0970232325631218
  0
CIRCLE
  8
_1-0_
  6
CONTINUOUS
 62
    7
 10
310.56451745935391
 20
160.42262309306378
 40
0.0970232325631218
  0
CIRCLE
  8
_1-0_
  6
CONTINUOUS
 62
    7
 10
311.93662076383026
 20
160.90286667282518
 40
0.0970232325631218
  0
CIRCLE
  8
_1-0_
  6
CONTINUOUS
 62
    7
 10
296.86125059385557
 20
163.79850645323057
 40
0.0970232325631218
  0
CIRCLE
  8
_1-0_
  6
CONTINUOUS
 62
    7
 10
295.6949429898649
 20
163.79850645323057
 40
0.0970232325631218
  0
CIRCLE
  8
_1-0_
  6
CONTINUOUS
 62
    7
 10
298.85081523173568
 20
163.72989139041385
 40
0.0970232325631218
  0
CIRCLE
  8
_1-0_
  6
CONTINUOUS
 62
    7
 10
297.47868718327703
 20
163.11244242900128
 40
0.0970232325631218
  0
CIRCLE
  8
_1-0_
  6
CONTINUOUS
 62
    7
 10
300.36014866184547
 20
163.86710914405617
 40
0.0970232325631218
  0
CIRCLE
  8
_1-0_
  6
CONTINUOUS
 62
    7
 10
299.87991745407521
 20
162.15195526947846
 40
0.0970232325631218
  0
CIRCLE
  8
_1-0_
  6
CONTINUOUS
 62
    7
 10
298.09614851668078
 20
162.35777571394638
 40
0.0970232325631218
  0
CIRCLE
  8
_1-0_
  6
CONTINUOUS
 62
    7
 10
295.62632792704818
 20
162.28917302312078
 40
0.0970232325631218
  0
CIRCLE
  8
_1-0_
  6
CONTINUOUS
 62
    7
 10
291.35984678526182
 20
163.11244242900128
 40
0.0970232325631218
  0
CIRCLE
  8
_1-0_
  6
CONTINUOUS
 62
    7
 10
293.34941142314193
 20
163.66128869958828
 40
0.0970232325631218
  0
CIRCLE
  8
_1-0_
  6
CONTINUOUS
 62
    7
 10
299.52395052523229
 20
163.66128869958828
 40
0.0970232325631218
  0
CIRCLE
  8
_1-0_
  6
CONTINUOUS
 62
    7
 10
288.13535948057432
 20
163.86710914405617
 40
0.0970232325631218
  0
CIRCLE
  8
_1-0_
  6
CONTINUOUS
 62
    7
 10
294.30989858266469
 20
162.56359615841427
 40
0.0970232325631218
  0
CIRCLE
  8
_1-0_
  6
CONTINUOUS
 62
    7
 10
296.50528366501271
 20
162.76941660288219
 40
0.0970232325631218
  0
CIRCLE
  8
_1-0_
  6
CONTINUOUS
 62
    7
 10
295.06456529771964
 20
163.79850645323057
 40
0.0970232325631218
  0
CIRCLE
  8
_1-0_
  6
CONTINUOUS
 62
    7
 10
300.48446242873734
 20
162.97523704735011
 40
0.0970232325631218
  0
CIRCLE
  8
_1-0_
  6
CONTINUOUS
 62
    7
 10
297.53438588735219
 20
163.24964781065245
 40
0.0970232325631218
  0
CIRCLE
  8
_1-0_
  6
CONTINUOUS
 62
    7
 10
290.19353918127115
 20
162.63219884923987
 40
0.0970232325631218
  0
CIRCLE
  8
_1-0_
  6
CONTINUOUS
 62
    7
 10
289.09584664009714
 20
162.35777571394638
 40
0.0970232325631218
  0
CIRCLE
  8
_1-0_
  6
CONTINUOUS
 62
    7
 10
287.65510352882183
 20
162.15195526947846
 40
0.0970232325631218
  0
CIRCLE
  8
_1-0_
  6
CONTINUOUS
 62
    7
 10
292.0458984375
 20
162.76941660288219
 40
0.0970232325631218
  0
CIRCLE
  8
_1-0_
  6
CONTINUOUS
 62
    7
 10
290.05633379961995
 20
163.59268600876268
 40
0.0970232325631218
  0
CIRCLE
  8
_1-0_
  6
CONTINUOUS
 62
    7
 10
292.11451350031672
 20
162.08335257865289
 40
0.0970232325631218
  0
CIRCLE
  8
_1-0_
  6
CONTINUOUS
 62
    7
 10
297.05415467958193
 20
161.87753213418497
 40
0.0970232325631218
  0
CIRCLE
  8
_1-0_
  6
CONTINUOUS
 62
    7
 10
300.9646936365076
 20
161.67171168971706
 40
0.0970232325631218
  0
CIRCLE
  8
_1-0_
  6
CONTINUOUS
 62
    7
 10
288.91489389780406
 20
163.11244242900128
 40
0.0970232325631218
  0
CIRCLE
  8
_1-0_
  6
CONTINUOUS
 62
    7
 10
290.90445853568411
 20
163.66128869958828
 40
0.0970232325631218
  0
CIRCLE
  8
_1-0_
  6
CONTINUOUS
 62
    7
 10
297.07899763777453
 20
163.66128869958828
 40
0.0970232325631218
  0
CIRCLE
  8
_1-0_
  6
CONTINUOUS
 62
    7
 10
291.86494569520693
 20
162.56359615841427
 40
0.0970232325631218
  0
CIRCLE
  8
_1-0_
  6
CONTINUOUS
 62
    7
 10
294.0603307775549
 20
162.76941660288219
 40
0.0970232325631218
  0
CIRCLE
  8
_1-0_
  6
CONTINUOUS
 62
    7
 10
292.61961241026182
 20
163.79850645323057
 40
0.0970232325631218
  0
CIRCLE
  8
_1-0_
  6
CONTINUOUS
 62
    7
 10
298.03950954127959
 20
162.97523704735011
 40
0.0970232325631218
  0
CIRCLE
  8
_1-0_
  6
CONTINUOUS
 62
    7
 10
295.08943299989443
 20
163.24964781065245
 40
0.0970232325631218
  0
CIRCLE
  8
_1-0_
  6
CONTINUOUS
 62
    7
 10
287.74858629381333
 20
162.63219884923987
 40
0.0970232325631218
  0
CIRCLE
  8
_1-0_
  6
CONTINUOUS
 62
    7
 10
289.60094555004224
 20
162.76941660288219
 40
0.0970232325631218
  0
CIRCLE
  8
_1-0_
  6
CONTINUOUS
 62
    7
 10
289.66956061285896
 20
162.08335257865289
 40
0.0970232325631218
  0
CIRCLE
  8
_1-0_
  6
CONTINUOUS
 62
    7
 10
294.60920179212417
 20
161.87753213418497
 40
0.0970232325631218
  0
CIRCLE
  8
_1-0_
  6
CONTINUOUS
 62
    7
 10
298.51974074904984
 20
161.67171168971706
 40
0.0970232325631218
  0
CIRCLE
  8
_1-0_
  6
CONTINUOUS
 62
    7
 10
299.8918440535262
 20
162.15195526947846
 40
0.0970232325631218
  0
CIRCLE
  8
_1-0_
  6
CONTINUOUS
 62
    7
 10
288.11764278927365
 20
163.88772088128169
 40
0.0970232325631218
  0
CIRCLE
  8
_1-0_
  6
CONTINUOUS
 62
    7
 10
286.95133518528297
 20
163.88772088128169
 40
0.0970232325631218
  0
CIRCLE
  8
_1-0_
  6
CONTINUOUS
 62
    7
 10
290.10720742715375
 20
163.81910581846495
 40
0.0970232325631218
  0
CIRCLE
  8
_1-0_
  6
CONTINUOUS
 62
    7
 10
288.7350793786951
 20
163.20165685705237
 40
0.0970232325631218
  0
CIRCLE
  8
_1-0_
  6
CONTINUOUS
 62
    7
 10
291.61654085726354
 20
163.95632357210727
 40
0.0970232325631218
  0
CIRCLE
  8
_1-0_
  6
CONTINUOUS
 62
    7
 10
291.13630964949328
 20
162.24116969752956
 40
0.0970232325631218
  0
CIRCLE
  8
_1-0_
  6
CONTINUOUS
 62
    7
 10
289.35254071209886
 20
162.44699014199747
 40
0.0970232325631218
  0
CIRCLE
  8
_1-0_
  6
CONTINUOUS
 62
    7
 10
286.88272012246625
 20
162.37838745117187
 40
0.0970232325631218
  0
CIRCLE
  8
_1-0_
  6
CONTINUOUS
 62
    7
 10
282.6162389806799
 20
163.20165685705237
 40
0.0970232325631218
  0
CIRCLE
  8
_1-0_
  6
CONTINUOUS
 62
    7
 10
284.60580361856
 20
163.75050312763938
 40
0.0970232325631218
  0
CIRCLE
  8
_1-0_
  6
CONTINUOUS
 62
    7
 10
290.78034272065037
 20
163.75050312763938
 40
0.0970232325631218
  0
CIRCLE
  8
_1-0_
  6
CONTINUOUS
 62
    7
 10
279.3917516759924
 20
163.95632357210727
 40
0.0970232325631218
  0
CIRCLE
  8
_1-0_
  6
CONTINUOUS
 62
    7
 10
285.56629077808276
 20
162.65281058646539
 40
0.0970232325631218
  0
CIRCLE
  8
_1-0_
  6
CONTINUOUS
 62
    7
 10
287.76167586043078
 20
162.85863103093328
 40
0.0970232325631218
  0
CIRCLE
  8
_1-0_
  6
CONTINUOUS
 62
    7
 10
286.32095749313771
 20
163.88772088128169
 40
0.0970232325631218
  0
CIRCLE
  8
_1-0_
  6
CONTINUOUS
 62
    7
 10
291.74085462415542
 20
163.0644514754012
 40
0.0970232325631218
  0
CIRCLE
  8
_1-0_
  6
CONTINUOUS
 62
    7
 10
288.79077808277026
 20
163.33886223870357
 40
0.0970232325631218
  0
CIRCLE
  8
_1-0_
  6
CONTINUOUS
 62
    7
 10
281.44993137668922
 20
162.72141327729096
 40
0.0970232325631218
  0
CIRCLE
  8
_1-0_
  6
CONTINUOUS
 62
    7
 10
280.35223883551521
 20
162.44699014199747
 40
0.0970232325631218
  0
CIRCLE
  8
_1-0_
  6
CONTINUOUS
 62
    7
 10
278.9114957242399
 20
162.24116969752956
 40
0.0970232325631218
  0
CIRCLE
  8
_1-0_
  6
CONTINUOUS
 62
    7
 10
283.30229063291807
 20
162.85863103093328
 40
0.0970232325631218
  0
CIRCLE
  8
_1-0_
  6
CONTINUOUS
 62
    7
 10
281.31272599503802
 20
163.68190043681378
 40
0.0970232325631218
  0
CIRCLE
  8
_1-0_
  6
CONTINUOUS
 62
    7
 10
283.37090569573479
 20
162.17256700670399
 40
0.0970232325631218
  0
CIRCLE
  8
_1-0_
  6
CONTINUOUS
 62
    7
 10
288.310546875
 20
161.96674656223607
 40
0.0970232325631218
  0
CIRCLE
  8
_1-0_
  6
CONTINUOUS
 62
    7
 10
292.22108583192568
 20
161.76092611776818
 40
0.0970232325631218
  0
CIRCLE
  8
_1-0_
  6
CONTINUOUS
 62
    7
 10
280.17128609322214
 20
163.20165685705237
 40
0.0970232325631218
  0
CIRCLE
  8
_1-0_
  6
CONTINUOUS
 62
    7
 10
282.16085073110219
 20
163.75050312763938
 40
0.0970232325631218
  0
CIRCLE
  8
_1-0_
  6
CONTINUOUS
 62
    7
 10
288.33538983319261
 20
163.75050312763938
 40
0.0970232325631218
  0
CIRCLE
  8
_1-0_
  6
CONTINUOUS
 62
    7
 10
283.121337890625
 20
162.65281058646539
 40
0.0970232325631218
  0
CIRCLE
  8
_1-0_
  6
CONTINUOUS
 62
    7
 10
285.31672297297297
 20
162.85863103093328
 40
0.0970232325631218
  0
CIRCLE
  8
_1-0_
  6
CONTINUOUS
 62
    7
 10
283.8760046056799
 20
163.88772088128169
 40
0.0970232325631218
  0
CIRCLE
  8
_1-0_
  6
CONTINUOUS
 62
    7
 10
289.29590173669766
 20
163.0644514754012
 40
0.0970232325631218
  0
CIRCLE
  8
_1-0_
  6
CONTINUOUS
 62
    7
 10
286.3458251953125
 20
163.33886223870357
 40
0.0970232325631218
  0
CIRCLE
  8
_1-0_
  6
CONTINUOUS
 62
    7
 10
279.00497848923146
 20
162.72141327729096
 40
0.0970232325631218
  0
CIRCLE
  8
_1-0_
  6
CONTINUOUS
 62
    7
 10
280.85733774546031
 20
162.85863103093328
 40
0.0970232325631218
  0
CIRCLE
  8
_1-0_
  6
CONTINUOUS
 62
    7
 10
280.92595280827703
 20
162.17256700670399
 40
0.0970232325631218
  0
CIRCLE
  8
_1-0_
  6
CONTINUOUS
 62
    7
 10
285.86559398754224
 20
161.96674656223607
 40
0.0970232325631218
  0
CIRCLE
  8
_1-0_
  6
CONTINUOUS
 62
    7
 10
289.77613294446792
 20
161.76092611776818
 40
0.0970232325631218
  0
CIRCLE
  8
_1-0_
  6
CONTINUOUS
 62
    7
 10
291.14823624894427
 20
162.24116969752956
 40
0.0970232325631218
  0
CIRCLE
  8
_1-0_
  6
CONTINUOUS
 62
    7
 10
271.16573849239865
 20
162.19253540039062
 40
0.0970232325631218
  0
CIRCLE
  8
_1-0_
  6
CONTINUOUS
 62
    7
 10
269.99943088840797
 20
162.19253540039062
 40
0.0970232325631218
  0
CIRCLE
  8
_1-0_
  6
CONTINUOUS
 62
    7
 10
273.15530313027875
 20
162.12392033757391
 40
0.0970232325631218
  0
CIRCLE
  8
_1-0_
  6
CONTINUOUS
 62
    7
 10
271.7831750818201
 20
161.50647137616133
 40
0.0970232325631218
  0
CIRCLE
  8
_1-0_
  6
CONTINUOUS
 62
    7
 10
274.66463656038854
 20
162.26113809121622
 40
0.0970232325631218
  0
CIRCLE
  8
_1-0_
  6
CONTINUOUS
 62
    7
 10
274.18440535261828
 20
160.54598421663852
 40
0.0970232325631218
  0
CIRCLE
  8
_1-0_
  6
CONTINUOUS
 62
    7
 10
272.40063641522386
 20
160.75180466110643
 40
0.0970232325631218
  0
CIRCLE
  8
_1-0_
  6
CONTINUOUS
 62
    7
 10
269.93081582559125
 20
160.68320197028083
 40
0.0970232325631218
  0
CIRCLE
  8
_1-0_
  6
CONTINUOUS
 62
    7
 10
265.6643346838049
 20
161.50647137616133
 40
0.0970232325631218
  0
CIRCLE
  8
_1-0_
  6
CONTINUOUS
 62
    7
 10
267.653899321685
 20
162.05531764674831
 40
0.0970232325631218
  0
CIRCLE
  8
_1-0_
  6
CONTINUOUS
 62
    7
 10
273.82843842377537
 20
162.05531764674831
 40
0.0970232325631218
  0
CIRCLE
  8
_1-0_
  6
CONTINUOUS
 62
    7
 10
262.4398473791174
 20
162.26113809121622
 40
0.0970232325631218
  0
CIRCLE
  8
_1-0_
  6
CONTINUOUS
 62
    7
 10
268.61438648120776
 20
160.95762510557432
 40
0.0970232325631218
  0
CIRCLE
  8
_1-0_
  6
CONTINUOUS
 62
    7
 10
270.80977156355578
 20
161.16344555004224
 40
0.0970232325631218
  0
CIRCLE
  8
_1-0_
  6
CONTINUOUS
 62
    7
 10
269.36905319626271
 20
162.19253540039062
 40
0.0970232325631218
  0
CIRCLE
  8
_1-0_
  6
CONTINUOUS
 62
    7
 10
274.78895032728042
 20
161.36926599451016
 40
0.0970232325631218
  0
CIRCLE
  8
_1-0_
  6
CONTINUOUS
 62
    7
 10
271.83887378589526
 20
161.6436767578125
 40
0.0970232325631218
  0
CIRCLE
  8
_1-0_
  6
CONTINUOUS
 62
    7
 10
264.49802707981422
 20
161.02622779639992
 40
0.0970232325631218
  0
CIRCLE
  8
_1-0_
  6
CONTINUOUS
 62
    7
 10
263.40033453864021
 20
160.75180466110643
 40
0.0970232325631218
  0
CIRCLE
  8
_1-0_
  6
CONTINUOUS
 62
    7
 10
261.9595914273649
 20
160.54598421663852
 40
0.0970232325631218
  0
CIRCLE
  8
_1-0_
  6
CONTINUOUS
 62
    7
 10
266.35038633604307
 20
161.16344555004224
 40
0.0970232325631218
  0
CIRCLE
  8
_1-0_
  6
CONTINUOUS
 62
    7
 10
264.36082169816302
 20
161.98671495592274
 40
0.0970232325631218
  0
CIRCLE
  8
_1-0_
  6
CONTINUOUS
 62
    7
 10
266.41900139885979
 20
160.47738152581294
 40
0.0970232325631218
  0
CIRCLE
  8
_1-0_
  6
CONTINUOUS
 62
    7
 10
271.358642578125
 20
160.27156108134503
 40
0.0970232325631218
  0
CIRCLE
  8
_1-0_
  6
CONTINUOUS
 62
    7
 10
275.26918153505068
 20
160.06574063687711
 40
0.0970232325631218
  0
CIRCLE
  8
_1-0_
  6
CONTINUOUS
 62
    7
 10
263.21938179634714
 20
161.50647137616133
 40
0.0970232325631218
  0
CIRCLE
  8
_1-0_
  6
CONTINUOUS
 62
    7
 10
265.20894643422719
 20
162.05531764674831
 40
0.0970232325631218
  0
CIRCLE
  8
_1-0_
  6
CONTINUOUS
 62
    7
 10
271.38348553631761
 20
162.05531764674831
 40
0.0970232325631218
  0
CIRCLE
  8
_1-0_
  6
CONTINUOUS
 62
    7
 10
266.16943359375
 20
160.95762510557432
 40
0.0970232325631218
  0
CIRCLE
  8
_1-0_
  6
CONTINUOUS
 62
    7
 10
268.36481867609797
 20
161.16344555004224
 40
0.0970232325631218
  0
CIRCLE
  8
_1-0_
  6
CONTINUOUS
 62
    7
 10
266.9241003088049
 20
162.19253540039062
 40
0.0970232325631218
  0
CIRCLE
  8
_1-0_
  6
CONTINUOUS
 62
    7
 10
272.34399743982266
 20
161.36926599451016
 40
0.0970232325631218
  0
CIRCLE
  8
_1-0_
  6
CONTINUOUS
 62
    7
 10
269.3939208984375
 20
161.6436767578125
 40
0.0970232325631218
  0
CIRCLE
  8
_1-0_
  6
CONTINUOUS
 62
    7
 10
262.05307419235641
 20
161.02622779639992
 40
0.0970232325631218
  0
CIRCLE
  8
_1-0_
  6
CONTINUOUS
 62
    7
 10
263.90543344858531
 20
161.16344555004224
 40
0.0970232325631218
  0
CIRCLE
  8
_1-0_
  6
CONTINUOUS
 62
    7
 10
263.97404851140203
 20
160.47738152581294
 40
0.0970232325631218
  0
CIRCLE
  8
_1-0_
  6
CONTINUOUS
 62
    7
 10
268.91368969066724
 20
160.27156108134503
 40
0.0970232325631218
  0
CIRCLE
  8
_1-0_
  6
CONTINUOUS
 62
    7
 10
272.82422864759292
 20
160.06574063687711
 40
0.0970232325631218
  0
CIRCLE
  8
_1-0_
  6
CONTINUOUS
 62
    7
 10
274.19633195206927
 20
160.54598421663852
 40
0.0970232325631218
  0
CIRCLE
  8
_1-0_
  6
CONTINUOUS
 62
    7
 10
248.78238162478885
 20
163.52457819758234
 40
0.0970232325631218
  0
CIRCLE
  8
_1-0_
  6
CONTINUOUS
 62
    7
 10
247.61607402079815
 20
163.52457819758234
 40
0.0970232325631218
  0
CIRCLE
  8
_1-0_
  6
CONTINUOUS
 62
    7
 10
250.77194626266893
 20
163.45596313476562
 40
0.0970232325631218
  0
CIRCLE
  8
_1-0_
  6
CONTINUOUS
 62
    7
 10
249.39981821421031
 20
162.83851417335305
 40
0.0970232325631218
  0
CIRCLE
  8
_1-0_
  6
CONTINUOUS
 62
    7
 10
252.28127969277872
 20
163.59318088840794
 40
0.0970232325631218
  0
CIRCLE
  8
_1-0_
  6
CONTINUOUS
 62
    7
 10
251.80104848500847
 20
161.87802701383023
 40
0.0970232325631218
  0
CIRCLE
  8
_1-0_
  6
CONTINUOUS
 62
    7
 10
250.01727954761404
 20
162.08384745829815
 40
0.0970232325631218
  0
CIRCLE
  8
_1-0_
  6
CONTINUOUS
 62
    7
 10
247.54745895798143
 20
162.01524476747255
 40
0.0970232325631218
  0
CIRCLE
  8
_1-0_
  6
CONTINUOUS
 62
    7
 10
243.2809778161951
 20
162.83851417335305
 40
0.0970232325631218
  0
CIRCLE
  8
_1-0_
  6
CONTINUOUS
 62
    7
 10
245.27054245407518
 20
163.38736044394005
 40
0.0970232325631218
  0
CIRCLE
  8
_1-0_
  6
CONTINUOUS
 62
    7
 10
251.44508155616555
 20
163.38736044394005
 40
0.0970232325631218
  0
CIRCLE
  8
_1-0_
  6
CONTINUOUS
 62
    7
 10
240.0564905115076
 20
163.59318088840794
 40
0.0970232325631218
  0
CIRCLE
  8
_1-0_
  6
CONTINUOUS
 62
    7
 10
246.231029613598
 20
162.28966790276607
 40
0.0970232325631218
  0
CIRCLE
  8
_1-0_
  6
CONTINUOUS
 62
    7
 10
248.42641469594597
 20
162.49548834723396
 40
0.0970232325631218
  0
CIRCLE
  8
_1-0_
  6
CONTINUOUS
 62
    7
 10
246.98569632865289
 20
163.52457819758234
 40
0.0970232325631218
  0
CIRCLE
  8
_1-0_
  6
CONTINUOUS
 62
    7
 10
252.40559345967063
 20
162.70130879170188
 40
0.0970232325631218
  0
CIRCLE
  8
_1-0_
  6
CONTINUOUS
 62
    7
 10
249.4555169182855
 20
162.97571955500422
 40
0.0970232325631218
  0
CIRCLE
  8
_1-0_
  6
CONTINUOUS
 62
    7
 10
242.1146702122044
 20
162.35827059359164
 40
0.0970232325631218
  0
CIRCLE
  8
_1-0_
  6
CONTINUOUS
 62
    7
 10
241.01697767103042
 20
162.08384745829815
 40
0.0970232325631218
  0
CIRCLE
  8
_1-0_
  6
CONTINUOUS
 62
    7
 10
239.57623455975508
 20
161.87802701383023
 40
0.0970232325631218
  0
CIRCLE
  8
_1-0_
  6
CONTINUOUS
 62
    7
 10
243.96702946843328
 20
162.49548834723396
 40
0.0970232325631218
  0
CIRCLE
  8
_1-0_
  6
CONTINUOUS
 62
    7
 10
241.97746483055323
 20
163.31875775311445
 40
0.0970232325631218
  0
CIRCLE
  8
_1-0_
  6
CONTINUOUS
 62
    7
 10
244.03564453125
 20
161.80942432300466
 40
0.0970232325631218
  0
CIRCLE
  8
_1-0_
  6
CONTINUOUS
 62
    7
 10
248.97528571051521
 20
161.60360387853675
 40
0.0970232325631218
  0
CIRCLE
  8
_1-0_
  6
CONTINUOUS
 62
    7
 10
252.88582466744089
 20
161.39778343406886
 40
0.0970232325631218
  0
CIRCLE
  8
_1-0_
  6
CONTINUOUS
 62
    7
 10
240.83602492873734
 20
162.83851417335305
 40
0.0970232325631218
  0
CIRCLE
  8
_1-0_
  6
CONTINUOUS
 62
    7
 10
242.82558956661742
 20
163.38736044394005
 40
0.0970232325631218
  0
CIRCLE
  8
_1-0_
  6
CONTINUOUS
 62
    7
 10
249.00012866870779
 20
163.38736044394005
 40
0.0970232325631218
  0
CIRCLE
  8
_1-0_
  6
CONTINUOUS
 62
    7
 10
243.78607672614021
 20
162.28966790276607
 40
0.0970232325631218
  0
CIRCLE
  8
_1-0_
  6
CONTINUOUS
 62
    7
 10
245.98146180848818
 20
162.49548834723396
 40
0.0970232325631218
  0
CIRCLE
  8
_1-0_
  6
CONTINUOUS
 62
    7
 10
244.5407434411951
 20
163.52457819758234
 40
0.0970232325631218
  0
CIRCLE
  8
_1-0_
  6
CONTINUOUS
 62
    7
 10
249.96064057221284
 20
162.70130879170188
 40
0.0970232325631218
  0
CIRCLE
  8
_1-0_
  6
CONTINUOUS
 62
    7
 10
247.01056403082771
 20
162.97571955500422
 40
0.0970232325631218
  0
CIRCLE
  8
_1-0_
  6
CONTINUOUS
 62
    7
 10
239.66971732474664
 20
162.35827059359164
 40
0.0970232325631218
  0
CIRCLE
  8
_1-0_
  6
CONTINUOUS
 62
    7
 10
241.52207658097552
 20
162.49548834723396
 40
0.0970232325631218
  0
CIRCLE
  8
_1-0_
  6
CONTINUOUS
 62
    7
 10
241.59069164379224
 20
161.80942432300466
 40
0.0970232325631218
  0
CIRCLE
  8
_1-0_
  6
CONTINUOUS
 62
    7
 10
246.53033282305745
 20
161.60360387853675
 40
0.0970232325631218
  0
CIRCLE
  8
_1-0_
  6
CONTINUOUS
 62
    7
 10
250.44087177998313
 20
161.39778343406886
 40
0.0970232325631218
  0
CIRCLE
  8
_1-0_
  6
CONTINUOUS
 62
    7
 10
251.81297508445948
 20
161.87802701383023
 40
0.0970232325631218
  0
CIRCLE
  8
_1-0_
  6
CONTINUOUS
 62
    7
 10
261.85081688133448
 20
163.9206056337099
 40
0.0970232325631218
  0
CIRCLE
  8
_1-0_
  6
CONTINUOUS
 62
    7
 10
260.68450927734375
 20
163.9206056337099
 40
0.0970232325631218
  0
CIRCLE
  8
_1-0_
  6
CONTINUOUS
 62
    7
 10
263.84038151921453
 20
163.85199057089318
 40
0.0970232325631218
  0
CIRCLE
  8
_1-0_
  6
CONTINUOUS
 62
    7
 10
262.46825347075594
 20
163.23454160948057
 40
0.0970232325631218
  0
CIRCLE
  8
_1-0_
  6
CONTINUOUS
 62
    7
 10
265.34971494932432
 20
163.98920832453547
 40
0.0970232325631218
  0
CIRCLE
  8
_1-0_
  6
CONTINUOUS
 62
    7
 10
264.86948374155406
 20
162.27405444995779
 40
0.0970232325631218
  0
CIRCLE
  8
_1-0_
  6
CONTINUOUS
 62
    7
 10
263.08571480415964
 20
162.47987489442568
 40
0.0970232325631218
  0
CIRCLE
  8
_1-0_
  6
CONTINUOUS
 62
    7
 10
260.61589421452703
 20
162.41127220360011
 40
0.0970232325631218
  0
CIRCLE
  8
_1-0_
  6
CONTINUOUS
 62
    7
 10
256.34941307274073
 20
163.23454160948057
 40
0.0970232325631218
  0
CIRCLE
  8
_1-0_
  6
CONTINUOUS
 62
    7
 10
258.33897771062078
 20
163.78338788006758
 40
0.0970232325631218
  0
CIRCLE
  8
_1-0_
  6
CONTINUOUS
 62
    7
 10
264.51351681271115
 20
163.78338788006758
 40
0.0970232325631218
  0
CIRCLE
  8
_1-0_
  6
CONTINUOUS
 62
    7
 10
253.12492576805323
 20
163.98920832453547
 40
0.0970232325631218
  0
CIRCLE
  8
_1-0_
  6
CONTINUOUS
 62
    7
 10
259.29946487014359
 20
162.68569533889359
 40
0.0970232325631218
  0
CIRCLE
  8
_1-0_
  6
CONTINUOUS
 62
    7
 10
261.49484995249156
 20
162.89151578336148
 40
0.0970232325631218
  0
CIRCLE
  8
_1-0_
  6
CONTINUOUS
 62
    7
 10
260.05413158519849
 20
163.9206056337099
 40
0.0970232325631218
  0
CIRCLE
  8
_1-0_
  6
CONTINUOUS
 62
    7
 10
265.47402871621625
 20
163.0973362278294
 40
0.0970232325631218
  0
CIRCLE
  8
_1-0_
  6
CONTINUOUS
 62
    7
 10
262.52395217483109
 20
163.37174699113177
 40
0.0970232325631218
  0
CIRCLE
  8
_1-0_
  6
CONTINUOUS
 62
    7
 10
255.18310546875
 20
162.75429802971919
 40
0.0970232325631218
  0
CIRCLE
  8
_1-0_
  6
CONTINUOUS
 62
    7
 10
254.08541292757602
 20
162.47987489442568
 40
0.0970232325631218
  0
CIRCLE
  8
_1-0_
  6
CONTINUOUS
 62
    7
 10
252.64466981630068
 20
162.27405444995779
 40
0.0970232325631218
  0
CIRCLE
  8
_1-0_
  6
CONTINUOUS
 62
    7
 10
257.03546472497891
 20
162.89151578336148
 40
0.0970232325631218
  0
CIRCLE
  8
_1-0_
  6
CONTINUOUS
 62
    7
 10
255.04590008709883
 20
163.71478518924198
 40
0.0970232325631218
  0
CIRCLE
  8
_1-0_
  6
CONTINUOUS
 62
    7
 10
257.10407978779563
 20
162.20545175913219
 40
0.0970232325631218
  0
CIRCLE
  8
_1-0_
  6
CONTINUOUS
 62
    7
 10
262.04372096706084
 20
161.99963131466427
 40
0.0970232325631218
  0
CIRCLE
  8
_1-0_
  6
CONTINUOUS
 62
    7
 10
265.95425992398651
 20
161.79381087019638
 40
0.0970232325631218
  0
CIRCLE
  8
_1-0_
  6
CONTINUOUS
 62
    7
 10
253.90446018528294
 20
163.23454160948057
 40
0.0970232325631218
  0
CIRCLE
  8
_1-0_
  6
CONTINUOUS
 62
    7
 10
255.89402482316302
 20
163.78338788006758
 40
0.0970232325631218
  0
CIRCLE
  8
_1-0_
  6
CONTINUOUS
 62
    7
 10
262.06856392525339
 20
163.78338788006758
 40
0.0970232325631218
  0
CIRCLE
  8
_1-0_
  6
CONTINUOUS
 62
    7
 10
256.85451198268584
 20
162.68569533889359
 40
0.0970232325631218
  0
CIRCLE
  8
_1-0_
  6
CONTINUOUS
 62
    7
 10
259.0498970650338
 20
162.89151578336148
 40
0.0970232325631218
  0
CIRCLE
  8
_1-0_
  6
CONTINUOUS
 62
    7
 10
257.60917869774073
 20
163.9206056337099
 40
0.0970232325631218
  0
CIRCLE
  8
_1-0_
  6
CONTINUOUS
 62
    7
 10
263.02907582875844
 20
163.0973362278294
 40
0.0970232325631218
  0
CIRCLE
  8
_1-0_
  6
CONTINUOUS
 62
    7
 10
260.07899928737334
 20
163.37174699113177
 40
0.0970232325631218
  0
CIRCLE
  8
_1-0_
  6
CONTINUOUS
 62
    7
 10
252.73815258129224
 20
162.75429802971919
 40
0.0970232325631218
  0
CIRCLE
  8
_1-0_
  6
CONTINUOUS
 62
    7
 10
254.59051183752112
 20
162.89151578336148
 40
0.0970232325631218
  0
CIRCLE
  8
_1-0_
  6
CONTINUOUS
 62
    7
 10
254.65912690033784
 20
162.20545175913219
 40
0.0970232325631218
  0
CIRCLE
  8
_1-0_
  6
CONTINUOUS
 62
    7
 10
259.59876807960308
 20
161.99963131466427
 40
0.0970232325631218
  0
CIRCLE
  8
_1-0_
  6
CONTINUOUS
 62
    7
 10
263.50930703652875
 20
161.79381087019638
 40
0.0970232325631218
  0
CIRCLE
  8
_1-0_
  6
CONTINUOUS
 62
    7
 10
264.88141034100511
 20
162.27405444995779
 40
0.0970232325631218
  0
CIRCLE
  8
_1-0_
  6
CONTINUOUS
 62
    7
 10
232.94182854729732
 20
163.52457819758234
 40
0.0970232325631218
  0
CIRCLE
  8
_1-0_
  6
CONTINUOUS
 62
    7
 10
231.77552094330659
 20
163.52457819758234
 40
0.0970232325631218
  0
CIRCLE
  8
_1-0_
  6
CONTINUOUS
 62
    7
 10
234.93139318517737
 20
163.45596313476562
 40
0.0970232325631218
  0
CIRCLE
  8
_1-0_
  6
CONTINUOUS
 62
    7
 10
233.55926513671875
 20
162.83851417335305
 40
0.0970232325631218
  0
CIRCLE
  8
_1-0_
  6
CONTINUOUS
 62
    7
 10
236.44072661528716
 20
163.59318088840794
 40
0.0970232325631218
  0
CIRCLE
  8
_1-0_
  6
CONTINUOUS
 62
    7
 10
235.9604954075169
 20
161.87802701383023
 40
0.0970232325631218
  0
CIRCLE
  8
_1-0_
  6
CONTINUOUS
 62
    7
 10
234.17672647012247
 20
162.08384745829815
 40
0.0970232325631218
  0
CIRCLE
  8
_1-0_
  6
CONTINUOUS
 62
    7
 10
231.70690588048987
 20
162.01524476747255
 40
0.0970232325631218
  0
CIRCLE
  8
_1-0_
  6
CONTINUOUS
 62
    7
 10
227.44042473870357
 20
162.83851417335305
 40
0.0970232325631218
  0
CIRCLE
  8
_1-0_
  6
CONTINUOUS
 62
    7
 10
229.42998937658362
 20
163.38736044394005
 40
0.0970232325631218
  0
CIRCLE
  8
_1-0_
  6
CONTINUOUS
 62
    7
 10
235.60452847867401
 20
163.38736044394005
 40
0.0970232325631218
  0
CIRCLE
  8
_1-0_
  6
CONTINUOUS
 62
    7
 10
224.21593743401607
 20
163.59318088840794
 40
0.0970232325631218
  0
CIRCLE
  8
_1-0_
  6
CONTINUOUS
 62
    7
 10
230.39047653610643
 20
162.28966790276607
 40
0.0970232325631218
  0
CIRCLE
  8
_1-0_
  6
CONTINUOUS
 62
    7
 10
232.5858616184544
 20
162.49548834723396
 40
0.0970232325631218
  0
CIRCLE
  8
_1-0_
  6
CONTINUOUS
 62
    7
 10
231.14514325116133
 20
163.52457819758234
 40
0.0970232325631218
  0
CIRCLE
  8
_1-0_
  6
CONTINUOUS
 62
    7
 10
236.56504038217906
 20
162.70130879170188
 40
0.0970232325631218
  0
CIRCLE
  8
_1-0_
  6
CONTINUOUS
 62
    7
 10
233.61496384079393
 20
162.97571955500422
 40
0.0970232325631218
  0
CIRCLE
  8
_1-0_
  6
CONTINUOUS
 62
    7
 10
226.27411713471284
 20
162.35827059359164
 40
0.0970232325631218
  0
CIRCLE
  8
_1-0_
  6
CONTINUOUS
 62
    7
 10
225.17642459353885
 20
162.08384745829815
 40
0.0970232325631218
  0
CIRCLE
  8
_1-0_
  6
CONTINUOUS
 62
    7
 10
223.73568148226352
 20
161.87802701383023
 40
0.0970232325631218
  0
CIRCLE
  8
_1-0_
  6
CONTINUOUS
 62
    7
 10
228.12647639094175
 20
162.49548834723396
 40
0.0970232325631218
  0
CIRCLE
  8
_1-0_
  6
CONTINUOUS
 62
    7
 10
226.13691175306167
 20
163.31875775311445
 40
0.0970232325631218
  0
CIRCLE
  8
_1-0_
  6
CONTINUOUS
 62
    7
 10
228.19509145375847
 20
161.80942432300466
 40
0.0970232325631218
  0
CIRCLE
  8
_1-0_
  6
CONTINUOUS
 62
    7
 10
233.13473263302367
 20
161.60360387853675
 40
0.0970232325631218
  0
CIRCLE
  8
_1-0_
  6
CONTINUOUS
 62
    7
 10
237.04527158994935
 20
161.39778343406886
 40
0.0970232325631218
  0
CIRCLE
  8
_1-0_
  6
CONTINUOUS
 62
    7
 10
224.99547185124578
 20
162.83851417335305
 40
0.0970232325631218
  0
CIRCLE
  8
_1-0_
  6
CONTINUOUS
 62
    7
 10
226.98503648912586
 20
163.38736044394005
 40
0.0970232325631218
  0
CIRCLE
  8
_1-0_
  6
CONTINUOUS
 62
    7
 10
233.15957559121622
 20
163.38736044394005
 40
0.0970232325631218
  0
CIRCLE
  8
_1-0_
  6
CONTINUOUS
 62
    7
 10
227.94552364864867
 20
162.28966790276607
 40
0.0970232325631218
  0
CIRCLE
  8
_1-0_
  6
CONTINUOUS
 62
    7
 10
230.14090873099664
 20
162.49548834723396
 40
0.0970232325631218
  0
CIRCLE
  8
_1-0_
  6
CONTINUOUS
 62
    7
 10
228.70019036370357
 20
163.52457819758234
 40
0.0970232325631218
  0
CIRCLE
  8
_1-0_
  6
CONTINUOUS
 62
    7
 10
234.1200874947213
 20
162.70130879170188
 40
0.0970232325631218
  0
CIRCLE
  8
_1-0_
  6
CONTINUOUS
 62
    7
 10
231.17001095333617
 20
162.97571955500422
 40
0.0970232325631218
  0
CIRCLE
  8
_1-0_
  6
CONTINUOUS
 62
    7
 10
223.82916424725508
 20
162.35827059359164
 40
0.0970232325631218
  0
CIRCLE
  8
_1-0_
  6
CONTINUOUS
 62
    7
 10
225.68152350348396
 20
162.49548834723396
 40
0.0970232325631218
  0
CIRCLE
  8
_1-0_
  6
CONTINUOUS
 62
    7
 10
225.75013856630068
 20
161.80942432300466
 40
0.0970232325631218
  0
CIRCLE
  8
_1-0_
  6
CONTINUOUS
 62
    7
 10
230.68977974556589
 20
161.60360387853675
 40
0.0970232325631218
  0
CIRCLE
  8
_1-0_
  6
CONTINUOUS
 62
    7
 10
234.60031870249156
 20
161.39778343406886
 40
0.0970232325631218
  0
CIRCLE
  8
_1-0_
  6
CONTINUOUS
 62
    7
 10
235.97242200696792
 20
161.87802701383023
 40
0.0970232325631218
  0
CIRCLE
  8
_1-0_
  6
CONTINUOUS
 62
    7
 10
222.24943418760557
 20
165.10863845412797
 40
0.0970232325631218
  0
CIRCLE
  8
_1-0_
  6
CONTINUOUS
 62
    7
 10
221.08312658361487
 20
165.10863845412797
 40
0.0970232325631218
  0
CIRCLE
  8
_1-0_
  6
CONTINUOUS
 62
    7
 10
224.23899882548565
 20
165.04002339131125
 40
0.0970232325631218
  0
CIRCLE
  8
_1-0_
  6
CONTINUOUS
 62
    7
 10
222.86687077702703
 20
164.42257442989865
 40
0.0970232325631218
  0
CIRCLE
  8
_1-0_
  6
CONTINUOUS
 62
    7
 10
225.74833225559544
 20
165.17724114495357
 40
0.0970232325631218
  0
CIRCLE
  8
_1-0_
  6
CONTINUOUS
 62
    7
 10
225.26810104782518
 20
163.46208727037586
 40
0.0970232325631218
  0
CIRCLE
  8
_1-0_
  6
CONTINUOUS
 62
    7
 10
223.48433211043076
 20
163.66790771484375
 40
0.0970232325631218
  0
CIRCLE
  8
_1-0_
  6
CONTINUOUS
 62
    7
 10
221.01451152079815
 20
163.59930502401818
 40
0.0970232325631218
  0
CIRCLE
  8
_1-0_
  6
CONTINUOUS
 62
    7
 10
216.74803037901182
 20
164.42257442989865
 40
0.0970232325631218
  0
CIRCLE
  8
_1-0_
  6
CONTINUOUS
 62
    7
 10
218.7375950168919
 20
164.97142070048565
 40
0.0970232325631218
  0
CIRCLE
  8
_1-0_
  6
CONTINUOUS
 62
    7
 10
224.91213411898227
 20
164.97142070048565
 40
0.0970232325631218
  0
CIRCLE
  8
_1-0_
  6
CONTINUOUS
 62
    7
 10
213.52354307432432
 20
165.17724114495357
 40
0.0970232325631218
  0
CIRCLE
  8
_1-0_
  6
CONTINUOUS
 62
    7
 10
219.69808217641472
 20
163.87372815931167
 40
0.0970232325631218
  0
CIRCLE
  8
_1-0_
  6
CONTINUOUS
 62
    7
 10
221.89346725876268
 20
164.07954860377956
 40
0.0970232325631218
  0
CIRCLE
  8
_1-0_
  6
CONTINUOUS
 62
    7
 10
220.45274889146961
 20
165.10863845412797
 40
0.0970232325631218
  0
CIRCLE
  8
_1-0_
  6
CONTINUOUS
 62
    7
 10
225.87264602248734
 20
164.28536904824747
 40
0.0970232325631218
  0
CIRCLE
  8
_1-0_
  6
CONTINUOUS
 62
    7
 10
222.92256948110222
 20
164.55977981154984
 40
0.0970232325631218
  0
CIRCLE
  8
_1-0_
  6
CONTINUOUS
 62
    7
 10
215.58172277502112
 20
163.94233085013727
 40
0.0970232325631218
  0
CIRCLE
  8
_1-0_
  6
CONTINUOUS
 62
    7
 10
214.48403023384714
 20
163.66790771484375
 40
0.0970232325631218
  0
CIRCLE
  8
_1-0_
  6
CONTINUOUS
 62
    7
 10
213.0432871225718
 20
163.46208727037586
 40
0.0970232325631218
  0
CIRCLE
  8
_1-0_
  6
CONTINUOUS
 62
    7
 10
217.43408203125
 20
164.07954860377956
 40
0.0970232325631218
  0
CIRCLE
  8
_1-0_
  6
CONTINUOUS
 62
    7
 10
215.44451739336995
 20
164.90281800966005
 40
0.0970232325631218
  0
CIRCLE
  8
_1-0_
  6
CONTINUOUS
 62
    7
 10
217.50269709406675
 20
163.39348457955026
 40
0.0970232325631218
  0
CIRCLE
  8
_1-0_
  6
CONTINUOUS
 62
    7
 10
222.44233827333193
 20
163.18766413508234
 40
0.0970232325631218
  0
CIRCLE
  8
_1-0_
  6
CONTINUOUS
 62
    7
 10
226.3528772302576
 20
162.98184369061445
 40
0.0970232325631218
  0
CIRCLE
  8
_1-0_
  6
CONTINUOUS
 62
    7
 10
214.30307749155406
 20
164.42257442989865
 40
0.0970232325631218
  0
CIRCLE
  8
_1-0_
  6
CONTINUOUS
 62
    7
 10
216.29264212943414
 20
164.97142070048565
 40
0.0970232325631218
  0
CIRCLE
  8
_1-0_
  6
CONTINUOUS
 62
    7
 10
222.46718123152451
 20
164.97142070048565
 40
0.0970232325631218
  0
CIRCLE
  8
_1-0_
  6
CONTINUOUS
 62
    7
 10
217.25312928895693
 20
163.87372815931167
 40
0.0970232325631218
  0
CIRCLE
  8
_1-0_
  6
CONTINUOUS
 62
    7
 10
219.44851437130492
 20
164.07954860377956
 40
0.0970232325631218
  0
CIRCLE
  8
_1-0_
  6
CONTINUOUS
 62
    7
 10
218.00779600401182
 20
165.10863845412797
 40
0.0970232325631218
  0
CIRCLE
  8
_1-0_
  6
CONTINUOUS
 62
    7
 10
223.42769313502959
 20
164.28536904824747
 40
0.0970232325631218
  0
CIRCLE
  8
_1-0_
  6
CONTINUOUS
 62
    7
 10
220.47761659364443
 20
164.55977981154984
 40
0.0970232325631218
  0
CIRCLE
  8
_1-0_
  6
CONTINUOUS
 62
    7
 10
213.13676988756336
 20
163.94233085013727
 40
0.0970232325631218
  0
CIRCLE
  8
_1-0_
  6
CONTINUOUS
 62
    7
 10
214.98912914379224
 20
164.07954860377956
 40
0.0970232325631218
  0
CIRCLE
  8
_1-0_
  6
CONTINUOUS
 62
    7
 10
215.05774420660896
 20
163.39348457955026
 40
0.0970232325631218
  0
CIRCLE
  8
_1-0_
  6
CONTINUOUS
 62
    7
 10
219.99738538587417
 20
163.18766413508234
 40
0.0970232325631218
  0
CIRCLE
  8
_1-0_
  6
CONTINUOUS
 62
    7
 10
223.90792434279984
 20
162.98184369061445
 40
0.0970232325631218
  0
CIRCLE
  8
_1-0_
  6
CONTINUOUS
 62
    7
 10
225.2800276472762
 20
163.46208727037586
 40
0.0970232325631218
  0
CIRCLE
  8
_1-0_
  6
CONTINUOUS
 62
    7
 10
217.49727816195102
 20
162.73256044130068
 40
0.0970232325631218
  0
CIRCLE
  8
_1-0_
  6
CONTINUOUS
 62
    7
 10
216.33097055796031
 20
162.73256044130068
 40
0.0970232325631218
  0
CIRCLE
  8
_1-0_
  6
CONTINUOUS
 62
    7
 10
219.48684279983109
 20
162.66394537848396
 40
0.0970232325631218
  0
CIRCLE
  8
_1-0_
  6
CONTINUOUS
 62
    7
 10
218.11471475137247
 20
162.04649641707138
 40
0.0970232325631218
  0
CIRCLE
  8
_1-0_
  6
CONTINUOUS
 62
    7
 10
220.99617622994089
 20
162.80116313212628
 40
0.0970232325631218
  0
CIRCLE
  8
_1-0_
  6
CONTINUOUS
 62
    7
 10
220.51594502217063
 20
161.08600925754857
 40
0.0970232325631218
  0
CIRCLE
  8
_1-0_
  6
CONTINUOUS
 62
    7
 10
218.7321760847762
 20
161.29182970201649
 40
0.0970232325631218
  0
CIRCLE
  8
_1-0_
  6
CONTINUOUS
 62
    7
 10
216.26235549514359
 20
161.22322701119089
 40
0.0970232325631218
  0
CIRCLE
  8
_1-0_
  6
CONTINUOUS
 62
    7
 10
211.99587435335727
 20
162.04649641707138
 40
0.0970232325631218
  0
CIRCLE
  8
_1-0_
  6
CONTINUOUS
 62
    7
 10
213.98543899123734
 20
162.59534268765836
 40
0.0970232325631218
  0
CIRCLE
  8
_1-0_
  6
CONTINUOUS
 62
    7
 10
220.15997809332771
 20
162.59534268765836
 40
0.0970232325631218
  0
CIRCLE
  8
_1-0_
  6
CONTINUOUS
 62
    7
 10
208.77138704866977
 20
162.80116313212628
 40
0.0970232325631218
  0
CIRCLE
  8
_1-0_
  6
CONTINUOUS
 62
    7
 10
214.94592615076016
 20
161.49765014648437
 40
0.0970232325631218
  0
CIRCLE
  8
_1-0_
  6
CONTINUOUS
 62
    7
 10
217.14131123310813
 20
161.70347059095229
 40
0.0970232325631218
  0
CIRCLE
  8
_1-0_
  6
CONTINUOUS
 62
    7
 10
215.70059286581505
 20
162.73256044130068
 40
0.0970232325631218
  0
CIRCLE
  8
_1-0_
  6
CONTINUOUS
 62
    7
 10
221.12048999683279
 20
161.90929103542018
 40
0.0970232325631218
  0
CIRCLE
  8
_1-0_
  6
CONTINUOUS
 62
    7
 10
218.17041345544766
 20
162.18370179872255
 40
0.0970232325631218
  0
CIRCLE
  8
_1-0_
  6
CONTINUOUS
 62
    7
 10
210.82956674936656
 20
161.56625283730997
 40
0.0970232325631218
  0
CIRCLE
  8
_1-0_
  6
CONTINUOUS
 62
    7
 10
209.73187420819258
 20
161.29182970201649
 40
0.0970232325631218
  0
CIRCLE
  8
_1-0_
  6
CONTINUOUS
 62
    7
 10
208.29113109691724
 20
161.08600925754857
 40
0.0970232325631218
  0
CIRCLE
  8
_1-0_
  6
CONTINUOUS
 62
    7
 10
212.68192600559544
 20
161.70347059095229
 40
0.0970232325631218
  0
CIRCLE
  8
_1-0_
  6
CONTINUOUS
 62
    7
 10
210.69236136771539
 20
162.52673999683279
 40
0.0970232325631218
  0
CIRCLE
  8
_1-0_
  6
CONTINUOUS
 62
    7
 10
212.75054106841216
 20
161.01740656672297
 40
0.0970232325631218
  0
CIRCLE
  8
_1-0_
  6
CONTINUOUS
 62
    7
 10
217.69018224767737
 20
160.81158612225508
 40
0.0970232325631218
  0
CIRCLE
  8
_1-0_
  6
CONTINUOUS
 62
    7
 10
221.60072120460305
 20
160.60576567778716
 40
0.0970232325631218
  0
CIRCLE
  8
_1-0_
  6
CONTINUOUS
 62
    7
 10
209.55092146589951
 20
162.04649641707138
 40
0.0970232325631218
  0
CIRCLE
  8
_1-0_
  6
CONTINUOUS
 62
    7
 10
211.54048610377959
 20
162.59534268765836
 40
0.0970232325631218
  0
CIRCLE
  8
_1-0_
  6
CONTINUOUS
 62
    7
 10
217.71502520586995
 20
162.59534268765836
 40
0.0970232325631218
  0
CIRCLE
  8
_1-0_
  6
CONTINUOUS
 62
    7
 10
212.50097326330237
 20
161.49765014648437
 40
0.0970232325631218
  0
CIRCLE
  8
_1-0_
  6
CONTINUOUS
 62
    7
 10
214.69635834565034
 20
161.70347059095229
 40
0.0970232325631218
  0
CIRCLE
  8
_1-0_
  6
CONTINUOUS
 62
    7
 10
213.25563997835727
 20
162.73256044130068
 40
0.0970232325631218
  0
CIRCLE
  8
_1-0_
  6
CONTINUOUS
 62
    7
 10
218.675537109375
 20
161.90929103542018
 40
0.0970232325631218
  0
CIRCLE
  8
_1-0_
  6
CONTINUOUS
 62
    7
 10
215.72546056798987
 20
162.18370179872255
 40
0.0970232325631218
  0
CIRCLE
  8
_1-0_
  6
CONTINUOUS
 62
    7
 10
208.3846138619088
 20
161.56625283730997
 40
0.0970232325631218
  0
CIRCLE
  8
_1-0_
  6
CONTINUOUS
 62
    7
 10
210.23697311813768
 20
161.70347059095229
 40
0.0970232325631218
  0
CIRCLE
  8
_1-0_
  6
CONTINUOUS
 62
    7
 10
210.3055881809544
 20
161.01740656672297
 40
0.0970232325631218
  0
CIRCLE
  8
_1-0_
  6
CONTINUOUS
 62
    7
 10
215.24522936021961
 20
160.81158612225508
 40
0.0970232325631218
  0
CIRCLE
  8
_1-0_
  6
CONTINUOUS
 62
    7
 10
219.15576831714529
 20
160.60576567778716
 40
0.0970232325631218
  0
CIRCLE
  8
_1-0_
  6
CONTINUOUS
 62
    7
 10
220.52787162162164
 20
161.08600925754857
 40
0.0970232325631218
  0
CIRCLE
  8
_1-0_
  6
CONTINUOUS
 62
    7
 10
201.26071002032307
 20
163.9206056337099
 40
0.0970232325631218
  0
CIRCLE
  8
_1-0_
  6
CONTINUOUS
 62
    7
 10
200.09440241633237
 20
163.9206056337099
 40
0.0970232325631218
  0
CIRCLE
  8
_1-0_
  6
CONTINUOUS
 62
    7
 10
203.25027465820312
 20
163.85199057089318
 40
0.0970232325631218
  0
CIRCLE
  8
_1-0_
  6
CONTINUOUS
 62
    7
 10
201.87814660974453
 20
163.23454160948057
 40
0.0970232325631218
  0
CIRCLE
  8
_1-0_
  6
CONTINUOUS
 62
    7
 10
204.75960808831294
 20
163.98920832453547
 40
0.0970232325631218
  0
CIRCLE
  8
_1-0_
  6
CONTINUOUS
 62
    7
 10
204.27937688054266
 20
162.27405444995779
 40
0.0970232325631218
  0
CIRCLE
  8
_1-0_
  6
CONTINUOUS
 62
    7
 10
202.49560794314823
 20
162.47987489442568
 40
0.0970232325631218
  0
CIRCLE
  8
_1-0_
  6
CONTINUOUS
 62
    7
 10
200.02578735351562
 20
162.41127220360011
 40
0.0970232325631218
  0
CIRCLE
  8
_1-0_
  6
CONTINUOUS
 62
    7
 10
195.75930621172932
 20
163.23454160948057
 40
0.0970232325631218
  0
CIRCLE
  8
_1-0_
  6
CONTINUOUS
 62
    7
 10
197.74887084960937
 20
163.78338788006758
 40
0.0970232325631218
  0
CIRCLE
  8
_1-0_
  6
CONTINUOUS
 62
    7
 10
203.92340995169977
 20
163.78338788006758
 40
0.0970232325631218
  0
CIRCLE
  8
_1-0_
  6
CONTINUOUS
 62
    7
 10
192.53481890704182
 20
163.98920832453547
 40
0.0970232325631218
  0
CIRCLE
  8
_1-0_
  6
CONTINUOUS
 62
    7
 10
198.70935800913219
 20
162.68569533889359
 40
0.0970232325631218
  0
CIRCLE
  8
_1-0_
  6
CONTINUOUS
 62
    7
 10
200.90474309148016
 20
162.89151578336148
 40
0.0970232325631218
  0
CIRCLE
  8
_1-0_
  6
CONTINUOUS
 62
    7
 10
199.46402472418708
 20
163.9206056337099
 40
0.0970232325631218
  0
CIRCLE
  8
_1-0_
  6
CONTINUOUS
 62
    7
 10
204.88392185520482
 20
163.0973362278294
 40
0.0970232325631218
  0
CIRCLE
  8
_1-0_
  6
CONTINUOUS
 62
    7
 10
201.93384531381969
 20
163.37174699113177
 40
0.0970232325631218
  0
CIRCLE
  8
_1-0_
  6
CONTINUOUS
 62
    7
 10
194.59299860773862
 20
162.75429802971919
 40
0.0970232325631218
  0
CIRCLE
  8
_1-0_
  6
CONTINUOUS
 62
    7
 10
193.49530606656461
 20
162.47987489442568
 40
0.0970232325631218
  0
CIRCLE
  8
_1-0_
  6
CONTINUOUS
 62
    7
 10
192.05456295528927
 20
162.27405444995779
 40
0.0970232325631218
  0
CIRCLE
  8
_1-0_
  6
CONTINUOUS
 62
    7
 10
196.4453578639675
 20
162.89151578336148
 40
0.0970232325631218
  0
CIRCLE
  8
_1-0_
  6
CONTINUOUS
 62
    7
 10
194.45579322608742
 20
163.71478518924198
 40
0.0970232325631218
  0
CIRCLE
  8
_1-0_
  6
CONTINUOUS
 62
    7
 10
196.51397292678422
 20
162.20545175913219
 40
0.0970232325631218
  0
CIRCLE
  8
_1-0_
  6
CONTINUOUS
 62
    7
 10
201.45361410604943
 20
161.99963131466427
 40
0.0970232325631218
  0
CIRCLE
  8
_1-0_
  6
CONTINUOUS
 62
    7
 10
205.36415306297511
 20
161.79381087019638
 40
0.0970232325631218
  0
CIRCLE
  8
_1-0_
  6
CONTINUOUS
 62
    7
 10
193.31435332427154
 20
163.23454160948057
 40
0.0970232325631218
  0
CIRCLE
  8
_1-0_
  6
CONTINUOUS
 62
    7
 10
195.30391796215162
 20
163.78338788006758
 40
0.0970232325631218
  0
CIRCLE
  8
_1-0_
  6
CONTINUOUS
 62
    7
 10
201.47845706424198
 20
163.78338788006758
 40
0.0970232325631218
  0
CIRCLE
  8
_1-0_
  6
CONTINUOUS
 62
    7
 10
196.26440512167443
 20
162.68569533889359
 40
0.0970232325631218
  0
CIRCLE
  8
_1-0_
  6
CONTINUOUS
 62
    7
 10
198.4597902040224
 20
162.89151578336148
 40
0.0970232325631218
  0
CIRCLE
  8
_1-0_
  6
CONTINUOUS
 62
    7
 10
197.01907183672932
 20
163.9206056337099
 40
0.0970232325631218
  0
CIRCLE
  8
_1-0_
  6
CONTINUOUS
 62
    7
 10
202.43896896774706
 20
163.0973362278294
 40
0.0970232325631218
  0
CIRCLE
  8
_1-0_
  6
CONTINUOUS
 62
    7
 10
199.48889242636193
 20
163.37174699113177
 40
0.0970232325631218
  0
CIRCLE
  8
_1-0_
  6
CONTINUOUS
 62
    7
 10
192.14804572028083
 20
162.75429802971919
 40
0.0970232325631218
  0
CIRCLE
  8
_1-0_
  6
CONTINUOUS
 62
    7
 10
194.00040497650971
 20
162.89151578336148
 40
0.0970232325631218
  0
CIRCLE
  8
_1-0_
  6
CONTINUOUS
 62
    7
 10
194.06902003932646
 20
162.20545175913219
 40
0.0970232325631218
  0
CIRCLE
  8
_1-0_
  6
CONTINUOUS
 62
    7
 10
199.00866121859164
 20
161.99963131466427
 40
0.0970232325631218
  0
CIRCLE
  8
_1-0_
  6
CONTINUOUS
 62
    7
 10
202.91920017551732
 20
161.79381087019638
 40
0.0970232325631218
  0
CIRCLE
  8
_1-0_
  6
CONTINUOUS
 62
    7
 10
204.29130347999367
 20
162.27405444995779
 40
0.0970232325631218
  0
CIRCLE
  8
_1-0_
  6
CONTINUOUS
 62
    7
 10
188.98429252005914
 20
163.9206056337099
 40
0.0970232325631218
  0
CIRCLE
  8
_1-0_
  6
CONTINUOUS
 62
    7
 10
187.81798491606841
 20
163.9206056337099
 40
0.0970232325631218
  0
CIRCLE
  8
_1-0_
  6
CONTINUOUS
 62
    7
 10
190.97385715793919
 20
163.85199057089318
 40
0.0970232325631218
  0
CIRCLE
  8
_1-0_
  6
CONTINUOUS
 62
    7
 10
189.60172910948057
 20
163.23454160948057
 40
0.0970232325631218
  0
CIRCLE
  8
_1-0_
  6
CONTINUOUS
 62
    7
 10
192.48319058804898
 20
163.98920832453547
 40
0.0970232325631218
  0
CIRCLE
  8
_1-0_
  6
CONTINUOUS
 62
    7
 10
192.00295938027872
 20
162.27405444995779
 40
0.0970232325631218
  0
CIRCLE
  8
_1-0_
  6
CONTINUOUS
 62
    7
 10
190.2191904428843
 20
162.47987489442568
 40
0.0970232325631218
  0
CIRCLE
  8
_1-0_
  6
CONTINUOUS
 62
    7
 10
187.74936985325169
 20
162.41127220360011
 40
0.0970232325631218
  0
CIRCLE
  8
_1-0_
  6
CONTINUOUS
 62
    7
 10
183.48288871146539
 20
163.23454160948057
 40
0.0970232325631218
  0
CIRCLE
  8
_1-0_
  6
CONTINUOUS
 62
    7
 10
185.47245334934544
 20
163.78338788006758
 40
0.0970232325631218
  0
CIRCLE
  8
_1-0_
  6
CONTINUOUS
 62
    7
 10
191.64699245143584
 20
163.78338788006758
 40
0.0970232325631218
  0
CIRCLE
  8
_1-0_
  6
CONTINUOUS
 62
    7
 10
180.25840140677789
 20
163.98920832453547
 40
0.0970232325631218
  0
CIRCLE
  8
_1-0_
  6
CONTINUOUS
 62
    7
 10
186.43294050886826
 20
162.68569533889359
 40
0.0970232325631218
  0
CIRCLE
  8
_1-0_
  6
CONTINUOUS
 62
    7
 10
188.62832559121622
 20
162.89151578336148
 40
0.0970232325631218
  0
CIRCLE
  8
_1-0_
  6
CONTINUOUS
 62
    7
 10
187.18760722392315
 20
163.9206056337099
 40
0.0970232325631218
  0
CIRCLE
  8
_1-0_
  6
CONTINUOUS
 62
    7
 10
192.60750435494089
 20
163.0973362278294
 40
0.0970232325631218
  0
CIRCLE
  8
_1-0_
  6
CONTINUOUS
 62
    7
 10
189.65742781355576
 20
163.37174699113177
 40
0.0970232325631218
  0
CIRCLE
  8
_1-0_
  6
CONTINUOUS
 62
    7
 10
182.31658110747466
 20
162.75429802971919
 40
0.0970232325631218
  0
CIRCLE
  8
_1-0_
  6
CONTINUOUS
 62
    7
 10
181.21888856630068
 20
162.47987489442568
 40
0.0970232325631218
  0
CIRCLE
  8
_1-0_
  6
CONTINUOUS
 62
    7
 10
179.77814545502534
 20
162.27405444995779
 40
0.0970232325631218
  0
CIRCLE
  8
_1-0_
  6
CONTINUOUS
 62
    7
 10
184.16894036370357
 20
162.89151578336148
 40
0.0970232325631218
  0
CIRCLE
  8
_1-0_
  6
CONTINUOUS
 62
    7
 10
182.17937572582349
 20
163.71478518924198
 40
0.0970232325631218
  0
CIRCLE
  8
_1-0_
  6
CONTINUOUS
 62
    7
 10
184.23755542652029
 20
162.20545175913219
 40
0.0970232325631218
  0
CIRCLE
  8
_1-0_
  6
CONTINUOUS
 62
    7
 10
189.1771966057855
 20
161.99963131466427
 40
0.0970232325631218
  0
CIRCLE
  8
_1-0_
  6
CONTINUOUS
 62
    7
 10
193.08773556271115
 20
161.79381087019638
 40
0.0970232325631218
  0
CIRCLE
  8
_1-0_
  6
CONTINUOUS
 62
    7
 10
181.0379358240076
 20
163.23454160948057
 40
0.0970232325631218
  0
CIRCLE
  8
_1-0_
  6
CONTINUOUS
 62
    7
 10
183.02750046188768
 20
163.78338788006758
 40
0.0970232325631218
  0
CIRCLE
  8
_1-0_
  6
CONTINUOUS
 62
    7
 10
189.20203956397805
 20
163.78338788006758
 40
0.0970232325631218
  0
CIRCLE
  8
_1-0_
  6
CONTINUOUS
 62
    7
 10
183.9879876214105
 20
162.68569533889359
 40
0.0970232325631218
  0
CIRCLE
  8
_1-0_
  6
CONTINUOUS
 62
    7
 10
186.18337270375847
 20
162.89151578336148
 40
0.0970232325631218
  0
CIRCLE
  8
_1-0_
  6
CONTINUOUS
 62
    7
 10
184.74265433646539
 20
163.9206056337099
 40
0.0970232325631218
  0
CIRCLE
  8
_1-0_
  6
CONTINUOUS
 62
    7
 10
190.16255146748313
 20
163.0973362278294
 40
0.0970232325631218
  0
CIRCLE
  8
_1-0_
  6
CONTINUOUS
 62
    7
 10
187.212474926098
 20
163.37174699113177
 40
0.0970232325631218
  0
CIRCLE
  8
_1-0_
  6
CONTINUOUS
 62
    7
 10
179.8716282200169
 20
162.75429802971919
 40
0.0970232325631218
  0
CIRCLE
  8
_1-0_
  6
CONTINUOUS
 62
    7
 10
181.72398747624578
 20
162.89151578336148
 40
0.0970232325631218
  0
CIRCLE
  8
_1-0_
  6
CONTINUOUS
 62
    7
 10
181.7926025390625
 20
162.20545175913219
 40
0.0970232325631218
  0
CIRCLE
  8
_1-0_
  6
CONTINUOUS
 62
    7
 10
186.73224371832771
 20
161.99963131466427
 40
0.0970232325631218
  0
CIRCLE
  8
_1-0_
  6
CONTINUOUS
 62
    7
 10
190.64278267525339
 20
161.79381087019638
 40
0.0970232325631218
  0
CIRCLE
  8
_1-0_
  6
CONTINUOUS
 62
    7
 10
192.01488597972974
 20
162.27405444995779
 40
0.0970232325631218
  0
CIRCLE
  8
_1-0_
  6
CONTINUOUS
 62
    7
 10
175.12380239125847
 20
164.31660832585516
 40
0.0970232325631218
  0
CIRCLE
  8
_1-0_
  6
CONTINUOUS
 62
    7
 10
173.95749478726773
 20
164.31660832585516
 40
0.0970232325631218
  0
CIRCLE
  8
_1-0_
  6
CONTINUOUS
 62
    7
 10
177.11336702913852
 20
164.24799326303844
 40
0.0970232325631218
  0
CIRCLE
  8
_1-0_
  6
CONTINUOUS
 62
    7
 10
175.7412389806799
 20
163.63054430162586
 40
0.0970232325631218
  0
CIRCLE
  8
_1-0_
  6
CONTINUOUS
 62
    7
 10
178.62270045924831
 20
164.38521101668076
 40
0.0970232325631218
  0
CIRCLE
  8
_1-0_
  6
CONTINUOUS
 62
    7
 10
178.14246925147805
 20
162.67005714210305
 40
0.0970232325631218
  0
CIRCLE
  8
_1-0_
  6
CONTINUOUS
 62
    7
 10
176.35870031408362
 20
162.87587758657097
 40
0.0970232325631218
  0
CIRCLE
  8
_1-0_
  6
CONTINUOUS
 62
    7
 10
173.88887972445102
 20
162.80727489574537
 40
0.0970232325631218
  0
CIRCLE
  8
_1-0_
  6
CONTINUOUS
 62
    7
 10
169.62239858266472
 20
163.63054430162586
 40
0.0970232325631218
  0
CIRCLE
  8
_1-0_
  6
CONTINUOUS
 62
    7
 10
171.61196322054477
 20
164.17939057221284
 40
0.0970232325631218
  0
CIRCLE
  8
_1-0_
  6
CONTINUOUS
 62
    7
 10
177.78650232263516
 20
164.17939057221284
 40
0.0970232325631218
  0
CIRCLE
  8
_1-0_
  6
CONTINUOUS
 62
    7
 10
166.39791127797722
 20
164.38521101668076
 40
0.0970232325631218
  0
CIRCLE
  8
_1-0_
  6
CONTINUOUS
 62
    7
 10
172.57245038006758
 20
163.08169803103885
 40
0.0970232325631218
  0
CIRCLE
  8
_1-0_
  6
CONTINUOUS
 62
    7
 10
174.76783546241555
 20
163.28751847550677
 40
0.0970232325631218
  0
CIRCLE
  8
_1-0_
  6
CONTINUOUS
 62
    7
 10
173.32711709512247
 20
164.31660832585516
 40
0.0970232325631218
  0
CIRCLE
  8
_1-0_
  6
CONTINUOUS
 62
    7
 10
178.74701422614021
 20
163.49333891997466
 40
0.0970232325631218
  0
CIRCLE
  8
_1-0_
  6
CONTINUOUS
 62
    7
 10
175.79693768475508
 20
163.76774968327703
 40
0.0970232325631218
  0
CIRCLE
  8
_1-0_
  6
CONTINUOUS
 62
    7
 10
168.45609097867398
 20
163.15030072186445
 40
0.0970232325631218
  0
CIRCLE
  8
_1-0_
  6
CONTINUOUS
 62
    7
 10
167.3583984375
 20
162.87587758657097
 40
0.0970232325631218
  0
CIRCLE
  8
_1-0_
  6
CONTINUOUS
 62
    7
 10
165.91765532622466
 20
162.67005714210305
 40
0.0970232325631218
  0
CIRCLE
  8
_1-0_
  6
CONTINUOUS
 62
    7
 10
170.30845023490289
 20
163.28751847550677
 40
0.0970232325631218
  0
CIRCLE
  8
_1-0_
  6
CONTINUOUS
 62
    7
 10
168.31888559702281
 20
164.11078788138727
 40
0.0970232325631218
  0
CIRCLE
  8
_1-0_
  6
CONTINUOUS
 62
    7
 10
170.37706529771961
 20
162.60145445127745
 40
0.0970232325631218
  0
CIRCLE
  8
_1-0_
  6
CONTINUOUS
 62
    7
 10
175.31670647698482
 20
162.39563400680956
 40
0.0970232325631218
  0
CIRCLE
  8
_1-0_
  6
CONTINUOUS
 62
    7
 10
179.2272454339105
 20
162.18981356234164
 40
0.0970232325631218
  0
CIRCLE
  8
_1-0_
  6
CONTINUOUS
 62
    7
 10
167.17744569520693
 20
163.63054430162586
 40
0.0970232325631218
  0
CIRCLE
  8
_1-0_
  6
CONTINUOUS
 62
    7
 10
169.16701033308701
 20
164.17939057221284
 40
0.0970232325631218
  0
CIRCLE
  8
_1-0_
  6
CONTINUOUS
 62
    7
 10
175.34154943517737
 20
164.17939057221284
 40
0.0970232325631218
  0
CIRCLE
  8
_1-0_
  6
CONTINUOUS
 62
    7
 10
170.12749749260982
 20
163.08169803103885
 40
0.0970232325631218
  0
CIRCLE
  8
_1-0_
  6
CONTINUOUS
 62
    7
 10
172.32288257495779
 20
163.28751847550677
 40
0.0970232325631218
  0
CIRCLE
  8
_1-0_
  6
CONTINUOUS
 62
    7
 10
170.88216420766472
 20
164.31660832585516
 40
0.0970232325631218
  0
CIRCLE
  8
_1-0_
  6
CONTINUOUS
 62
    7
 10
176.30206133868245
 20
163.49333891997466
 40
0.0970232325631218
  0
CIRCLE
  8
_1-0_
  6
CONTINUOUS
 62
    7
 10
173.35198479729732
 20
163.76774968327703
 40
0.0970232325631218
  0
CIRCLE
  8
_1-0_
  6
CONTINUOUS
 62
    7
 10
166.01113809121622
 20
163.15030072186445
 40
0.0970232325631218
  0
CIRCLE
  8
_1-0_
  6
CONTINUOUS
 62
    7
 10
167.8634973474451
 20
163.28751847550677
 40
0.0970232325631218
  0
CIRCLE
  8
_1-0_
  6
CONTINUOUS
 62
    7
 10
167.93211241026182
 20
162.60145445127745
 40
0.0970232325631218
  0
CIRCLE
  8
_1-0_
  6
CONTINUOUS
 62
    7
 10
172.87175358952703
 20
162.39563400680956
 40
0.0970232325631218
  0
CIRCLE
  8
_1-0_
  6
CONTINUOUS
 62
    7
 10
176.78229254645271
 20
162.18981356234164
 40
0.0970232325631218
  0
CIRCLE
  8
_1-0_
  6
CONTINUOUS
 62
    7
 10
178.15439585092906
 20
162.67005714210305
 40
0.0970232325631218
  0
CIRCLE
  8
_1-0_
  6
CONTINUOUS
 62
    7
 10
163.6394026472762
 20
162.73256044130068
 40
0.0970232325631218
  0
CIRCLE
  8
_1-0_
  6
CONTINUOUS
 62
    7
 10
162.47309504328547
 20
162.73256044130068
 40
0.0970232325631218
  0
CIRCLE
  8
_1-0_
  6
CONTINUOUS
 62
    7
 10
165.62896728515625
 20
162.66394537848396
 40
0.0970232325631218
  0
CIRCLE
  8
_1-0_
  6
CONTINUOUS
 62
    7
 10
164.25683923669766
 20
162.04649641707138
 40
0.0970232325631218
  0
CIRCLE
  8
_1-0_
  6
CONTINUOUS
 62
    7
 10
167.13830071526607
 20
162.80116313212628
 40
0.0970232325631218
  0
CIRCLE
  8
_1-0_
  6
CONTINUOUS
 62
    7
 10
166.65806950749578
 20
161.08600925754857
 40
0.0970232325631218
  0
CIRCLE
  8
_1-0_
  6
CONTINUOUS
 62
    7
 10
164.87430057010135
 20
161.29182970201649
 40
0.0970232325631218
  0
CIRCLE
  8
_1-0_
  6
CONTINUOUS
 62
    7
 10
162.40447998046875
 20
161.22322701119089
 40
0.0970232325631218
  0
CIRCLE
  8
_1-0_
  6
CONTINUOUS
 62
    7
 10
158.13799883868245
 20
162.04649641707138
 40
0.0970232325631218
  0
CIRCLE
  8
_1-0_
  6
CONTINUOUS
 62
    7
 10
160.1275634765625
 20
162.59534268765836
 40
0.0970232325631218
  0
CIRCLE
  8
_1-0_
  6
CONTINUOUS
 62
    7
 10
166.30210257865289
 20
162.59534268765836
 40
0.0970232325631218
  0
CIRCLE
  8
_1-0_
  6
CONTINUOUS
 62
    7
 10
154.91351153399495
 20
162.80116313212628
 40
0.0970232325631218
  0
CIRCLE
  8
_1-0_
  6
CONTINUOUS
 62
    7
 10
161.08805063608531
 20
161.49765014648437
 40
0.0970232325631218
  0
CIRCLE
  8
_1-0_
  6
CONTINUOUS
 62
    7
 10
163.28343571843328
 20
161.70347059095229
 40
0.0970232325631218
  0
CIRCLE
  8
_1-0_
  6
CONTINUOUS
 62
    7
 10
161.84271735114021
 20
162.73256044130068
 40
0.0970232325631218
  0
CIRCLE
  8
_1-0_
  6
CONTINUOUS
 62
    7
 10
167.26261448215794
 20
161.90929103542018
 40
0.0970232325631218
  0
CIRCLE
  8
_1-0_
  6
CONTINUOUS
 62
    7
 10
164.31253794077281
 20
162.18370179872255
 40
0.0970232325631218
  0
CIRCLE
  8
_1-0_
  6
CONTINUOUS
 62
    7
 10
156.97169123469172
 20
161.56625283730997
 40
0.0970232325631218
  0
CIRCLE
  8
_1-0_
  6
CONTINUOUS
 62
    7
 10
155.87399869351773
 20
161.29182970201649
 40
0.0970232325631218
  0
CIRCLE
  8
_1-0_
  6
CONTINUOUS
 62
    7
 10
154.4332555822424
 20
161.08600925754857
 40
0.0970232325631218
  0
CIRCLE
  8
_1-0_
  6
CONTINUOUS
 62
    7
 10
158.82405049092063
 20
161.70347059095229
 40
0.0970232325631218
  0
CIRCLE
  8
_1-0_
  6
CONTINUOUS
 62
    7
 10
156.83448585304055
 20
162.52673999683279
 40
0.0970232325631218
  0
CIRCLE
  8
_1-0_
  6
CONTINUOUS
 62
    7
 10
158.89266555373734
 20
161.01740656672297
 40
0.0970232325631218
  0
CIRCLE
  8
_1-0_
  6
CONTINUOUS
 62
    7
 10
163.83230673300255
 20
160.81158612225508
 40
0.0970232325631218
  0
CIRCLE
  8
_1-0_
  6
CONTINUOUS
 62
    7
 10
167.74284568992823
 20
160.60576567778716
 40
0.0970232325631218
  0
CIRCLE
  8
_1-0_
  6
CONTINUOUS
 62
    7
 10
155.69304595122466
 20
162.04649641707138
 40
0.0970232325631218
  0
CIRCLE
  8
_1-0_
  6
CONTINUOUS
 62
    7
 10
157.68261058910474
 20
162.59534268765836
 40
0.0970232325631218
  0
CIRCLE
  8
_1-0_
  6
CONTINUOUS
 62
    7
 10
163.8571496911951
 20
162.59534268765836
 40
0.0970232325631218
  0
CIRCLE
  8
_1-0_
  6
CONTINUOUS
 62
    7
 10
158.64309774862755
 20
161.49765014648437
 40
0.0970232325631218
  0
CIRCLE
  8
_1-0_
  6
CONTINUOUS
 62
    7
 10
160.83848283097552
 20
161.70347059095229
 40
0.0970232325631218
  0
CIRCLE
  8
_1-0_
  6
CONTINUOUS
 62
    7
 10
159.39776446368245
 20
162.73256044130068
 40
0.0970232325631218
  0
CIRCLE
  8
_1-0_
  6
CONTINUOUS
 62
    7
 10
164.81766159470018
 20
161.90929103542018
 40
0.0970232325631218
  0
CIRCLE
  8
_1-0_
  6
CONTINUOUS
 62
    7
 10
161.86758505331505
 20
162.18370179872255
 40
0.0970232325631218
  0
CIRCLE
  8
_1-0_
  6
CONTINUOUS
 62
    7
 10
154.52673834723396
 20
161.56625283730997
 40
0.0970232325631218
  0
CIRCLE
  8
_1-0_
  6
CONTINUOUS
 62
    7
 10
156.37909760346284
 20
161.70347059095229
 40
0.0970232325631218
  0
CIRCLE
  8
_1-0_
  6
CONTINUOUS
 62
    7
 10
156.44771266627956
 20
161.01740656672297
 40
0.0970232325631218
  0
CIRCLE
  8
_1-0_
  6
CONTINUOUS
 62
    7
 10
161.38735384554477
 20
160.81158612225508
 40
0.0970232325631218
  0
CIRCLE
  8
_1-0_
  6
CONTINUOUS
 62
    7
 10
165.29789280247044
 20
160.60576567778716
 40
0.0970232325631218
  0
CIRCLE
  8
_1-0_
  6
CONTINUOUS
 62
    7
 10
166.6699961069468
 20
161.08600925754857
 40
0.0970232325631218
  0
CIRCLE
  8
_1-0_
  6
CONTINUOUS
 62
    7
 10
155.71912610853042
 20
162.73256044130068
 40
0.0970232325631218
  0
CIRCLE
  8
_1-0_
  6
CONTINUOUS
 62
    7
 10
154.55281850453972
 20
162.73256044130068
 40
0.0970232325631218
  0
CIRCLE
  8
_1-0_
  6
CONTINUOUS
 62
    7
 10
157.70869074641047
 20
162.66394537848396
 40
0.0970232325631218
  0
CIRCLE
  8
_1-0_
  6
CONTINUOUS
 62
    7
 10
156.33656269795188
 20
162.04649641707138
 40
0.0970232325631218
  0
CIRCLE
  8
_1-0_
  6
CONTINUOUS
 62
    7
 10
159.21802417652029
 20
162.80116313212628
 40
0.0970232325631218
  0
CIRCLE
  8
_1-0_
  6
CONTINUOUS
 62
    7
 10
158.73779296875
 20
161.08600925754857
 40
0.0970232325631218
  0
CIRCLE
  8
_1-0_
  6
CONTINUOUS
 62
    7
 10
156.95402403135557
 20
161.29182970201649
 40
0.0970232325631218
  0
CIRCLE
  8
_1-0_
  6
CONTINUOUS
 62
    7
 10
154.48420344172297
 20
161.22322701119089
 40
0.0970232325631218
  0
CIRCLE
  8
_1-0_
  6
CONTINUOUS
 62
    7
 10
150.21772229993667
 20
162.04649641707138
 40
0.0970232325631218
  0
CIRCLE
  8
_1-0_
  6
CONTINUOUS
 62
    7
 10
152.20728693781672
 20
162.59534268765836
 40
0.0970232325631218
  0
CIRCLE
  8
_1-0_
  6
CONTINUOUS
 62
    7
 10
158.38182603990711
 20
162.59534268765836
 40
0.0970232325631218
  0
CIRCLE
  8
_1-0_
  6
CONTINUOUS
 62
    7
 10
146.99323499524917
 20
162.80116313212628
 40
0.0970232325631218
  0
CIRCLE
  8
_1-0_
  6
CONTINUOUS
 62
    7
 10
153.16777409733953
 20
161.49765014648437
 40
0.0970232325631218
  0
CIRCLE
  8
_1-0_
  6
CONTINUOUS
 62
    7
 10
155.3631591796875
 20
161.70347059095229
 40
0.0970232325631218
  0
CIRCLE
  8
_1-0_
  6
CONTINUOUS
 62
    7
 10
153.92244081239443
 20
162.73256044130068
 40
0.0970232325631218
  0
CIRCLE
  8
_1-0_
  6
CONTINUOUS
 62
    7
 10
159.34233794341216
 20
161.90929103542018
 40
0.0970232325631218
  0
CIRCLE
  8
_1-0_
  6
CONTINUOUS
 62
    7
 10
156.39226140202703
 20
162.18370179872255
 40
0.0970232325631218
  0
CIRCLE
  8
_1-0_
  6
CONTINUOUS
 62
    7
 10
149.05141469594597
 20
161.56625283730997
 40
0.0970232325631218
  0
CIRCLE
  8
_1-0_
  6
CONTINUOUS
 62
    7
 10
147.95372215477198
 20
161.29182970201649
 40
0.0970232325631218
  0
CIRCLE
  8
_1-0_
  6
CONTINUOUS
 62
    7
 10
146.51297904349664
 20
161.08600925754857
 40
0.0970232325631218
  0
CIRCLE
  8
_1-0_
  6
CONTINUOUS
 62
    7
 10
150.90377395217484
 20
161.70347059095229
 40
0.0970232325631218
  0
CIRCLE
  8
_1-0_
  6
CONTINUOUS
 62
    7
 10
148.91420931429477
 20
162.52673999683279
 40
0.0970232325631218
  0
CIRCLE
  8
_1-0_
  6
CONTINUOUS
 62
    7
 10
150.97238901499156
 20
161.01740656672297
 40
0.0970232325631218
  0
CIRCLE
  8
_1-0_
  6
CONTINUOUS
 62
    7
 10
155.91203019425677
 20
160.81158612225508
 40
0.0970232325631218
  0
CIRCLE
  8
_1-0_
  6
CONTINUOUS
 62
    7
 10
159.82256915118245
 20
160.60576567778716
 40
0.0970232325631218
  0
CIRCLE
  8
_1-0_
  6
CONTINUOUS
 62
    7
 10
147.77276941247888
 20
162.04649641707138
 40
0.0970232325631218
  0
CIRCLE
  8
_1-0_
  6
CONTINUOUS
 62
    7
 10
149.76233405035896
 20
162.59534268765836
 40
0.0970232325631218
  0
CIRCLE
  8
_1-0_
  6
CONTINUOUS
 62
    7
 10
155.93687315244932
 20
162.59534268765836
 40
0.0970232325631218
  0
CIRCLE
  8
_1-0_
  6
CONTINUOUS
 62
    7
 10
150.72282120988177
 20
161.49765014648437
 40
0.0970232325631218
  0
CIRCLE
  8
_1-0_
  6
CONTINUOUS
 62
    7
 10
152.91820629222974
 20
161.70347059095229
 40
0.0970232325631218
  0
CIRCLE
  8
_1-0_
  6
CONTINUOUS
 62
    7
 10
151.47748792493667
 20
162.73256044130068
 40
0.0970232325631218
  0
CIRCLE
  8
_1-0_
  6
CONTINUOUS
 62
    7
 10
156.8973850559544
 20
161.90929103542018
 40
0.0970232325631218
  0
CIRCLE
  8
_1-0_
  6
CONTINUOUS
 62
    7
 10
153.94730851456927
 20
162.18370179872255
 40
0.0970232325631218
  0
CIRCLE
  8
_1-0_
  6
CONTINUOUS
 62
    7
 10
146.60646180848818
 20
161.56625283730997
 40
0.0970232325631218
  0
CIRCLE
  8
_1-0_
  6
CONTINUOUS
 62
    7
 10
148.45882106471706
 20
161.70347059095229
 40
0.0970232325631218
  0
CIRCLE
  8
_1-0_
  6
CONTINUOUS
 62
    7
 10
148.5274361275338
 20
161.01740656672297
 40
0.0970232325631218
  0
CIRCLE
  8
_1-0_
  6
CONTINUOUS
 62
    7
 10
153.46707730679898
 20
160.81158612225508
 40
0.0970232325631218
  0
CIRCLE
  8
_1-0_
  6
CONTINUOUS
 62
    7
 10
157.37761626372466
 20
160.60576567778716
 40
0.0970232325631218
  0
CIRCLE
  8
_1-0_
  6
CONTINUOUS
 62
    7
 10
158.74971956820102
 20
161.08600925754857
 40
0.0970232325631218
  0
CIRCLE
  8
_1-0_
  6
CONTINUOUS
 62
    7
 10
126.01809527422931
 20
163.9206056337099
 40
0.0970232325631218
  0
CIRCLE
  8
_1-0_
  6
CONTINUOUS
 62
    7
 10
124.85178767023861
 20
163.9206056337099
 40
0.0970232325631218
  0
CIRCLE
  8
_1-0_
  6
CONTINUOUS
 62
    7
 10
128.00765991210937
 20
163.85199057089318
 40
0.0970232325631218
  0
CIRCLE
  8
_1-0_
  6
CONTINUOUS
 62
    7
 10
126.63553186365077
 20
163.23454160948057
 40
0.0970232325631218
  0
CIRCLE
  8
_1-0_
  6
CONTINUOUS
 62
    7
 10
129.51699334221917
 20
163.98920832453547
 40
0.0970232325631218
  0
CIRCLE
  8
_1-0_
  6
CONTINUOUS
 62
    7
 10
129.03676213444891
 20
162.27405444995779
 40
0.0970232325631218
  0
CIRCLE
  8
_1-0_
  6
CONTINUOUS
 62
    7
 10
127.25299319705448
 20
162.47987489442568
 40
0.0970232325631218
  0
CIRCLE
  8
_1-0_
  6
CONTINUOUS
 62
    7
 10
124.78317260742187
 20
162.41127220360011
 40
0.0970232325631218
  0
CIRCLE
  8
_1-0_
  6
CONTINUOUS
 62
    7
 10
120.51669146563556
 20
163.23454160948057
 40
0.0970232325631218
  0
CIRCLE
  8
_1-0_
  6
CONTINUOUS
 62
    7
 10
122.50625610351563
 20
163.78338788006758
 40
0.0970232325631218
  0
CIRCLE
  8
_1-0_
  6
CONTINUOUS
 62
    7
 10
128.68079520560602
 20
163.78338788006758
 40
0.0970232325631218
  0
CIRCLE
  8
_1-0_
  6
CONTINUOUS
 62
    7
 10
117.29220416094806
 20
163.98920832453547
 40
0.0970232325631218
  0
CIRCLE
  8
_1-0_
  6
CONTINUOUS
 62
    7
 10
123.46674326303844
 20
162.68569533889359
 40
0.0970232325631218
  0
CIRCLE
  8
_1-0_
  6
CONTINUOUS
 62
    7
 10
125.66212834538641
 20
162.89151578336148
 40
0.0970232325631218
  0
CIRCLE
  8
_1-0_
  6
CONTINUOUS
 62
    7
 10
124.22140997809333
 20
163.9206056337099
 40
0.0970232325631218
  0
CIRCLE
  8
_1-0_
  6
CONTINUOUS
 62
    7
 10
129.64130710911107
 20
163.0973362278294
 40
0.0970232325631218
  0
CIRCLE
  8
_1-0_
  6
CONTINUOUS
 62
    7
 10
126.69123056772594
 20
163.37174699113177
 40
0.0970232325631218
  0
CIRCLE
  8
_1-0_
  6
CONTINUOUS
 62
    7
 10
119.35038386164486
 20
162.75429802971919
 40
0.0970232325631218
  0
CIRCLE
  8
_1-0_
  6
CONTINUOUS
 62
    7
 10
118.25269132047087
 20
162.47987489442568
 40
0.0970232325631218
  0
CIRCLE
  8
_1-0_
  6
CONTINUOUS
 62
    7
 10
116.81194820919553
 20
162.27405444995779
 40
0.0970232325631218
  0
CIRCLE
  8
_1-0_
  6
CONTINUOUS
 62
    7
 10
121.20274311787374
 20
162.89151578336148
 40
0.0970232325631218
  0
CIRCLE
  8
_1-0_
  6
CONTINUOUS
 62
    7
 10
119.21317847999367
 20
163.71478518924198
 40
0.0970232325631218
  0
CIRCLE
  8
_1-0_
  6
CONTINUOUS
 62
    7
 10
121.27135818069047
 20
162.20545175913219
 40
0.0970232325631218
  0
CIRCLE
  8
_1-0_
  6
CONTINUOUS
 62
    7
 10
126.21099935995566
 20
161.99963131466427
 40
0.0970232325631218
  0
CIRCLE
  8
_1-0_
  6
CONTINUOUS
 62
    7
 10
130.12153831688133
 20
161.79381087019638
 40
0.0970232325631218
  0
CIRCLE
  8
_1-0_
  6
CONTINUOUS
 62
    7
 10
118.0717385781778
 20
163.23454160948057
 40
0.0970232325631218
  0
CIRCLE
  8
_1-0_
  6
CONTINUOUS
 62
    7
 10
120.06130321605787
 20
163.78338788006758
 40
0.0970232325631218
  0
CIRCLE
  8
_1-0_
  6
CONTINUOUS
 62
    7
 10
126.23584231814823
 20
163.78338788006758
 40
0.0970232325631218
  0
CIRCLE
  8
_1-0_
  6
CONTINUOUS
 62
    7
 10
121.02179037558066
 20
162.68569533889359
 40
0.0970232325631218
  0
CIRCLE
  8
_1-0_
  6
CONTINUOUS
 62
    7
 10
123.21717545792863
 20
162.89151578336148
 40
0.0970232325631218
  0
CIRCLE
  8
_1-0_
  6
CONTINUOUS
 62
    7
 10
121.77645709063556
 20
163.9206056337099
 40
0.0970232325631218
  0
CIRCLE
  8
_1-0_
  6
CONTINUOUS
 62
    7
 10
127.19635422165329
 20
163.0973362278294
 40
0.0970232325631218
  0
CIRCLE
  8
_1-0_
  6
CONTINUOUS
 62
    7
 10
124.24627768026816
 20
163.37174699113177
 40
0.0970232325631218
  0
CIRCLE
  8
_1-0_
  6
CONTINUOUS
 62
    7
 10
116.90543097418708
 20
162.75429802971919
 40
0.0970232325631218
  0
CIRCLE
  8
_1-0_
  6
CONTINUOUS
 62
    7
 10
118.75779023041596
 20
162.89151578336148
 40
0.0970232325631218
  0
CIRCLE
  8
_1-0_
  6
CONTINUOUS
 62
    7
 10
118.8264052932327
 20
162.20545175913219
 40
0.0970232325631218
  0
CIRCLE
  8
_1-0_
  6
CONTINUOUS
 62
    7
 10
123.76604647249789
 20
161.99963131466427
 40
0.0970232325631218
  0
CIRCLE
  8
_1-0_
  6
CONTINUOUS
 62
    7
 10
127.67658542942357
 20
161.79381087019638
 40
0.0970232325631218
  0
CIRCLE
  8
_1-0_
  6
CONTINUOUS
 62
    7
 10
129.04868873389992
 20
162.27405444995779
 40
0.0970232325631218
  0
CIRCLE
  8
_1-0_
  6
CONTINUOUS
 62
    7
 10
139.48255796690245
 20
162.73256044130068
 40
0.0970232325631218
  0
CIRCLE
  8
_1-0_
  6
CONTINUOUS
 62
    7
 10
138.31625036291175
 20
162.73256044130068
 40
0.0970232325631218
  0
CIRCLE
  8
_1-0_
  6
CONTINUOUS
 62
    7
 10
141.47212260478253
 20
162.66394537848396
 40
0.0970232325631218
  0
CIRCLE
  8
_1-0_
  6
CONTINUOUS
 62
    7
 10
140.09999455632391
 20
162.04649641707138
 40
0.0970232325631218
  0
CIRCLE
  8
_1-0_
  6
CONTINUOUS
 62
    7
 10
142.98145603489232
 20
162.80116313212628
 40
0.0970232325631218
  0
CIRCLE
  8
_1-0_
  6
CONTINUOUS
 62
    7
 10
142.50122482712206
 20
161.08600925754857
 40
0.0970232325631218
  0
CIRCLE
  8
_1-0_
  6
CONTINUOUS
 62
    7
 10
140.71745588972763
 20
161.29182970201649
 40
0.0970232325631218
  0
CIRCLE
  8
_1-0_
  6
CONTINUOUS
 62
    7
 10
138.24763530009503
 20
161.22322701119089
 40
0.0970232325631218
  0
CIRCLE
  8
_1-0_
  6
CONTINUOUS
 62
    7
 10
133.9811541583087
 20
162.04649641707138
 40
0.0970232325631218
  0
CIRCLE
  8
_1-0_
  6
CONTINUOUS
 62
    7
 10
135.97071879618878
 20
162.59534268765836
 40
0.0970232325631218
  0
CIRCLE
  8
_1-0_
  6
CONTINUOUS
 62
    7
 10
142.14525789827914
 20
162.59534268765836
 40
0.0970232325631218
  0
CIRCLE
  8
_1-0_
  6
CONTINUOUS
 62
    7
 10
130.7566668536212
 20
162.80116313212628
 40
0.0970232325631218
  0
CIRCLE
  8
_1-0_
  6
CONTINUOUS
 62
    7
 10
136.93120595571159
 20
161.49765014648437
 40
0.0970232325631218
  0
CIRCLE
  8
_1-0_
  6
CONTINUOUS
 62
    7
 10
139.12659103805956
 20
161.70347059095229
 40
0.0970232325631218
  0
CIRCLE
  8
_1-0_
  6
CONTINUOUS
 62
    7
 10
137.68587267076649
 20
162.73256044130068
 40
0.0970232325631218
  0
CIRCLE
  8
_1-0_
  6
CONTINUOUS
 62
    7
 10
143.10576980178422
 20
161.90929103542018
 40
0.0970232325631218
  0
CIRCLE
  8
_1-0_
  6
CONTINUOUS
 62
    7
 10
140.15569326039909
 20
162.18370179872255
 40
0.0970232325631218
  0
CIRCLE
  8
_1-0_
  6
CONTINUOUS
 62
    7
 10
132.814846554318
 20
161.56625283730997
 40
0.0970232325631218
  0
CIRCLE
  8
_1-0_
  6
CONTINUOUS
 62
    7
 10
131.71715401314401
 20
161.29182970201649
 40
0.0970232325631218
  0
CIRCLE
  8
_1-0_
  6
CONTINUOUS
 62
    7
 10
130.27641090186867
 20
161.08600925754857
 40
0.0970232325631218
  0
CIRCLE
  8
_1-0_
  6
CONTINUOUS
 62
    7
 10
134.66720581054687
 20
161.70347059095229
 40
0.0970232325631218
  0
CIRCLE
  8
_1-0_
  6
CONTINUOUS
 62
    7
 10
132.67764117266682
 20
162.52673999683279
 40
0.0970232325631218
  0
CIRCLE
  8
_1-0_
  6
CONTINUOUS
 62
    7
 10
134.73582087336359
 20
161.01740656672297
 40
0.0970232325631218
  0
CIRCLE
  8
_1-0_
  6
CONTINUOUS
 62
    7
 10
139.6754620526288
 20
160.81158612225508
 40
0.0970232325631218
  0
CIRCLE
  8
_1-0_
  6
CONTINUOUS
 62
    7
 10
143.58600100955448
 20
160.60576567778716
 40
0.0970232325631218
  0
CIRCLE
  8
_1-0_
  6
CONTINUOUS
 62
    7
 10
131.53620127085094
 20
162.04649641707138
 40
0.0970232325631218
  0
CIRCLE
  8
_1-0_
  6
CONTINUOUS
 62
    7
 10
133.52576590873102
 20
162.59534268765836
 40
0.0970232325631218
  0
CIRCLE
  8
_1-0_
  6
CONTINUOUS
 62
    7
 10
139.70030501082138
 20
162.59534268765836
 40
0.0970232325631218
  0
CIRCLE
  8
_1-0_
  6
CONTINUOUS
 62
    7
 10
134.4862530682538
 20
161.49765014648437
 40
0.0970232325631218
  0
CIRCLE
  8
_1-0_
  6
CONTINUOUS
 62
    7
 10
136.68163815060177
 20
161.70347059095229
 40
0.0970232325631218
  0
CIRCLE
  8
_1-0_
  6
CONTINUOUS
 62
    7
 10
135.2409197833087
 20
162.73256044130068
 40
0.0970232325631218
  0
CIRCLE
  8
_1-0_
  6
CONTINUOUS
 62
    7
 10
140.66081691432643
 20
161.90929103542018
 40
0.0970232325631218
  0
CIRCLE
  8
_1-0_
  6
CONTINUOUS
 62
    7
 10
137.7107403729413
 20
162.18370179872255
 40
0.0970232325631218
  0
CIRCLE
  8
_1-0_
  6
CONTINUOUS
 62
    7
 10
130.36989366686024
 20
161.56625283730997
 40
0.0970232325631218
  0
CIRCLE
  8
_1-0_
  6
CONTINUOUS
 62
    7
 10
132.22225292308912
 20
161.70347059095229
 40
0.0970232325631218
  0
CIRCLE
  8
_1-0_
  6
CONTINUOUS
 62
    7
 10
132.29086798590583
 20
161.01740656672297
 40
0.0970232325631218
  0
CIRCLE
  8
_1-0_
  6
CONTINUOUS
 62
    7
 10
137.23050916517104
 20
160.81158612225508
 40
0.0970232325631218
  0
CIRCLE
  8
_1-0_
  6
CONTINUOUS
 62
    7
 10
141.14104812209672
 20
160.60576567778716
 40
0.0970232325631218
  0
CIRCLE
  8
_1-0_
  6
CONTINUOUS
 62
    7
 10
142.51315142657307
 20
161.08600925754857
 40
0.0970232325631218
  0
CIRCLE
  8
_1-0_
  6
CONTINUOUS
 62
    7
 10
68.783736357817787
 20
167.95496347788219
 40
0.0970232325631218
  0
CIRCLE
  8
_1-0_
  6
CONTINUOUS
 62
    7
 10
71.59658277356948
 20
167.81775809623102
 40
0.0970232325631218
  0
CIRCLE
  8
_1-0_
  6
CONTINUOUS
 62
    7
 10
69.950037775812916
 20
166.51424511058912
 40
0.0970232325631218
  0
CIRCLE
  8
_1-0_
  6
CONTINUOUS
 62
    7
 10
68.783736357817787
 20
166.51424511058912
 40
0.0970232325631218
  0
CIRCLE
  8
_1-0_
  6
CONTINUOUS
 62
    7
 10
69.126768369932449
 20
166.7886682458826
 40
0.0970232325631218
  0
CIRCLE
  8
_1-0_
  6
CONTINUOUS
 62
    7
 10
71.939614785684114
 20
166.4456300477724
 40
0.0970232325631218
  0
CIRCLE
  8
_1-0_
  6
CONTINUOUS
 62
    7
 10
70.567492923221096
 20
165.82818108635982
 40
0.0970232325631218
  0
CIRCLE
  8
_1-0_
  6
CONTINUOUS
 62
    7
 10
76.673435520481405
 20
165.82818108635982
 40
0.0970232325631218
  0
CIRCLE
  8
_1-0_
  6
CONTINUOUS
 62
    7
 10
78.663006344357058
 20
166.3770273569468
 40
0.0970232325631218
  0
CIRCLE
  8
_1-0_
  6
CONTINUOUS
 62
    7
 10
84.837551632442995
 20
166.3770273569468
 40
0.0970232325631218
  0
CIRCLE
  8
_1-0_
  6
CONTINUOUS
 62
    7
 10
78.38858320906354
 20
167.26891182564401
 40
0.0970232325631218
  0
CIRCLE
  8
_1-0_
  6
CONTINUOUS
 62
    7
 10
76.399006199192343
 20
168.02357854069891
 40
0.0970232325631218
  0
CIRCLE
  8
_1-0_
  6
CONTINUOUS
 62
    7
 10
73.448948215793905
 20
166.58284780141472
 40
0.0970232325631218
  0
CIRCLE
  8
_1-0_
  6
CONTINUOUS
 62
    7
 10
79.623493503879843
 20
165.27933481577281
 40
0.0970232325631218
  0
CIRCLE
  8
_1-0_
  6
CONTINUOUS
 62
    7
 10
81.818884772223385
 20
165.48515526024073
 40
0.0970232325631218
  0
CIRCLE
  8
_1-0_
  6
CONTINUOUS
 62
    7
 10
80.378160218934767
 20
166.51424511058912
 40
0.0970232325631218
  0
CIRCLE
  8
_1-0_
  6
CONTINUOUS
 62
    7
 10
80.8583976127006
 20
167.6805403425887
 40
0.0970232325631218
  0
CIRCLE
  8
_1-0_
  6
CONTINUOUS
 62
    7
 10
82.504948796452709
 20
168.2980016759924
 40
0.0970232325631218
  0
CIRCLE
  8
_1-0_
  6
CONTINUOUS
 62
    7
 10
87.444577603726785
 20
167.95496347788219
 40
0.0970232325631218
  0
CIRCLE
  8
_1-0_
  6
CONTINUOUS
 62
    7
 10
85.798038791965794
 20
165.69097570470862
 40
0.0970232325631218
  0
CIRCLE
  8
_1-0_
  6
CONTINUOUS
 62
    7
 10
82.847974622571797
 20
165.96538646801099
 40
0.0970232325631218
  0
CIRCLE
  8
_1-0_
  6
CONTINUOUS
 62
    7
 10
75.507127916490731
 20
165.34793750659841
 40
0.0970232325631218
  0
CIRCLE
  8
_1-0_
  6
CONTINUOUS
 62
    7
 10
74.409435375316718
 20
165.0735143713049
 40
0.0970232325631218
  0
CIRCLE
  8
_1-0_
  6
CONTINUOUS
 62
    7
 10
72.968704636032527
 20
164.86769392683701
 40
0.0970232325631218
  0
CIRCLE
  8
_1-0_
  6
CONTINUOUS
 62
    7
 10
71.184948070629218
 20
165.0735143713049
 40
0.0970232325631218
  0
CIRCLE
  8
_1-0_
  6
CONTINUOUS
 62
    7
 10
68.715133666992188
 20
165.00491168047932
 40
0.0970232325631218
  0
CIRCLE
  8
_1-0_
  6
CONTINUOUS
 62
    7
 10
71.939614785684114
 20
167.6119376517631
 40
0.0970232325631218
  0
CIRCLE
  8
_1-0_
  6
CONTINUOUS
 62
    7
 10
74.066403363202085
 20
167.95496347788219
 40
0.0970232325631218
  0
CIRCLE
  8
_1-0_
  6
CONTINUOUS
 62
    7
 10
75.575736793311876
 20
168.50382212046031
 40
0.0970232325631218
  0
CIRCLE
  8
_1-0_
  6
CONTINUOUS
 62
    7
 10
78.182762764595651
 20
168.915450637405
 40
0.0970232325631218
  0
CIRCLE
  8
_1-0_
  6
CONTINUOUS
 62
    7
 10
77.359493358715156
 20
165.48515526024073
 40
0.0970232325631218
  0
CIRCLE
  8
_1-0_
  6
CONTINUOUS
 62
    7
 10
75.369916348843958
 20
166.3084246661212
 40
0.0970232325631218
  0
CIRCLE
  8
_1-0_
  6
CONTINUOUS
 62
    7
 10
77.428102235536301
 20
164.79909123601141
 40
0.0970232325631218
  0
CIRCLE
  8
_1-0_
  6
CONTINUOUS
 62
    7
 10
82.367731042810391
 20
164.59327079154352
 40
0.0970232325631218
  0
CIRCLE
  8
_1-0_
  6
CONTINUOUS
 62
    7
 10
86.278276185731642
 20
164.3874503470756
 40
0.0970232325631218
  0
CIRCLE
  8
_1-0_
  6
CONTINUOUS
 62
    7
 10
87.650398048194688
 20
164.86769392683701
 40
0.0970232325631218
  0
CIRCLE
  8
_1-0_
  6
CONTINUOUS
 62
    7
 10
85.111974767736484
 20
167.5433349609375
 40
0.0970232325631218
  0
CIRCLE
  8
_1-0_
  6
CONTINUOUS
 62
    7
 10
85.180583644557643
 20
168.98405332823057
 40
0.0970232325631218
  0
CIRCLE
  8
_1-0_
  6
CONTINUOUS
 62
    7
 10
89.296943045951224
 20
165.69097570470862
 40
0.0970232325631218
  0
CIRCLE
  8
_1-0_
  6
CONTINUOUS
 62
    7
 10
81.852190172350106
 20
162.80679238809122
 40
0.0970232325631218
  0
CIRCLE
  8
_1-0_
  6
CONTINUOUS
 62
    7
 10
84.665036588101785
 20
162.66958700644005
 40
0.0970232325631218
  0
CIRCLE
  8
_1-0_
  6
CONTINUOUS
 62
    7
 10
83.018491590345235
 20
161.36607402079815
 40
0.0970232325631218
  0
CIRCLE
  8
_1-0_
  6
CONTINUOUS
 62
    7
 10
81.852190172350106
 20
161.36607402079815
 40
0.0970232325631218
  0
CIRCLE
  8
_1-0_
  6
CONTINUOUS
 62
    7
 10
82.19522218446474
 20
161.64049715609164
 40
0.0970232325631218
  0
CIRCLE
  8
_1-0_
  6
CONTINUOUS
 62
    7
 10
85.008068600216433
 20
161.29745895798143
 40
0.0970232325631218
  0
CIRCLE
  8
_1-0_
  6
CONTINUOUS
 62
    7
 10
83.635946737753386
 20
160.68000999656886
 40
0.0970232325631218
  0
CIRCLE
  8
_1-0_
  6
CONTINUOUS
 62
    7
 10
89.741889335013724
 20
160.68000999656886
 40
0.0970232325631218
  0
CIRCLE
  8
_1-0_
  6
CONTINUOUS
 62
    7
 10
91.731460158889362
 20
161.22885626715583
 40
0.0970232325631218
  0
CIRCLE
  8
_1-0_
  6
CONTINUOUS
 62
    7
 10
97.9060054469753
 20
161.22885626715583
 40
0.0970232325631218
  0
CIRCLE
  8
_1-0_
  6
CONTINUOUS
 62
    7
 10
91.457037023595873
 20
162.12074073585305
 40
0.0970232325631218
  0
CIRCLE
  8
_1-0_
  6
CONTINUOUS
 62
    7
 10
89.467460013724661
 20
162.87540745090794
 40
0.0970232325631218
  0
CIRCLE
  8
_1-0_
  6
CONTINUOUS
 62
    7
 10
86.517402030326224
 20
161.43467671162375
 40
0.0970232325631218
  0
CIRCLE
  8
_1-0_
  6
CONTINUOUS
 62
    7
 10
92.691947318412161
 20
160.13116372598185
 40
0.0970232325631218
  0
CIRCLE
  8
_1-0_
  6
CONTINUOUS
 62
    7
 10
94.887338586755703
 20
160.33698417044977
 40
0.0970232325631218
  0
CIRCLE
  8
_1-0_
  6
CONTINUOUS
 62
    7
 10
93.446614033467071
 20
161.36607402079815
 40
0.0970232325631218
  0
CIRCLE
  8
_1-0_
  6
CONTINUOUS
 62
    7
 10
93.926851427232904
 20
162.53236925279774
 40
0.0970232325631218
  0
CIRCLE
  8
_1-0_
  6
CONTINUOUS
 62
    7
 10
95.573402610985013
 20
163.14983058620143
 40
0.0970232325631218
  0
CIRCLE
  8
_1-0_
  6
CONTINUOUS
 62
    7
 10
100.51303141825909
 20
162.80679238809122
 40
0.0970232325631218
  0
CIRCLE
  8
_1-0_
  6
CONTINUOUS
 62
    7
 10
98.866492606498099
 20
160.54280461491766
 40
0.0970232325631218
  0
CIRCLE
  8
_1-0_
  6
CONTINUOUS
 62
    7
 10
95.916428437104102
 20
160.81721537822003
 40
0.0970232325631218
  0
CIRCLE
  8
_1-0_
  6
CONTINUOUS
 62
    7
 10
88.575581731023021
 20
160.19976641680745
 40
0.0970232325631218
  0
CIRCLE
  8
_1-0_
  6
CONTINUOUS
 62
    7
 10
87.477889189849037
 20
159.92534328151393
 40
0.0970232325631218
  0
CIRCLE
  8
_1-0_
  6
CONTINUOUS
 62
    7
 10
86.037158450564831
 20
159.71952283704604
 40
0.0970232325631218
  0
CIRCLE
  8
_1-0_
  6
CONTINUOUS
 62
    7
 10
84.253401885161537
 20
159.92534328151393
 40
0.0970232325631218
  0
CIRCLE
  8
_1-0_
  6
CONTINUOUS
 62
    7
 10
81.783587481524478
 20
159.85674059068836
 40
0.0970232325631218
  0
CIRCLE
  8
_1-0_
  6
CONTINUOUS
 62
    7
 10
85.008068600216433
 20
162.46376656197214
 40
0.0970232325631218
  0
CIRCLE
  8
_1-0_
  6
CONTINUOUS
 62
    7
 10
87.134857177734375
 20
162.80679238809122
 40
0.0970232325631218
  0
CIRCLE
  8
_1-0_
  6
CONTINUOUS
 62
    7
 10
88.64419060784418
 20
163.35565103066935
 40
0.0970232325631218
  0
CIRCLE
  8
_1-0_
  6
CONTINUOUS
 62
    7
 10
91.251216579127956
 20
163.76727954761404
 40
0.0970232325631218
  0
CIRCLE
  8
_1-0_
  6
CONTINUOUS
 62
    7
 10
90.427947173247475
 20
160.33698417044977
 40
0.0970232325631218
  0
CIRCLE
  8
_1-0_
  6
CONTINUOUS
 62
    7
 10
88.438370163376277
 20
161.16025357633023
 40
0.0970232325631218
  0
CIRCLE
  8
_1-0_
  6
CONTINUOUS
 62
    7
 10
90.496556050068634
 20
159.65092014622044
 40
0.0970232325631218
  0
CIRCLE
  8
_1-0_
  6
CONTINUOUS
 62
    7
 10
95.436184857342695
 20
159.44509970175255
 40
0.0970232325631218
  0
CIRCLE
  8
_1-0_
  6
CONTINUOUS
 62
    7
 10
99.346730000263946
 20
159.23927925728464
 40
0.0970232325631218
  0
CIRCLE
  8
_1-0_
  6
CONTINUOUS
 62
    7
 10
100.71885186272699
 20
159.71952283704604
 40
0.0970232325631218
  0
CIRCLE
  8
_1-0_
  6
CONTINUOUS
 62
    7
 10
98.180428582268803
 20
162.39516387114654
 40
0.0970232325631218
  0
CIRCLE
  8
_1-0_
  6
CONTINUOUS
 62
    7
 10
98.249037459089948
 20
163.83588223843961
 40
0.0970232325631218
  0
CIRCLE
  8
_1-0_
  6
CONTINUOUS
 62
    7
 10
102.36539686048354
 20
160.54280461491766
 40
0.0970232325631218
  0
CIRCLE
  8
_1-0_
  6
CONTINUOUS
 62
    7
 10
68.783736357817787
 20
163.99483758050044
 40
0.0970232325631218
  0
CIRCLE
  8
_1-0_
  6
CONTINUOUS
 62
    7
 10
71.59658277356948
 20
163.85763219884925
 40
0.0970232325631218
  0
CIRCLE
  8
_1-0_
  6
CONTINUOUS
 62
    7
 10
69.950037775812916
 20
162.55411921320734
 40
0.0970232325631218
  0
CIRCLE
  8
_1-0_
  6
CONTINUOUS
 62
    7
 10
68.783736357817787
 20
162.55411921320734
 40
0.0970232325631218
  0
CIRCLE
  8
_1-0_
  6
CONTINUOUS
 62
    7
 10
69.126768369932449
 20
162.82854234850086
 40
0.0970232325631218
  0
CIRCLE
  8
_1-0_
  6
CONTINUOUS
 62
    7
 10
71.939614785684114
 20
162.48550415039062
 40
0.0970232325631218
  0
CIRCLE
  8
_1-0_
  6
CONTINUOUS
 62
    7
 10
70.567492923221096
 20
161.86805518897805
 40
0.0970232325631218
  0
CIRCLE
  8
_1-0_
  6
CONTINUOUS
 62
    7
 10
76.673435520481405
 20
161.86805518897805
 40
0.0970232325631218
  0
CIRCLE
  8
_1-0_
  6
CONTINUOUS
 62
    7
 10
78.663006344357058
 20
162.41690145956505
 40
0.0970232325631218
  0
CIRCLE
  8
_1-0_
  6
CONTINUOUS
 62
    7
 10
84.837551632442995
 20
162.41690145956505
 40
0.0970232325631218
  0
CIRCLE
  8
_1-0_
  6
CONTINUOUS
 62
    7
 10
78.38858320906354
 20
163.30878592826227
 40
0.0970232325631218
  0
CIRCLE
  8
_1-0_
  6
CONTINUOUS
 62
    7
 10
76.399006199192343
 20
164.06345264331716
 40
0.0970232325631218
  0
CIRCLE
  8
_1-0_
  6
CONTINUOUS
 62
    7
 10
73.448948215793905
 20
162.62272190403294
 40
0.0970232325631218
  0
CIRCLE
  8
_1-0_
  6
CONTINUOUS
 62
    7
 10
79.623493503879843
 20
161.31920891839107
 40
0.0970232325631218
  0
CIRCLE
  8
_1-0_
  6
CONTINUOUS
 62
    7
 10
81.818884772223385
 20
161.52502936285896
 40
0.0970232325631218
  0
CIRCLE
  8
_1-0_
  6
CONTINUOUS
 62
    7
 10
80.378160218934767
 20
162.55411921320734
 40
0.0970232325631218
  0
CIRCLE
  8
_1-0_
  6
CONTINUOUS
 62
    7
 10
80.8583976127006
 20
163.72041444520693
 40
0.0970232325631218
  0
CIRCLE
  8
_1-0_
  6
CONTINUOUS
 62
    7
 10
82.504948796452709
 20
164.33787577861065
 40
0.0970232325631218
  0
CIRCLE
  8
_1-0_
  6
CONTINUOUS
 62
    7
 10
87.444577603726785
 20
163.99483758050044
 40
0.0970232325631218
  0
CIRCLE
  8
_1-0_
  6
CONTINUOUS
 62
    7
 10
85.798038791965794
 20
161.73084980732688
 40
0.0970232325631218
  0
CIRCLE
  8
_1-0_
  6
CONTINUOUS
 62
    7
 10
82.847974622571797
 20
162.00526057062922
 40
0.0970232325631218
  0
CIRCLE
  8
_1-0_
  6
CONTINUOUS
 62
    7
 10
75.507127916490731
 20
161.38781160921664
 40
0.0970232325631218
  0
CIRCLE
  8
_1-0_
  6
CONTINUOUS
 62
    7
 10
74.409435375316718
 20
161.11338847392315
 40
0.0970232325631218
  0
CIRCLE
  8
_1-0_
  6
CONTINUOUS
 62
    7
 10
72.968704636032527
 20
160.90756802945523
 40
0.0970232325631218
  0
CIRCLE
  8
_1-0_
  6
CONTINUOUS
 62
    7
 10
71.184948070629218
 20
161.11338847392315
 40
0.0970232325631218
  0
CIRCLE
  8
_1-0_
  6
CONTINUOUS
 62
    7
 10
68.715133666992188
 20
161.04478578309755
 40
0.0970232325631218
  0
CIRCLE
  8
_1-0_
  6
CONTINUOUS
 62
    7
 10
71.939614785684114
 20
163.65181175438136
 40
0.0970232325631218
  0
CIRCLE
  8
_1-0_
  6
CONTINUOUS
 62
    7
 10
74.066403363202085
 20
163.99483758050044
 40
0.0970232325631218
  0
CIRCLE
  8
_1-0_
  6
CONTINUOUS
 62
    7
 10
75.575736793311876
 20
164.54369622307857
 40
0.0970232325631218
  0
CIRCLE
  8
_1-0_
  6
CONTINUOUS
 62
    7
 10
78.182762764595651
 20
164.95532474002323
 40
0.0970232325631218
  0
CIRCLE
  8
_1-0_
  6
CONTINUOUS
 62
    7
 10
77.359493358715156
 20
161.52502936285896
 40
0.0970232325631218
  0
CIRCLE
  8
_1-0_
  6
CONTINUOUS
 62
    7
 10
75.369916348843958
 20
162.34829876873945
 40
0.0970232325631218
  0
CIRCLE
  8
_1-0_
  6
CONTINUOUS
 62
    7
 10
77.428102235536301
 20
160.83896533862966
 40
0.0970232325631218
  0
CIRCLE
  8
_1-0_
  6
CONTINUOUS
 62
    7
 10
82.367731042810391
 20
160.63314489416175
 40
0.0970232325631218
  0
CIRCLE
  8
_1-0_
  6
CONTINUOUS
 62
    7
 10
86.278276185731642
 20
160.42732444969386
 40
0.0970232325631218
  0
CIRCLE
  8
_1-0_
  6
CONTINUOUS
 62
    7
 10
87.650398048194688
 20
160.90756802945523
 40
0.0970232325631218
  0
CIRCLE
  8
_1-0_
  6
CONTINUOUS
 62
    7
 10
85.111974767736484
 20
163.58320906355576
 40
0.0970232325631218
  0
CIRCLE
  8
_1-0_
  6
CONTINUOUS
 62
    7
 10
85.180583644557643
 20
165.02392743084883
 40
0.0970232325631218
  0
CIRCLE
  8
_1-0_
  6
CONTINUOUS
 62
    7
 10
89.296943045951224
 20
161.73084980732688
 40
0.0970232325631218
  0
CIRCLE
  8
_1-0_
  6
CONTINUOUS
 62
    7
 10
96.504704243428009
 20
164.3908402726457
 40
0.0970232325631218
  0
CIRCLE
  8
_1-0_
  6
CONTINUOUS
 62
    7
 10
99.317550659179688
 20
164.25363489099453
 40
0.0970232325631218
  0
CIRCLE
  8
_1-0_
  6
CONTINUOUS
 62
    7
 10
97.671005661423152
 20
162.95012190535263
 40
0.0970232325631218
  0
CIRCLE
  8
_1-0_
  6
CONTINUOUS
 62
    7
 10
96.504704243428009
 20
162.95012190535263
 40
0.0970232325631218
  0
CIRCLE
  8
_1-0_
  6
CONTINUOUS
 62
    7
 10
96.847736255542657
 20
163.22454504064612
 40
0.0970232325631218
  0
CIRCLE
  8
_1-0_
  6
CONTINUOUS
 62
    7
 10
99.66058267129435
 20
162.88150684253591
 40
0.0970232325631218
  0
CIRCLE
  8
_1-0_
  6
CONTINUOUS
 62
    7
 10
98.288460808831303
 20
162.26405788112331
 40
0.0970232325631218
  0
CIRCLE
  8
_1-0_
  6
CONTINUOUS
 62
    7
 10
104.39440340609164
 20
162.26405788112331
 40
0.0970232325631218
  0
CIRCLE
  8
_1-0_
  6
CONTINUOUS
 62
    7
 10
106.38398041596284
 20
162.81290415171031
 40
0.0970232325631218
  0
CIRCLE
  8
_1-0_
  6
CONTINUOUS
 62
    7
 10
112.55851951805322
 20
162.81290415171031
 40
0.0970232325631218
  0
CIRCLE
  8
_1-0_
  6
CONTINUOUS
 62
    7
 10
106.10954490867822
 20
163.70478862040753
 40
0.0970232325631218
  0
CIRCLE
  8
_1-0_
  6
CONTINUOUS
 62
    7
 10
104.11998027079815
 20
164.45945533546242
 40
0.0970232325631218
  0
CIRCLE
  8
_1-0_
  6
CONTINUOUS
 62
    7
 10
101.16991610140414
 20
163.01872459617823
 40
0.0970232325631218
  0
CIRCLE
  8
_1-0_
  6
CONTINUOUS
 62
    7
 10
107.34446757548565
 20
161.71521161053633
 40
0.0970232325631218
  0
CIRCLE
  8
_1-0_
  6
CONTINUOUS
 62
    7
 10
109.53985265783362
 20
161.92103205500422
 40
0.0970232325631218
  0
CIRCLE
  8
_1-0_
  6
CONTINUOUS
 62
    7
 10
108.09913429054055
 20
162.95012190535263
 40
0.0970232325631218
  0
CIRCLE
  8
_1-0_
  6
CONTINUOUS
 62
    7
 10
108.57936549831082
 20
164.11641713735222
 40
0.0970232325631218
  0
CIRCLE
  8
_1-0_
  6
CONTINUOUS
 62
    7
 10
110.22591668206293
 20
164.73387847075591
 40
0.0970232325631218
  0
CIRCLE
  8
_1-0_
  6
CONTINUOUS
 62
    7
 10
115.16554548933701
 20
164.3908402726457
 40
0.0970232325631218
  0
CIRCLE
  8
_1-0_
  6
CONTINUOUS
 62
    7
 10
113.51900667757602
 20
162.12685249947214
 40
0.0970232325631218
  0
CIRCLE
  8
_1-0_
  6
CONTINUOUS
 62
    7
 10
110.56894250818202
 20
162.40126326277451
 40
0.0970232325631218
  0
CIRCLE
  8
_1-0_
  6
CONTINUOUS
 62
    7
 10
103.22809580210094
 20
161.78381430136193
 40
0.0970232325631218
  0
CIRCLE
  8
_1-0_
  6
CONTINUOUS
 62
    7
 10
102.13040326092695
 20
161.50939116606841
 40
0.0970232325631218
  0
CIRCLE
  8
_1-0_
  6
CONTINUOUS
 62
    7
 10
100.68967252164275
 20
161.30357072160052
 40
0.0970232325631218
  0
CIRCLE
  8
_1-0_
  6
CONTINUOUS
 62
    7
 10
98.905915956239454
 20
161.50939116606841
 40
0.0970232325631218
  0
CIRCLE
  8
_1-0_
  6
CONTINUOUS
 62
    7
 10
96.436101552602409
 20
161.44078847524284
 40
0.0970232325631218
  0
CIRCLE
  8
_1-0_
  6
CONTINUOUS
 62
    7
 10
99.66058267129435
 20
164.04781444652662
 40
0.0970232325631218
  0
CIRCLE
  8
_1-0_
  6
CONTINUOUS
 62
    7
 10
101.78737124881229
 20
164.3908402726457
 40
0.0970232325631218
  0
CIRCLE
  8
_1-0_
  6
CONTINUOUS
 62
    7
 10
103.2967046789221
 20
164.93969891522383
 40
0.0970232325631218
  0
CIRCLE
  8
_1-0_
  6
CONTINUOUS
 62
    7
 10
105.90372446421031
 20
165.35132743216852
 40
0.0970232325631218
  0
CIRCLE
  8
_1-0_
  6
CONTINUOUS
 62
    7
 10
105.08046743032095
 20
161.92103205500422
 40
0.0970232325631218
  0
CIRCLE
  8
_1-0_
  6
CONTINUOUS
 62
    7
 10
103.09088423445418
 20
162.74430146088471
 40
0.0970232325631218
  0
CIRCLE
  8
_1-0_
  6
CONTINUOUS
 62
    7
 10
105.14907012114654
 20
161.23496803077492
 40
0.0970232325631218
  0
CIRCLE
  8
_1-0_
  6
CONTINUOUS
 62
    7
 10
110.08869892842061
 20
161.02914758630703
 40
0.0970232325631218
  0
CIRCLE
  8
_1-0_
  6
CONTINUOUS
 62
    7
 10
113.99923788534629
 20
160.82332714183912
 40
0.0970232325631218
  0
CIRCLE
  8
_1-0_
  6
CONTINUOUS
 62
    7
 10
115.37136593380491
 20
161.30357072160052
 40
0.0970232325631218
  0
CIRCLE
  8
_1-0_
  6
CONTINUOUS
 62
    7
 10
112.83294265334671
 20
163.97921175570102
 40
0.0970232325631218
  0
CIRCLE
  8
_1-0_
  6
CONTINUOUS
 62
    7
 10
112.90154534417231
 20
165.41993012299409
 40
0.0970232325631218
  0
CIRCLE
  8
_1-0_
  6
CONTINUOUS
 62
    7
 10
117.01790474556589
 20
162.12685249947214
 40
0.0970232325631218
  0
CIRCLE
  8
_1-0_
  6
CONTINUOUS
 62
    7
 10
165.41109652132602
 20
163.59882251636404
 40
0.0970232325631218
  0
CIRCLE
  8
_1-0_
  6
CONTINUOUS
 62
    7
 10
168.22394293707771
 20
163.46161713471284
 40
0.0970232325631218
  0
CIRCLE
  8
_1-0_
  6
CONTINUOUS
 62
    7
 10
166.57740412531672
 20
162.15810414907097
 40
0.0970232325631218
  0
CIRCLE
  8
_1-0_
  6
CONTINUOUS
 62
    7
 10
165.41109652132602
 20
162.15810414907097
 40
0.0970232325631218
  0
CIRCLE
  8
_1-0_
  6
CONTINUOUS
 62
    7
 10
165.75413471943625
 20
162.43252728436445
 40
0.0970232325631218
  0
CIRCLE
  8
_1-0_
  6
CONTINUOUS
 62
    7
 10
168.56698113518794
 20
162.08948908625422
 40
0.0970232325631218
  0
CIRCLE
  8
_1-0_
  6
CONTINUOUS
 62
    7
 10
167.19486545872044
 20
161.47204012484164
 40
0.0970232325631218
  0
CIRCLE
  8
_1-0_
  6
CONTINUOUS
 62
    7
 10
173.30080186998524
 20
161.47204012484164
 40
0.0970232325631218
  0
CIRCLE
  8
_1-0_
  6
CONTINUOUS
 62
    7
 10
175.29037887985643
 20
162.02088639542865
 40
0.0970232325631218
  0
CIRCLE
  8
_1-0_
  6
CONTINUOUS
 62
    7
 10
181.4649179819468
 20
162.02088639542865
 40
0.0970232325631218
  0
CIRCLE
  8
_1-0_
  6
CONTINUOUS
 62
    7
 10
175.0159433725718
 20
162.91277086412586
 40
0.0970232325631218
  0
CIRCLE
  8
_1-0_
  6
CONTINUOUS
 62
    7
 10
173.02637873469175
 20
163.66743757918076
 40
0.0970232325631218
  0
CIRCLE
  8
_1-0_
  6
CONTINUOUS
 62
    7
 10
170.07631456529774
 20
162.22670683989654
 40
0.0970232325631218
  0
CIRCLE
  8
_1-0_
  6
CONTINUOUS
 62
    7
 10
176.25086603937925
 20
160.92319385425466
 40
0.0970232325631218
  0
CIRCLE
  8
_1-0_
  6
CONTINUOUS
 62
    7
 10
178.44625112172722
 20
161.12901429872255
 40
0.0970232325631218
  0
CIRCLE
  8
_1-0_
  6
CONTINUOUS
 62
    7
 10
177.00553275443414
 20
162.15810414907097
 40
0.0970232325631218
  0
CIRCLE
  8
_1-0_
  6
CONTINUOUS
 62
    7
 10
177.4857639622044
 20
163.32439938107052
 40
0.0970232325631218
  0
CIRCLE
  8
_1-0_
  6
CONTINUOUS
 62
    7
 10
179.13231514595651
 20
163.94186071447425
 40
0.0970232325631218
  0
CIRCLE
  8
_1-0_
  6
CONTINUOUS
 62
    7
 10
184.07194395323057
 20
163.59882251636404
 40
0.0970232325631218
  0
CIRCLE
  8
_1-0_
  6
CONTINUOUS
 62
    7
 10
182.42540514146961
 20
161.33483474319047
 40
0.0970232325631218
  0
CIRCLE
  8
_1-0_
  6
CONTINUOUS
 62
    7
 10
179.4753409720756
 20
161.60924550649284
 40
0.0970232325631218
  0
CIRCLE
  8
_1-0_
  6
CONTINUOUS
 62
    7
 10
172.13449426599453
 20
160.99179654508023
 40
0.0970232325631218
  0
CIRCLE
  8
_1-0_
  6
CONTINUOUS
 62
    7
 10
171.03680172482052
 20
160.71737340978675
 40
0.0970232325631218
  0
CIRCLE
  8
_1-0_
  6
CONTINUOUS
 62
    7
 10
169.59607098553633
 20
160.51155296531886
 40
0.0970232325631218
  0
CIRCLE
  8
_1-0_
  6
CONTINUOUS
 62
    7
 10
167.81231442013302
 20
160.71737340978675
 40
0.0970232325631218
  0
CIRCLE
  8
_1-0_
  6
CONTINUOUS
 62
    7
 10
165.34250620249156
 20
160.64877071896115
 40
0.0970232325631218
  0
CIRCLE
  8
_1-0_
  6
CONTINUOUS
 62
    7
 10
168.56698113518794
 20
163.25579669024495
 40
0.0970232325631218
  0
CIRCLE
  8
_1-0_
  6
CONTINUOUS
 62
    7
 10
170.69376352671031
 20
163.59882251636404
 40
0.0970232325631218
  0
CIRCLE
  8
_1-0_
  6
CONTINUOUS
 62
    7
 10
172.2030969568201
 20
164.14768115894216
 40
0.0970232325631218
  0
CIRCLE
  8
_1-0_
  6
CONTINUOUS
 62
    7
 10
174.81012292810391
 20
164.55930967588682
 40
0.0970232325631218
  0
CIRCLE
  8
_1-0_
  6
CONTINUOUS
 62
    7
 10
173.98686589421453
 20
161.12901429872255
 40
0.0970232325631218
  0
CIRCLE
  8
_1-0_
  6
CONTINUOUS
 62
    7
 10
171.99727651235222
 20
161.95228370460305
 40
0.0970232325631218
  0
CIRCLE
  8
_1-0_
  6
CONTINUOUS
 62
    7
 10
174.05546858504013
 20
160.44295027449326
 40
0.0970232325631218
  0
CIRCLE
  8
_1-0_
  6
CONTINUOUS
 62
    7
 10
178.99509739231419
 20
160.23712983002534
 40
0.0970232325631218
  0
CIRCLE
  8
_1-0_
  6
CONTINUOUS
 62
    7
 10
182.90563634923987
 20
160.03130938555745
 40
0.0970232325631218
  0
CIRCLE
  8
_1-0_
  6
CONTINUOUS
 62
    7
 10
184.27776439769849
 20
160.51155296531886
 40
0.0970232325631218
  0
CIRCLE
  8
_1-0_
  6
CONTINUOUS
 62
    7
 10
181.73934111724029
 20
163.18719399941935
 40
0.0970232325631218
  0
CIRCLE
  8
_1-0_
  6
CONTINUOUS
 62
    7
 10
181.80794380806589
 20
164.62791236671242
 40
0.0970232325631218
  0
CIRCLE
  8
_1-0_
  6
CONTINUOUS
 62
    7
 10
185.92430320945948
 20
161.33483474319047
 40
0.0970232325631218
  0
TEXT
  8
_0-0_
 62
    7
 10
147.56756962956609
 20
22.702702702702709
 40
2.5
 41
1
 50
0
  1
図名
  0
TEXT
  8
_0-0_
 62
    7
 10
147.56756962956609
 20
12.972972972972968
 40
2.5
 41
1
 50
0
  1
縮尺
  0
TEXT
  8
_0-0_
 62
    7
 10
382.77784605284
 20
21.243871740392734
 40
2.5
 41
1
 50
0
  1
ＮＯ
  0
TEXT
  8
_0-0_
 62
    7
 10
20.270270012520456
 20
22.702702702702709
 40
2.5
 41
1
 50
0
  1
Ｆ形
  0
TEXT
  8
_0-0_
 62
    7
 10
389.99062615471917
 20
16.178650211643514
 40
2.5
 41
1
 50
0
  1
Ｆ
  0
TEXT
  8
_0-0_
 62
    7
 10
171.37221877639359
 20
12.362518826046511
 40
2.5
 41
1
 50
0
  1
1/5
  0
TEXT
  8
_0-1_
 62
    7
 10
227.36824241844386
 20
123.33247004328548
 40
2.5
 41
1
 50
0
  1
桟瓦
  0
TEXT
  8
_0-1_
 62
    7
 10
227.36824654244089
 20
108.89752362225508
 40
2.5
 41
1
 50
0
  1
流し桟
  0
TEXT
  8
_1-2_
 62
    7
 10
318.04690386797932
 20
113.98630915461361
 40
2.5
 41
1
 50
0
  1
40
  0
TEXT
  8
_0-1_
 62
    7
 10
31.231870393495313
 20
18.589955922719582
 40
2.5
 41
1
 50
0
  1
ＲＣ
  0
TEXT
  8
_1-0_
 62
    7
 10
344.36603443042657
 20
99.773260580526824
 40
2.5
 41
1
 50
0
  1
破風板
  0
TEXT
  8
_1-0_
 62
    7
 10
227.36824241844386
 20
101.92893775733742
 40
2.5
 41
1
 50
0
  1
下葺き材　　ゴムアス系ルーフィング
  0
TEXT
  8
_1-0_
 62
    7
 10
227.36824241844386
 20
95.126266479492187
 40
2.5
 41
1
 50
0
  1
パーライト系モルタル　ｔ＝50
  0
POINT
  8
_1-2_
 62
    7
 10
324.29690799197635
 20
113.48630750501479
  0
POINT
  8
_1-2_
 62
    7
 10
323.29690469277875
 20
113.48630750501479
  0
POINT
  8
_1-2_
 62
    7
 10
315.2969030431799
 20
113.48630750501479
  0
TEXT
  8
_0-1_
 62
    7
 10
398.02046904692781
 20
13.764219026307813
 40
2.5
 41
1
 50
0
  1
20
  0
TEXT
  8
_1-0_
 62
    7
 10
45.397582698512736
 20
13.77361400707349
 40
2.5
 41
1
 50
0
  1
袖　4
  0
LINE
  8
_1-0_
  6
DASHED1
 62
    3
 10
314.99235410948057
 20
174.61406218460075
 11
314.99235410948057
 21
170.05946391337628
  0
LINE
  8
_1-0_
  6
CONTINUOUS
 62
    7
 10
323.29690469277875
 20
174.25947034681167
 11
323.29690469277875
 21
148.45946440825591
  0
LINE
  8
_1-0_
  6
CONTINUOUS
 62
    7
 10
323.29690469277875
 20
171.26521342509503
 11
320.3026529203014
 21
174.25947034681167
  0
LINE
  8
_1-0_
  6
CONTINUOUS
 62
    7
 10
323.29690469277875
 20
168.43679067250847
 11
317.47422501847552
 21
174.25947034681167
  0
LINE
  8
_1-0_
  6
CONTINUOUS
 62
    7
 10
315.2969030431799
 20
174.25947034681167
 11
323.29690469277875
 21
174.25947034681167
  0
LINE
  8
_1-0_
  6
CONTINUOUS
 62
    7
 10
314.75494709631653
 20
171.2594728212099
 11
314.75494709631653
 21
170.65946836729307
  0
LINE
  8
_1-0_
  6
CONTINUOUS
 62
    7
 10
314.75494709631653
 20
170.65946836729307
 11
314.75494709631653
 21
171.2594728212099
  0
LINE
  8
_1-0_
  6
CONTINUOUS
 62
    7
 10
314.75494709631653
 20
171.2594728212099
 11
309.95496095294658
 21
171.2594728212099
  0
LINE
  8
_1-0_
  6
CONTINUOUS
 62
    7
 10
309.95496095294658
 20
171.2594728212099
 11
309.95496095294658
 21
170.65946836729307
  0
LINE
  8
_1-0_
  6
CONTINUOUS
 62
    7
 10
309.95496095294658
 20
170.65946836729307
 11
314.75494709631653
 21
170.65946836729307
  0
LINE
  8
_1-0_
  6
CONTINUOUS
 62
    7
 10
314.75494709631653
 20
171.2594728212099
 11
309.95496095294658
 21
170.65946836729307
  0
LINE
  8
_1-0_
  6
CONTINUOUS
 62
    7
 10
66.600011877111484
 20
170.65946836729307
 11
314.75494709631653
 21
170.65946836729307
  0
LINE
  8
_1-0_
  6
CONTINUOUS
 62
    7
 10
66.600011877111484
 20
171.2594728212099
 11
314.75494709631653
 21
171.2594728212099
  0
LINE
  8
_1-0_
  6
CONTINUOUS
 62
    7
 10
308.65800512260455
 20
174.25947034681167
 11
314.75494709631653
 21
174.25947034681167
  0
LINE
  8
_1-0_
  6
CONTINUOUS
 62
    7
 10
314.75494709631653
 20
171.2594728212099
 11
314.75494709631653
 21
174.25947034681167
  0
LINE
  8
_1-0_
  6
CONTINUOUS
 62
    7
 10
308.65800512260455
 20
174.25947034681167
 11
65.544192339922915
 21
174.25947034681167
  0
LINE
  8
_1-0_
  6
DASHED1
 62
    3
 10
314.99235410948057
 20
174.61406218460075
 11
323.57567777347799
 21
174.61406218460075
  0
LINE
  8
_1-0_
  6
DASHED1
 62
    3
 10
323.57567777347799
 20
174.61406218460075
 11
323.57567777347799
 21
166.4481455751762
  0
LINE
  8
_1-0_
  6
CONTINUOUS
 62
    7
 10
315.2969030431799
 20
174.25947034681167
 11
315.2969030431799
 21
148.45946440825591
  0
LINE
  8
ADD_LINE
  6
DOT
 62
    4
 10
324.29690469277875
 20
191.47836938435941
 11
324.29690469277875
 21
136.27038269550749
  0
LINE
  8
_1-0_
  6
CONTINUOUS
 62
    7
 10
323.29690469277875
 20
148.63779462878441
 11
315.2969030431799
 21
156.63781154696065
  0
LINE
  8
_1-1_
  6
CONTINUOUS
 62
    7
 10
95.696853225295655
 20
179.67493161011774
 11
95.696853225295655
 21
178.07493622899443
  0
LINE
  8
_1-1_
  6
CONTINUOUS
 62
    7
 10
94.296838708826044
 20
178.07493622899443
 11
94.296838708826044
 21
177.87493062035847
  0
LINE
  8
_1-1_
  6
CONTINUOUS
 62
    7
 10
95.096836399387712
 20
178.07493622899443
 11
95.096836399387712
 21
177.87493062035847
  0
LINE
  8
_1-1_
  6
CONTINUOUS
 62
    7
 10
92.296832110430785
 20
178.07493622899443
 11
92.296832110430785
 21
177.87493062035847
  0
LINE
  8
_1-1_
  6
CONTINUOUS
 62
    7
 10
91.696840028505079
 20
178.07493622899443
 11
91.696840028505079
 21
177.87493062035847
  0
LINE
  8
_1-1_
  6
CONTINUOUS
 62
    7
 10
91.696840028505079
 20
177.87493062035847
 11
92.296832110430785
 21
177.87493062035847
  0
LINE
  8
_1-1_
  6
CONTINUOUS
 62
    7
 10
94.296838708826044
 20
177.87493062035847
 11
95.096836399387712
 21
177.87493062035847
  0
LINE
  8
_1-1_
  6
CONTINUOUS
 62
    7
 10
92.296832110430785
 20
178.07493622899443
 11
94.296838708826044
 21
178.07493622899443
  0
LINE
  8
_1-1_
  6
CONTINUOUS
 62
    7
 10
95.096836399387712
 20
178.07493622899443
 11
95.696853225295655
 21
178.07493622899443
  0
LINE
  8
_1-1_
  6
CONTINUOUS
 62
    7
 10
87.304028485272397
 20
178.07493622899443
 11
87.372730152027088
 21
178.07493622899443
  0
LINE
  8
_1-1_
  6
CONTINUOUS
 62
    7
 10
86.896841513144039
 20
178.07493622899443
 11
87.304028485272397
 21
178.07493622899443
  0
LINE
  8
_1-1_
  6
CONTINUOUS
 62
    7
 10
70.89683821394641
 20
176.67493408451597
 11
83.89684398754224
 21
176.67493408451597
  0
LINE
  8
_1-1_
  6
CONTINUOUS
 62
    7
 10
67.896840688344639
 20
176.67493408451597
 11
68.89684398754224
 21
174.27492864083987
  0
LINE
  8
_1-1_
  6
CONTINUOUS
 62
    7
 10
69.896847286739899
 20
174.27492864083987
 11
70.89683821394641
 21
176.67493408451597
  0
LINE
  8
_1-1_
  6
CONTINUOUS
 62
    7
 10
83.89684398754224
 20
176.67493408451597
 11
84.896847286739899
 21
174.27492864083987
  0
LINE
  8
_1-1_
  6
CONTINUOUS
 62
    7
 10
86.896841513144039
 20
178.07493622899443
 11
91.696840028505079
 21
178.07493622899443
  0
LINE
  8
_1-1_
  6
CONTINUOUS
 62
    7
 10
68.89684398754224
 20
174.27492864083987
 11
69.896847286739899
 21
174.27492864083987
  0
LINE
  8
_1-1_
  6
CONTINUOUS
 62
    7
 10
85.89683821394641
 20
174.27492864083987
 11
86.195151664115286
 21
175.40849995629597
  0
LINE
  8
_1-1_
  6
CONTINUOUS
 62
    7
 10
86.198207545924873
 20
175.42011725596868
 11
86.896841513144039
 21
178.07493622899443
  0
LINE
  8
_1-1_
  6
CONTINUOUS
 62
    7
 10
84.896847286739899
 20
174.27492864083987
 11
85.89683821394641
 21
174.27492864083987
  0
LINE
  8
_1-1_
  6
CONTINUOUS
 62
    7
 10
95.696853225295655
 20
179.67493161011774
 11
156.89686213312928
 21
179.67493161011774
  0
LINE
  8
_1-1_
  6
CONTINUOUS
 62
    7
 10
156.89686213312928
 20
179.67493161011774
 11
156.89686213312928
 21
178.07493622899443
  0
LINE
  8
_1-1_
  6
CONTINUOUS
 62
    7
 10
155.49684761665966
 20
178.07493622899443
 11
155.49684761665966
 21
177.87493062035847
  0
LINE
  8
_1-1_
  6
CONTINUOUS
 62
    7
 10
156.29684530722133
 20
178.07493622899443
 11
156.29684530722133
 21
177.87493062035847
  0
LINE
  8
_1-1_
  6
CONTINUOUS
 62
    7
 10
153.49684101826438
 20
178.07493622899443
 11
153.49684101826438
 21
177.87493062035847
  0
LINE
  8
_1-1_
  6
CONTINUOUS
 62
    7
 10
152.89684893633873
 20
178.07493622899443
 11
152.89684893633873
 21
177.87493062035847
  0
LINE
  8
_1-1_
  6
CONTINUOUS
 62
    7
 10
152.89684893633873
 20
177.87493062035847
 11
153.49684101826438
 21
177.87493062035847
  0
LINE
  8
_1-1_
  6
CONTINUOUS
 62
    7
 10
155.49684761665966
 20
177.87493062035847
 11
156.29684530722133
 21
177.87493062035847
  0
LINE
  8
_1-1_
  6
CONTINUOUS
 62
    7
 10
153.49684101826438
 20
178.07493622899443
 11
155.49684761665966
 21
178.07493622899443
  0
LINE
  8
_1-1_
  6
CONTINUOUS
 62
    7
 10
156.29684530722133
 20
178.07493622899443
 11
156.89686213312928
 21
178.07493622899443
  0
LINE
  8
_1-1_
  6
CONTINUOUS
 62
    7
 10
148.50403739310605
 20
178.07493622899443
 11
148.57273905986065
 21
178.07493622899443
  0
LINE
  8
_1-1_
  6
CONTINUOUS
 62
    7
 10
148.09685042097766
 20
178.07493622899443
 11
148.50403739310605
 21
178.07493622899443
  0
LINE
  8
_1-1_
  6
CONTINUOUS
 62
    7
 10
132.09684712178
 20
176.67493408451597
 11
145.09685289537586
 21
176.67493408451597
  0
LINE
  8
_1-1_
  6
CONTINUOUS
 62
    7
 10
113.6968507508974
 20
176.67493408451597
 11
114.69685405009503
 21
174.27492864083987
  0
LINE
  8
_1-1_
  6
CONTINUOUS
 62
    7
 10
115.69685734929266
 20
174.27492864083987
 11
116.6968482764992
 21
176.67493408451597
  0
LINE
  8
_1-1_
  6
CONTINUOUS
 62
    7
 10
129.09684959617823
 20
176.67493408451597
 11
130.09685289537586
 21
174.27492864083987
  0
LINE
  8
_1-1_
  6
CONTINUOUS
 62
    7
 10
131.09685619457352
 20
174.27492864083987
 11
132.09684712178
 21
176.67493408451597
  0
LINE
  8
_1-1_
  6
CONTINUOUS
 62
    7
 10
145.09685289537586
 20
176.67493408451597
 11
146.09685619457352
 21
174.27492864083987
  0
LINE
  8
_1-1_
  6
CONTINUOUS
 62
    7
 10
148.09685042097766
 20
178.07493622899443
 11
152.89684893633873
 21
178.07493622899443
  0
LINE
  8
_1-1_
  6
CONTINUOUS
 62
    7
 10
114.69685405009503
 20
174.27492864083987
 11
115.69685734929266
 21
174.27492864083987
  0
LINE
  8
_1-1_
  6
CONTINUOUS
 62
    7
 10
130.09685289537586
 20
174.27492864083987
 11
131.09685619457352
 21
174.27492864083987
  0
LINE
  8
_1-1_
  6
CONTINUOUS
 62
    7
 10
147.09684712178
 20
174.27492864083987
 11
147.39516057194896
 21
175.40849995629597
  0
LINE
  8
_1-1_
  6
CONTINUOUS
 62
    7
 10
147.39821645375849
 20
175.42011725596868
 11
148.09685042097766
 21
178.07493622899443
  0
LINE
  8
_1-1_
  6
CONTINUOUS
 62
    7
 10
146.09685619457352
 20
174.27492864083987
 11
147.09684712178
 21
174.27492864083987
  0
LINE
  8
_1-1_
  6
CONTINUOUS
 62
    7
 10
98.426225816881356
 20
176.67493408451597
 11
113.6968507508974
 21
176.67493408451597
  0
LINE
  8
_1-1_
  6
CONTINUOUS
 62
    7
 10
116.6968482764992
 20
176.67493408451597
 11
129.09684959617823
 21
176.67493408451597
  0
LINE
  8
_1-1_
  6
CONTINUOUS
 62
    7
 10
95.696853225295655
 20
179.67493161011774
 11
95.696853225295655
 21
175.67493078531834
  0
LINE
  8
_1-1_
  6
CONTINUOUS
 62
    7
 10
96.746406348975995
 20
174.55280356165915
 11
97.920025799725522
 21
176.39705916369672
  0
LINE
  8
_1-1_
  6
CONTINUOUS
 62
    7
 10
87.896857184332816
 20
176.27493523923516
 11
88.896860483530446
 21
176.27493523923516
  0
LINE
  8
_1-1_
  6
CONTINUOUS
 62
    7
 10
88.896860483530446
 20
176.27493523923516
 11
88.896860483530446
 21
175.67493078531834
  0
LINE
  8
_1-1_
  6
CONTINUOUS
 62
    7
 10
87.896857184332816
 20
176.27493523923516
 11
87.896857184332816
 21
174.27492864083987
  0
LINE
  8
_1-1_
  6
CONTINUOUS
 62
    7
 10
96.240206331820161
 20
174.27492864083987
 11
87.896857184332816
 21
174.27492864083987
  0
LINE
  8
_1-1_
  6
CONTINUOUS
 62
    7
 10
91.396856359533359
 20
176.27493523923516
 11
92.196854050095027
 21
176.27493523923516
  0
LINE
  8
_1-1_
  6
CONTINUOUS
 62
    7
 10
91.396856359533359
 20
176.27493523923516
 11
91.396856359533359
 21
175.67493078531834
  0
LINE
  8
_1-1_
  6
CONTINUOUS
 62
    7
 10
92.196854050095027
 20
176.27493523923516
 11
92.196854050095027
 21
175.67493078531834
  0
LINE
  8
_1-1_
  6
CONTINUOUS
 62
    7
 10
92.196854050095027
 20
175.67493078531834
 11
95.696853225295655
 21
175.67493078531834
  0
LINE
  8
_1-1_
  6
CONTINUOUS
 62
    7
 10
88.896860483530446
 20
175.67493078531834
 11
91.396856359533359
 21
175.67493078531834
  0
LINE
  8
_1-1_
  6
CONTINUOUS
 62
    7
 10
156.89686213312928
 20
179.67493161011774
 11
218.0968710409629
 21
179.67493161011774
  0
LINE
  8
_1-1_
  6
CONTINUOUS
 62
    7
 10
218.0968710409629
 20
179.67493161011774
 11
218.0968710409629
 21
178.07493622899443
  0
LINE
  8
_1-1_
  6
CONTINUOUS
 62
    7
 10
216.69685652449328
 20
178.07493622899443
 11
216.69685652449328
 21
177.87493062035847
  0
LINE
  8
_1-1_
  6
CONTINUOUS
 62
    7
 10
217.49685421505495
 20
178.07493622899443
 11
217.49685421505495
 21
177.87493062035847
  0
LINE
  8
_1-1_
  6
CONTINUOUS
 62
    7
 10
214.69684992609803
 20
178.07493622899443
 11
214.69684992609803
 21
177.87493062035847
  0
LINE
  8
_1-1_
  6
CONTINUOUS
 62
    7
 10
214.09685784417235
 20
178.07493622899443
 11
214.09685784417235
 21
177.87493062035847
  0
LINE
  8
_1-1_
  6
CONTINUOUS
 62
    7
 10
214.09685784417235
 20
177.87493062035847
 11
214.69684992609803
 21
177.87493062035847
  0
LINE
  8
_1-1_
  6
CONTINUOUS
 62
    7
 10
216.69685652449328
 20
177.87493062035847
 11
217.49685421505495
 21
177.87493062035847
  0
LINE
  8
_1-1_
  6
CONTINUOUS
 62
    7
 10
214.69684992609803
 20
178.07493622899443
 11
216.69685652449328
 21
178.07493622899443
  0
LINE
  8
_1-1_
  6
CONTINUOUS
 62
    7
 10
217.49685421505495
 20
178.07493622899443
 11
218.0968710409629
 21
178.07493622899443
  0
LINE
  8
_1-1_
  6
CONTINUOUS
 62
    7
 10
209.70405867293078
 20
178.07493622899443
 11
209.77274796769427
 21
178.07493622899443
  0
LINE
  8
_1-1_
  6
CONTINUOUS
 62
    7
 10
209.2968717008024
 20
178.07493622899443
 11
209.70405867293078
 21
178.07493622899443
  0
LINE
  8
_1-1_
  6
CONTINUOUS
 62
    7
 10
193.29686840160477
 20
176.67493408451597
 11
206.29686180320948
 21
176.67493408451597
  0
LINE
  8
_1-1_
  6
CONTINUOUS
 62
    7
 10
174.89685965873105
 20
176.67493408451597
 11
175.89686295792868
 21
174.27492864083987
  0
LINE
  8
_1-1_
  6
CONTINUOUS
 62
    7
 10
176.89686625712628
 20
174.27492864083987
 11
177.89685718433282
 21
176.67493408451597
  0
LINE
  8
_1-1_
  6
CONTINUOUS
 62
    7
 10
190.29685850401188
 20
176.67493408451597
 11
191.29686180320951
 21
174.27492864083987
  0
LINE
  8
_1-1_
  6
CONTINUOUS
 62
    7
 10
192.29686510240711
 20
174.27492864083987
 11
193.29686840160477
 21
176.67493408451597
  0
LINE
  8
_1-1_
  6
CONTINUOUS
 62
    7
 10
206.29686180320948
 20
176.67493408451597
 11
207.29686510240714
 21
174.27492864083987
  0
LINE
  8
_1-1_
  6
CONTINUOUS
 62
    7
 10
209.2968717008024
 20
178.07493622899443
 11
214.09685784417235
 21
178.07493622899443
  0
LINE
  8
_1-1_
  6
CONTINUOUS
 62
    7
 10
175.89686295792868
 20
174.27492864083987
 11
176.89686625712628
 21
174.27492864083987
  0
LINE
  8
_1-1_
  6
CONTINUOUS
 62
    7
 10
191.29686180320951
 20
174.27492864083987
 11
192.29686510240711
 21
174.27492864083987
  0
LINE
  8
_1-1_
  6
CONTINUOUS
 62
    7
 10
208.29686840160477
 20
174.27492864083987
 11
208.5951818517737
 21
175.40849995629597
  0
LINE
  8
_1-1_
  6
CONTINUOUS
 62
    7
 10
208.59822536159209
 20
175.42011725596868
 11
209.2968717008024
 21
178.07493622899443
  0
LINE
  8
_1-1_
  6
CONTINUOUS
 62
    7
 10
207.29686510240714
 20
174.27492864083987
 11
208.29686840160477
 21
174.27492864083987
  0
LINE
  8
_1-1_
  6
CONTINUOUS
 62
    7
 10
159.626234724715
 20
176.67493408451597
 11
174.89685965873105
 21
176.67493408451597
  0
LINE
  8
_1-1_
  6
CONTINUOUS
 62
    7
 10
177.89685718433282
 20
176.67493408451597
 11
190.29685850401188
 21
176.67493408451597
  0
LINE
  8
_1-1_
  6
CONTINUOUS
 62
    7
 10
156.89686213312928
 20
179.67493161011774
 11
156.89686213312928
 21
175.67493078531834
  0
LINE
  8
_1-1_
  6
CONTINUOUS
 62
    7
 10
157.94641525680959
 20
174.55280356165915
 11
159.12003470755917
 21
176.39705916369672
  0
LINE
  8
_1-1_
  6
CONTINUOUS
 62
    7
 10
149.09686609216644
 20
176.27493523923516
 11
150.09686939136407
 21
176.27493523923516
  0
LINE
  8
_1-1_
  6
CONTINUOUS
 62
    7
 10
150.09686939136407
 20
176.27493523923516
 11
150.09686939136407
 21
175.67493078531834
  0
LINE
  8
_1-1_
  6
CONTINUOUS
 62
    7
 10
149.09686609216644
 20
176.27493523923516
 11
149.09686609216644
 21
174.27492864083987
  0
LINE
  8
_1-1_
  6
CONTINUOUS
 62
    7
 10
157.44021523965375
 20
174.27492864083987
 11
149.09686609216644
 21
174.27492864083987
  0
LINE
  8
_1-1_
  6
CONTINUOUS
 62
    7
 10
152.59686526736704
 20
176.27493523923516
 11
153.39686295792865
 21
176.27493523923516
  0
LINE
  8
_1-1_
  6
CONTINUOUS
 62
    7
 10
152.59686526736704
 20
176.27493523923516
 11
152.59686526736704
 21
175.67493078531834
  0
LINE
  8
_1-1_
  6
CONTINUOUS
 62
    7
 10
153.39686295792865
 20
176.27493523923516
 11
153.39686295792865
 21
175.67493078531834
  0
LINE
  8
_1-1_
  6
CONTINUOUS
 62
    7
 10
153.39686295792865
 20
175.67493078531834
 11
156.89686213312928
 21
175.67493078531834
  0
LINE
  8
_1-1_
  6
CONTINUOUS
 62
    7
 10
150.09686939136407
 20
175.67493078531834
 11
152.59686526736704
 21
175.67493078531834
  0
LINE
  8
_1-1_
  6
CONTINUOUS
 62
    7
 10
218.0968710409629
 20
179.67493161011774
 11
279.29687994879652
 21
179.67493161011774
  0
LINE
  8
_1-1_
  6
CONTINUOUS
 62
    7
 10
279.29687994879652
 20
179.67493161011774
 11
279.29687994879652
 21
178.07493622899443
  0
LINE
  8
_1-1_
  6
CONTINUOUS
 62
    7
 10
277.89686543232693
 20
178.07493622899443
 11
277.89686543232693
 21
177.87493062035847
  0
LINE
  8
_1-1_
  6
CONTINUOUS
 62
    7
 10
278.69686312288854
 20
178.07493622899443
 11
278.69686312288854
 21
177.87493062035847
  0
LINE
  8
_1-1_
  6
CONTINUOUS
 62
    7
 10
275.89685883393162
 20
178.07493622899443
 11
275.89685883393162
 21
177.87493062035847
  0
LINE
  8
_1-1_
  6
CONTINUOUS
 62
    7
 10
275.29686675200594
 20
178.07493622899443
 11
275.29686675200594
 21
177.87493062035847
  0
LINE
  8
_1-1_
  6
CONTINUOUS
 62
    7
 10
275.29686675200594
 20
177.87493062035847
 11
275.89685883393162
 21
177.87493062035847
  0
LINE
  8
_1-1_
  6
CONTINUOUS
 62
    7
 10
277.89686543232693
 20
177.87493062035847
 11
278.69686312288854
 21
177.87493062035847
  0
LINE
  8
_1-1_
  6
CONTINUOUS
 62
    7
 10
275.89685883393162
 20
178.07493622899443
 11
277.89686543232693
 21
178.07493622899443
  0
LINE
  8
_1-1_
  6
CONTINUOUS
 62
    7
 10
278.69686312288854
 20
178.07493622899443
 11
279.29687994879652
 21
178.07493622899443
  0
LINE
  8
_1-1_
  6
CONTINUOUS
 62
    7
 10
270.90406758076443
 20
178.07493622899443
 11
270.97275687552792
 21
178.07493622899443
  0
LINE
  8
_1-1_
  6
CONTINUOUS
 62
    7
 10
270.49688060863605
 20
178.07493622899443
 11
270.90406758076443
 21
178.07493622899443
  0
LINE
  8
_1-1_
  6
CONTINUOUS
 62
    7
 10
254.49687730943839
 20
176.67493408451597
 11
267.49687071104313
 21
176.67493408451597
  0
LINE
  8
_1-1_
  6
CONTINUOUS
 62
    7
 10
236.09688093855578
 20
176.67493408451597
 11
237.09688423775344
 21
174.27492864083987
  0
LINE
  8
_1-1_
  6
CONTINUOUS
 62
    7
 10
238.09688753695104
 20
174.27492864083987
 11
239.09686609216647
 21
176.67493408451597
  0
LINE
  8
_1-1_
  6
CONTINUOUS
 62
    7
 10
251.49686741184547
 20
176.67493408451597
 11
252.49687071104313
 21
174.27492864083987
  0
LINE
  8
_1-1_
  6
CONTINUOUS
 62
    7
 10
253.49687401024079
 20
174.27492864083987
 11
254.49687730943839
 21
176.67493408451597
  0
LINE
  8
_1-1_
  6
CONTINUOUS
 62
    7
 10
267.49687071104313
 20
176.67493408451597
 11
268.49687401024079
 21
174.27492864083987
  0
LINE
  8
_1-1_
  6
CONTINUOUS
 62
    7
 10
270.49688060863605
 20
178.07493622899443
 11
275.29686675200594
 21
178.07493622899443
  0
LINE
  8
_1-1_
  6
CONTINUOUS
 62
    7
 10
237.09688423775344
 20
174.27492864083987
 11
238.09688753695104
 21
174.27492864083987
  0
LINE
  8
_1-1_
  6
CONTINUOUS
 62
    7
 10
252.49687071104313
 20
174.27492864083987
 11
253.49687401024079
 21
174.27492864083987
  0
LINE
  8
_1-1_
  6
CONTINUOUS
 62
    7
 10
269.49687730943839
 20
174.27492864083987
 11
269.79519075960729
 21
175.40849995629597
  0
LINE
  8
_1-1_
  6
CONTINUOUS
 62
    7
 10
269.79823426942573
 20
175.42011725596868
 11
270.49688060863605
 21
178.07493622899443
  0
LINE
  8
_1-1_
  6
CONTINUOUS
 62
    7
 10
268.49687401024079
 20
174.27492864083987
 11
269.49687730943839
 21
174.27492864083987
  0
LINE
  8
_1-1_
  6
CONTINUOUS
 62
    7
 10
220.82625600453974
 20
176.67493408451597
 11
236.09688093855578
 21
176.67493408451597
  0
LINE
  8
_1-1_
  6
CONTINUOUS
 62
    7
 10
239.09686609216647
 20
176.67493408451597
 11
251.49686741184547
 21
176.67493408451597
  0
LINE
  8
_1-1_
  6
CONTINUOUS
 62
    7
 10
218.0968710409629
 20
179.67493161011774
 11
218.0968710409629
 21
175.67493078531834
  0
LINE
  8
_1-1_
  6
CONTINUOUS
 62
    7
 10
219.14643653663435
 20
174.55280356165915
 11
220.32004361539279
 21
176.39705916369672
  0
LINE
  8
_1-1_
  6
CONTINUOUS
 62
    7
 10
210.29687500000006
 20
176.27493523923516
 11
211.29687829919769
 21
176.27493523923516
  0
LINE
  8
_1-1_
  6
CONTINUOUS
 62
    7
 10
211.29687829919769
 20
176.27493523923516
 11
211.29687829919769
 21
175.67493078531834
  0
LINE
  8
_1-1_
  6
CONTINUOUS
 62
    7
 10
210.29687500000006
 20
176.27493523923516
 11
210.29687500000006
 21
174.27492864083987
  0
LINE
  8
_1-1_
  6
CONTINUOUS
 62
    7
 10
218.64022414748737
 20
174.27492864083987
 11
210.29687500000006
 21
174.27492864083987
  0
LINE
  8
_1-1_
  6
CONTINUOUS
 62
    7
 10
213.79688654719178
 20
176.27493523923516
 11
214.59688423775344
 21
176.27493523923516
  0
LINE
  8
_1-1_
  6
CONTINUOUS
 62
    7
 10
213.79688654719178
 20
176.27493523923516
 11
213.79688654719178
 21
175.67493078531834
  0
LINE
  8
_1-1_
  6
CONTINUOUS
 62
    7
 10
214.59688423775344
 20
176.27493523923516
 11
214.59688423775344
 21
175.67493078531834
  0
LINE
  8
_1-1_
  6
CONTINUOUS
 62
    7
 10
214.59688423775344
 20
175.67493078531834
 11
218.0968710409629
 21
175.67493078531834
  0
LINE
  8
_1-1_
  6
CONTINUOUS
 62
    7
 10
211.29687829919769
 20
175.67493078531834
 11
213.79688654719178
 21
175.67493078531834
  0
LINE
  8
_1-1_
  6
CONTINUOUS
 62
    7
 10
279.29687994879652
 20
179.67493161011774
 11
279.29687994879652
 21
178.07493622899443
  0
LINE
  8
_1-1_
  6
CONTINUOUS
 62
    7
 10
310.49688885663011
 20
176.47492847588001
 11
324.29690469277875
 21
176.47492847588001
  0
LINE
  8
_1-1_
  6
CONTINUOUS
 62
    7
 10
287.29688159839532
 20
176.47492847588001
 11
291.89688687711157
 21
176.47492847588001
  0
LINE
  8
_1-1_
  6
CONTINUOUS
 62
    7
 10
293.29690139358115
 20
176.47492847588001
 11
309.09689908414282
 21
176.47492847588001
  0
LINE
  8
_1-1_
  6
CONTINUOUS
 62
    7
 10
279.29687994879652
 20
179.67493161011774
 11
279.29687994879652
 21
176.67493408451597
  0
LINE
  8
_1-1_
  6
CONTINUOUS
 62
    7
 10
276.49687565983959
 20
176.67493408451597
 11
279.29687994879652
 21
176.67493408451597
  0
LINE
  8
_1-1_
  6
CONTINUOUS
 62
    7
 10
279.29687994879652
 20
179.67493161011774
 11
279.29687994879652
 21
177.27492616644165
  0
LINE
  8
_1-1_
  6
CONTINUOUS
 62
    7
 10
279.29687994879652
 20
179.67493161011774
 11
279.29687994879652
 21
177.27492616644165
  0
LINE
  8
_1-1_
  6
CONTINUOUS
 62
    7
 10
287.29688159839532
 20
176.47492847588001
 11
286.89239172033365
 21
177.47493177507764
  0
LINE
  8
_1-1_
  6
CONTINUOUS
 62
    7
 10
324.29690469277875
 20
176.47492847588001
 11
324.29690469277875
 21
162.67492501172248
  0
LINE
  8
_1-1_
  6
CONTINUOUS
 62
    7
 10
326.69689776446376
 20
162.67492501172248
 11
324.29690469277875
 21
162.67492501172248
  0
LINE
  8
_1-1_
  6
CONTINUOUS
 62
    7
 10
327.29688984638943
 20
163.27492946563927
 11
327.29688984638943
 21
179.67493161011774
  0
LINE
  8
_1-1_
  6
CONTINUOUS
 62
    7
 10
326.69689776446376
 20
162.67492501172248
 11
327.29688984638943
 21
163.27492946563927
  0
LINE
  8
_1-1_
  6
CONTINUOUS
 62
    7
 10
327.29688984638943
 20
179.67493161011774
 11
322.3035542256124
 21
179.67493161011774
  0
LINE
  8
_1-1_
  6
CONTINUOUS
 62
    7
 10
317.98657061602626
 20
179.67493161011774
 11
279.29687994879652
 21
179.67493161011774
  0
LINE
  8
_1-1_
  6
CONTINUOUS
 62
    7
 10
279.29687994879652
 20
179.67493161011774
 11
279.29687994879652
 21
177.27492616644165
  0
LINE
  8
_1-1_
  6
CONTINUOUS
 62
    7
 10
279.29687994879652
 20
179.67493161011774
 11
279.29687994879652
 21
177.27492616644165
  0
LINE
  8
_1-1_
  6
CONTINUOUS
 62
    7
 10
272.29688159839532
 20
177.27492616644165
 11
273.29688489759297
 21
177.27492616644165
  0
LINE
  8
_1-1_
  6
CONTINUOUS
 62
    7
 10
273.29688489759297
 20
177.27492616644165
 11
273.29688489759297
 21
176.67493408451597
  0
LINE
  8
_1-1_
  6
CONTINUOUS
 62
    7
 10
275.69687796927792
 20
177.27492616644165
 11
276.49687565983959
 21
177.27492616644165
  0
LINE
  8
_1-1_
  6
CONTINUOUS
 62
    7
 10
275.69687796927792
 20
177.27492616644165
 11
275.69687796927792
 21
176.67493408451597
  0
LINE
  8
_1-1_
  6
CONTINUOUS
 62
    7
 10
276.49687565983959
 20
177.27492616644165
 11
276.49687565983959
 21
176.67493408451597
  0
LINE
  8
_1-1_
  6
CONTINUOUS
 62
    7
 10
273.29688489759297
 20
176.67493408451597
 11
275.69687796927792
 21
176.67493408451597
  0
LINE
  8
_1-1_
  6
CONTINUOUS
 62
    7
 10
272.29688159839532
 20
177.27492616644165
 11
272.29688159839532
 21
175.2749319400375
  0
LINE
  8
_1-1_
  6
CONTINUOUS
 62
    7
 10
279.84025779930329
 20
175.2749319400375
 11
272.29688159839532
 21
175.2749319400375
  0
LINE
  8
_1-1_
  6
CONTINUOUS
 62
    7
 10
280.34644544446797
 20
175.55280686085678
 11
281.52005252322641
 21
177.39705009090324
  0
LINE
  8
_1-1_
  6
CONTINUOUS
 62
    7
 10
286.89239172033365
 20
177.47493177507764
 11
281.57904217694261
 21
177.47493177507764
  0
LINE
  8
_1-1_
  6
CONTINUOUS
 62
    7
 10
292.0968924857475
 20
174.27492864083987
 11
293.09689578494516
 21
174.27492864083987
  0
LINE
  8
_1-1_
  6
CONTINUOUS
 62
    7
 10
309.29690469277875
 20
174.27492864083987
 11
310.29690799197641
 21
174.27492864083987
  0
LINE
  8
_1-1_
  6
CONTINUOUS
 62
    7
 10
310.49688885663011
 20
176.47492847588001
 11
310.29690799197641
 21
174.27492864083987
  0
LINE
  8
_1-1_
  6
CONTINUOUS
 62
    7
 10
309.29690469277875
 20
174.27492864083987
 11
309.09689908414282
 21
176.47492847588001
  0
LINE
  8
_1-1_
  6
CONTINUOUS
 62
    7
 10
293.29690139358115
 20
176.47492847588001
 11
293.09689578494516
 21
174.27492864083987
  0
LINE
  8
_1-1_
  6
CONTINUOUS
 62
    7
 10
292.0968924857475
 20
174.27492864083987
 11
291.89688687711157
 21
176.47492847588001
  0
LINE
  8
_1-1_
  6
CONTINUOUS
 62
    7
 10
300.83852077174839
 20
194.1733958336186
 11
296.66760088946376
 21
194.1733958336186
  0
LINE
  8
_1-1_
  6
CONTINUOUS
 62
    7
 10
306.82713359111068
 20
177.71986008351303
 11
300.83852077174839
 21
194.1733958336186
  0
ARC
  8
_1-1_
  6
CONTINUOUS
 62
    7
 10
98.426225816881356
 20
176.07492963059917
 40
0.6000000077324945
 50
90
 51
147.52879333496094
  0
ARC
  8
_1-1_
  6
CONTINUOUS
 62
    7
 10
96.240206331820161
 20
174.8749330947567
 40
0.6000000077324945
 50
270
 51
327.52879333496094
  0
ARC
  8
_1-1_
  6
CONTINUOUS
 62
    7
 10
159.626234724715
 20
176.07492963059917
 40
0.6000000077324945
 50
90
 51
147.52879333496094
  0
ARC
  8
_1-1_
  6
CONTINUOUS
 62
    7
 10
157.44021523965375
 20
174.8749330947567
 40
0.6000000077324945
 50
270
 51
327.52879333496094
  0
ARC
  8
_1-1_
  6
CONTINUOUS
 62
    7
 10
220.82625600453974
 20
176.07492963059917
 40
0.6000000077324945
 50
90
 51
147.52879333496094
  0
ARC
  8
_1-1_
  6
CONTINUOUS
 62
    7
 10
218.64022414748737
 20
174.8749330947567
 40
0.6000000077324945
 50
270
 51
327.52879333496094
  0
ARC
  8
_1-1_
  6
CONTINUOUS
 62
    7
 10
320.14506242081933
 20
181.22013144251852
 40
2.6545699867042338
 50
215.59773254394531
 51
324.40225219726568
  0
ARC
  8
_1-1_
  6
CONTINUOUS
 62
    7
 10
279.84025779930329
 20
175.87492402196318
 40
0.6000000077324945
 50
270
 51
327.52879333496094
  0
ARC
  8
_1-1_
  6
CONTINUOUS
 62
    7
 10
282.02626491237339
 20
177.0749329297968
 40
0.6000000077324945
 50
138.18965148925784
 51
147.52879333496094
  0
TEXT
  8
_1-1_
 62
    7
 10
283.05908698004646
 20
203.51398932628118
 40
2.5
 41
1
 50
0
  1
瓦桟木と同じ高さ
  0
TEXT
  8
_1-1_
 62
    7
 10
283.48637843776396
 20
192.97432719711099
 40
2.5
 41
1
 50
0
  1
一体右袖瓦
  0
POINT
  8
_1-1_
 62
    7
 10
279.29687994879652
 20
218.42439781805578
  0
POINT
  8
_1-1_
 62
    7
 10
218.0968710409629
 20
218.42439781805578
  0
LINE
  8
_1-1_
  6
CONTINUOUS
 62
    7
 10
279.29687994879652
 20
218.42439781805578
 11
279.29687994879652
 21
189.07331628727374
  0
LINE
  8
_1-1_
  6
CONTINUOUS
 62
    7
 10
218.0968710409629
 20
218.42439781805578
 11
218.0968710409629
 21
189.07331628727374
  0
LINE
  8
_1-1_
  6
CONTINUOUS
 62
    7
 10
279.29687994879652
 20
218.42439781805578
 11
218.0968710409629
 21
218.42439781805578
  0
TEXT
  8
_1-1_
 62
    7
 10
246.82187549487969
 20
218.92439781805578
 40
2.5
 41
1
 50
0
  1
306
  0
POINT
  8
_1-1_
 62
    7
 10
156.89686213312928
 20
218.42439781805578
  0
LINE
  8
_1-1_
  6
CONTINUOUS
 62
    7
 10
156.89686213312928
 20
218.42439781805578
 11
156.89686213312928
 21
189.07331628727374
  0
LINE
  8
_1-1_
  6
CONTINUOUS
 62
    7
 10
218.0968710409629
 20
218.42439781805578
 11
156.89686213312928
 21
218.42439781805578
  0
TEXT
  8
_1-1_
 62
    7
 10
185.6218665870461
 20
218.92439781805578
 40
2.5
 41
1
 50
0
  1
306
  0
POINT
  8
_1-1_
 62
    7
 10
95.696853225295655
 20
218.42439781805578
  0
LINE
  8
_1-1_
  6
CONTINUOUS
 62
    7
 10
95.696853225295655
 20
218.42439781805578
 11
95.696853225295655
 21
189.07331628727374
  0
LINE
  8
_1-1_
  6
CONTINUOUS
 62
    7
 10
156.89686213312928
 20
218.42439781805578
 11
95.696853225295655
 21
218.42439781805578
  0
TEXT
  8
_1-1_
 62
    7
 10
124.42185767921247
 20
218.92439781805578
 40
2.5
 41
1
 50
0
  1
306
  0
LINE
  8
_1-1_
  6
CONTINUOUS
 62
    7
 10
303.43145895325631
 20
204.41073481487555
 11
305.81577908633648
 21
204.41073481487555
  0
LINE
  8
_1-1_
  6
CONTINUOUS
 62
    7
 10
317.56065244932438
 20
172.14192313777824
 11
305.81577908633648
 21
204.41073481487555
  0
LINE
  8
_1-1_
  6
CONTINUOUS
 62
    7
 10
65.544192339922915
 20
176.67493408451597
 11
67.896840688344639
 21
176.67493408451597
  0
LINE
  8
_1-1_
  6
CONTINUOUS
 62
    7
 10
65.544192339922915
 20
179.67493161011774
 11
95.696853225295655
 21
179.67493161011774
  0
TEXT
  8
_1-0_
 62
    7
 10
227.36824654244089
 20
116.03203026024072
 40
2.5
 41
1
 50
0
  1
瓦桟　　
  0
TEXT
  8
_1-0_
 62
    7
 10
242.41851489890672
 20
116.22160099224531
 40
2.5
 41
1
 50
0
  1
15×21以上　（防腐処理）
  0
TEXT
  8
_1-0_
 62
    7
 10
242.21735266513659
 20
113.08614455663189
 40
2.5
 41
1
 50
0
  1
※　地域により瓦桟木の大きさは、異なります
  0
TEXT
  8
_1-2_
 62
    7
 10
325.44270364699992
 20
114.05067676999786
 40
2.5
 41
1
 50
0
  1
5
  0
ENDSEC
  0
EOF
