  0
SECTION
  2
HEADER
  9
$ACADVER
  1
AC1009
  9
$INSBASE
 10
0
 20
0
 30
0
  9
$EXTMIN
 10
0
 20
0
  9
$EXTMAX
 10
420
 20
297
  9
$LIMMIN
 10
0
 20
0
  9
$LIMMAX
 10
420
 20
297
  9
$LTSCALE
 40
1
  0
ENDSEC
  0
SECTION
  2
TABLES
  0
TABLE
  2
LTYPE
 70
     9
  0
LTYPE
  2
CONTINUOUS
 70
    64
  3
実線
 72
    65
 73
     0
 40
0.0
  0
LTYPE
  2
DASHED1
 70
    64
  3
--  --  --  --  --  --  --  --  
 72
    65
 73
     2
 40
2.5
 49
1.25
 49
-1.25
  0
LTYPE
  2
DASHED2
 70
    64
  3
----    ----    ----    ----    
 72
    65
 73
     2
 40
5.0
 49
2.5
 49
-2.5
  0
LTYPE
  2
DASHED3
 70
    64
  3
------  ------  ------  ------  
 72
    65
 73
     2
 40
5.0
 49
3.75
 49
-1.25
  0
LTYPE
  2
CENTER1
 70
    64
  3
----- - ----- - ----- - ----- - 
 72
    65
 73
     4
 40
10.0
 49
6.25
 49
-1.25
 49
1.25
 49
-1.25
  0
LTYPE
  2
CENTER2
 70
    64
  3
----------  --  ----------  --  
 72
    65
 73
     4
 40
20.0
 49
12.5
 49
-2.5
 49
2.5
 49
-2.5
  0
LTYPE
  2
PHANTOM1
 70
    64
  3
--- - - --- - - --- - - --- - - 
 72
    65
 73
     6
 40
10.0
 49
3.25
 49
-1.25
 49
1.25
 49
-1.25
 49
1.25
 49
-1.25
  0
LTYPE
  2
PHANTOM2
 70
    64
  3
--------  -  -  --------  -  -  
 72
    65
 73
     6
 40
20.0
 49
10.0
 49
-2.5
 49
1.25
 49
-2.5
 49
1.25
 49
-2.5
  0
LTYPE
  2
DOT
 70
    64
  3
-   -   -   -   -   -   -   -   
 72
    65
 73
     2
 40
2.5
 49
0.625
 49
-1.875
  0
LTYPE
  2
DUMMY
 70
    64
  3
ダミー
 72
    65
 73
     0
 40
0.0
  0
LTYPE
  2
RAND1
 70
    64
  3
ランダム線1
 72
    65
 73
     4
 40
10.0
 49
1.0
 49
-2.0
 49
3.0
 49
-4.0
  0
LTYPE
  2
RAND2
 70
    64
  3
ランダム線2
 72
    65
 73
     4
 40
14.0
 49
2.0
 49
-3.0
 49
4.0
 49
-5.0
  0
LTYPE
  2
RAND3
 70
    64
  3
ランダム線3
 72
    65
 73
     4
 40
18.0
 49
3.0
 49
-4.0
 49
5.0
 49
-6.0
  0
LTYPE
  2
RAND4
 70
    64
  3
ランダム線4
 72
    65
 73
     4
 40
22.0
 49
4.0
 49
-5.0
 49
6.0
 49
-7.0
  0
LTYPE
  2
RAND5
 70
    64
  3
ランダム線5
 72
    65
 73
     4
 40
26.0
 49
5.0
 49
-6.0
 49
7.0
 49
-8.0
  0
LTYPE
  2
LONG1
 70
    64
  3
----------  --  ----------  --  
 72
    65
 73
     4
 40
40.0
 49
32.5
 49
-2.5
 49
2.5
 49
-2.5
  0
LTYPE
  2
LONG2
 70
    64
  3
--------  -  -  --------  -  -  
 72
    65
 73
     6
 40
40.0
 49
30.0
 49
-2.5
 49
1.25
 49
-2.5
 49
1.25
 49
-2.5
  0
LTYPE
  2
LONG3
 70
    64
  3
+++++++++++++++..+++++++++++++++
 72
    65
 73
     2
 40
40.0
 49
37.5
 49
-2.5
  0
LTYPE
  2
LONG4
 70
    64
  3
+++++++++++++++..+++++++++++++++
 72
    65
 73
     2
 40
80.0
 49
75.0
 49
-5.0
  0
LTYPE
  2
LONG5
 70
    64
  3
----------  --  ----------  --  
 72
    65
 73
     4
 40
60.0
 49
37.5
 49
-7.5
 49
7.5
 49
-7.5
  0
LTYPE
  2
dashed
 70
   64
  3
-------   -------------   ------
 72
   65
 73
    2
 40
7.5
 49
6
 49
-1.5
  0
LTYPE
  2
dashed_spaced
 70
   64
  3
----        --------        ----
 72
   65
 73
    2
 40
12
 49
6
 49
-6
  0
LTYPE
  2
long_dashed_dotted
 70
   64
  3
------------- --- --------------
 72
   65
 73
    4
 40
15.25
 49
12
 49
-1.5
 49
0.25
 49
-1.5
  0
LTYPE
  2
long_dashed_double-dotted
 70
   64
  3
----------- --- --- ------------
 72
   65
 73
    6
 40
17
 49
12
 49
-1.5
 49
0.25
 49
-1.5
 49
0.25
 49
-1.5
  0
LTYPE
  2
long_dashed_triplicate-dotted
 70
   64
  3
--------- --- --- --- ----------
 72
   65
 73
    8
 40
18.75
 49
12
 49
-1.5
 49
0.25
 49
-1.5
 49
0.25
 49
-1.5
 49
0.25
 49
-1.5
  0
LTYPE
  2
dotted
 70
   64
  3
   -       -       -       -    
 72
   65
 73
    2
 40
1.75
 49
0.25
 49
-1.5
  0
LTYPE
  2
chain
 70
   64
  3
-------------- -- --------------
 72
   65
 73
    4
 40
18.5
 49
12
 49
-1.5
 49
3.5
 49
-1.5
  0
LTYPE
  2
chain_double_dash
 70
   64
  3
------------ -- -- -------------
 72
   65
 73
    6
 40
23.5
 49
12
 49
-1.5
 49
3.5
 49
-1.5
 49
3.5
 49
-1.5
  0
LTYPE
  2
dashed_dotted
 70
   64
  3
-----------     -     ----------
 72
   65
 73
    4
 40
9.25
 49
6
 49
-1.5
 49
0.25
 49
-1.5
  0
LTYPE
  2
double-dashed_dotted
 70
   64
  3
------   -----------   -   -----
 72
   65
 73
    6
 40
16.75
 49
6
 49
-1.5
 49
6
 49
-1.5
 49
0.25
 49
-1.5
  0
LTYPE
  2
dashed_double-dotted
 70
   64
  3
---------    -    -    ---------
 72
   65
 73
    6
 40
11
 49
6
 49
-1.5
 49
0.25
 49
-1.5
 49
0.25
 49
-1.5
  0
LTYPE
  2
double-dashed_double-dotted
 70
   64
  3
-----   ---------   -   -   ----
 72
   65
 73
    8
 40
18.5
 49
6
 49
-1.5
 49
6
 49
-1.5
 49
0.25
 49
-1.5
 49
0.25
 49
-1.5
  0
LTYPE
  2
dashed_triplicate-dotted
 70
   64
  3
-------    -    -    -    ------
 72
   65
 73
    8
 40
12.75
 49
6
 49
-1.5
 49
0.25
 49
-1.5
 49
0.25
 49
-1.5
 49
0.25
 49
-1.5
  0
LTYPE
  2
double-dashed_triplicate-dotted
 70
   64
  3
-----  ---------  -  -  -  -----
 72
   65
 73
   10
 40
20.25
 49
6
 49
-1.5
 49
6
 49
-1.5
 49
0.25
 49
-1.5
 49
0.25
 49
-1.5
 49
0.25
 49
-1.5
  0
LTYPE
  2
undefined
 70
   64
  3
--------------------------------
 72
   65
 73
    0
 40
0
  0
LTYPE
  2
DOT_17
 70
   64
  3
--             ---             -
 72
   65
 73
    2
 40
5
 49
1
 49
-4
  0
LTYPE
  2
DASHED
 70
   64
  3
---          ------          ---
 72
   65
 73
    2
 40
5
 49
2
 49
-3
  0
LTYPE
  2
DASHED2_19
 70
   64
  3
---          ------          ---
 72
   65
 73
    2
 40
10
 49
4
 49
-6
  0
LTYPE
  2
CENTER
 70
   64
  3
----------    ----    ----------
 72
   65
 73
    4
 40
9
 49
6
 49
-1
 49
1
 49
-1
  0
LTYPE
  2
CENTER2_21
 70
   64
  3
----------    ----    ----------
 72
   65
 73
    4
 40
18
 49
12
 49
-2
 49
2
 49
-2
  0
LTYPE
  2
PHANTOM
 70
   64
  3
---------   ---   ---   --------
 72
   65
 73
    6
 40
10
 49
5
 49
-1
 49
1
 49
-1
 49
1
 49
-1
  0
LTYPE
  2
PHANTOM2_23
 70
   64
  3
------    ----    ----    ------
 72
   65
 73
    6
 40
16
 49
6
 49
-2
 49
2
 49
-2
 49
2
 49
-2
  0
LTYPE
  2
HIDDEN
 70
   64
  3
--             ---             -
 72
   65
 73
    2
 40
2.5
 49
0.5
 49
-2
  0
ENDTAB
  0
TABLE
  2
STYLE
  5
3
100
AcDbSymbolTable
 70
     1
  0
STYLE
  5
10
100
AcDbSymbolTableRecord
100
AcDbTextStyleTableRecord
  2
STANDARD
 70
     0
 40
0.0
 41
1.0
 50
0.0
 71
     0
 42
0.2
  3
txt
  4
bigfont.shx
  0
STYLE
  5
26
100
AcDbSymbolTableRecord
100
AcDbTextStyleTableRecord
  2
TATEGAKI
 70
    68
 40
0.0
 41
1.0
 50
0.0
 71
     0
 42
1.0
  3
txt
  4
bigfont.shx
  0
ENDTAB
  0
TABLE
  2
LAYER
 70
    7
  0
LAYER
  2
_0-0_
 70
   64
 62
    7
  6
CONTINUOUS
  0
LAYER
  2
_0-1_
 70
   64
 62
    7
  6
CONTINUOUS
  0
LAYER
  2
_1-0_
 70
   64
 62
    7
  6
CONTINUOUS
  0
LAYER
  2
_1-1_
 70
   64
 62
    7
  6
CONTINUOUS
  0
LAYER
  2
_1-2_
 70
   64
 62
    7
  6
CONTINUOUS
  0
LAYER
  2
_1-3_
 70
   64
 62
    7
  6
CONTINUOUS
  0
LAYER
  2
ADD_LINE
 70
   64
 62
    7
  6
CONTINUOUS
  0
ENDTAB
  0
ENDSEC
  0
SECTION
  2
BLOCKS
  0
ENDSEC
  0
SECTION
  2
ENTITIES
  0
LINE
  8
_0-0_
  6
CONTINUOUS
 62
    5
 10
12.432428308435391
 20
278.51351351351354
 11
412.43244892842063
 21
278.51351351351354
  0
LINE
  8
_0-0_
  6
CONTINUOUS
 62
    5
 10
412.43244892842063
 20
8.5135135135135158
 11
12.432428308435391
 21
8.5135135135135158
  0
LINE
  8
_0-0_
  6
CONTINUOUS
 62
    5
 10
412.43244892842063
 20
28.513511451515001
 11
12.432415936444272
 21
28.513511451515001
  0
LINE
  8
_0-0_
  6
CONTINUOUS
 62
    5
 10
377.43248192039698
 20
8.5135135135135158
 11
377.43248192039698
 21
28.513511451515001
  0
LINE
  8
_0-0_
  6
CONTINUOUS
 62
    5
 10
142.70271507469386
 20
28.513511451515001
 11
142.70271507469386
 21
8.5135135135135158
  0
LINE
  8
_0-0_
  6
CONTINUOUS
 62
    5
 10
220.54054054054055
 20
28.513511451515001
 11
220.54054054054055
 21
8.5135135135135158
  0
LINE
  8
_0-0_
  6
CONTINUOUS
 62
    5
 10
142.70271507469386
 20
18.513512482514244
 11
220.54054054054055
 21
18.513512482514244
  0
LINE
  8
_0-0_
  6
CONTINUOUS
 62
    5
 10
402.16218690614443
 20
24.324325870823216
 11
389.59456985061234
 21
11.756758303255651
  0
LINE
  8
_1-0_
  6
CONTINUOUS
 62
    7
 10
66.600011877111484
 20
171.2594728212099
 11
66.600011877111484
 21
170.65946836729307
  0
LINE
  8
_1-0_
  6
CONTINUOUS
 62
    7
 10
66.600011877111484
 20
170.65946836729307
 11
66.600011877111484
 21
171.2594728212099
  0
LINE
  8
_1-0_
  6
CONTINUOUS
 62
    7
 10
66.600011877111484
 20
171.2594728212099
 11
71.399998020481405
 21
171.2594728212099
  0
LINE
  8
_1-0_
  6
CONTINUOUS
 62
    7
 10
71.399998020481405
 20
171.2594728212099
 11
71.399998020481405
 21
170.65946836729307
  0
LINE
  8
_1-0_
  6
CONTINUOUS
 62
    7
 10
71.399998020481405
 20
170.65946836729307
 11
66.600011877111484
 21
170.65946836729307
  0
LINE
  8
_1-0_
  6
CONTINUOUS
 62
    7
 10
66.600011877111484
 20
171.2594728212099
 11
71.399998020481405
 21
170.65946836729307
  0
LINE
  8
_1-0_
  6
CONTINUOUS
 62
    7
 10
127.20000395903718
 20
170.65946836729307
 11
127.20000395903718
 21
171.2594728212099
  0
LINE
  8
_1-0_
  6
CONTINUOUS
 62
    7
 10
127.20000395903718
 20
171.2594728212099
 11
131.99999010240711
 21
171.2594728212099
  0
LINE
  8
_1-0_
  6
CONTINUOUS
 62
    7
 10
131.99999010240711
 20
171.2594728212099
 11
131.99999010240711
 21
170.65946836729307
  0
LINE
  8
_1-0_
  6
CONTINUOUS
 62
    7
 10
131.99999010240711
 20
170.65946836729307
 11
127.20000395903718
 21
170.65946836729307
  0
LINE
  8
_1-0_
  6
CONTINUOUS
 62
    7
 10
127.20000395903718
 20
171.2594728212099
 11
131.99999010240711
 21
170.65946836729307
  0
LINE
  8
_1-0_
  6
CONTINUOUS
 62
    7
 10
187.79999604096284
 20
170.65946836729307
 11
187.79999604096284
 21
171.2594728212099
  0
LINE
  8
_1-0_
  6
CONTINUOUS
 62
    7
 10
187.79999604096284
 20
171.2594728212099
 11
192.59998218433279
 21
171.2594728212099
  0
LINE
  8
_1-0_
  6
CONTINUOUS
 62
    7
 10
192.59998218433279
 20
171.2594728212099
 11
192.59998218433279
 21
170.65946836729307
  0
LINE
  8
_1-0_
  6
CONTINUOUS
 62
    7
 10
192.59998218433279
 20
170.65946836729307
 11
187.79999604096284
 21
170.65946836729307
  0
LINE
  8
_1-0_
  6
CONTINUOUS
 62
    7
 10
187.79999604096284
 20
171.2594728212099
 11
192.59998218433279
 21
170.65946836729307
  0
LINE
  8
_1-0_
  6
CONTINUOUS
 62
    7
 10
248.39998812288852
 20
170.65946836729307
 11
248.39998812288852
 21
171.2594728212099
  0
LINE
  8
_1-0_
  6
CONTINUOUS
 62
    7
 10
248.39998812288852
 20
171.2594728212099
 11
253.19997426625847
 21
171.2594728212099
  0
LINE
  8
_1-0_
  6
CONTINUOUS
 62
    7
 10
253.19997426625847
 20
171.2594728212099
 11
253.19997426625847
 21
170.65946836729307
  0
LINE
  8
_1-0_
  6
CONTINUOUS
 62
    7
 10
253.19997426625847
 20
170.65946836729307
 11
248.39998812288852
 21
170.65946836729307
  0
LINE
  8
_1-0_
  6
CONTINUOUS
 62
    7
 10
248.39998812288852
 20
171.2594728212099
 11
253.19997426625847
 21
170.65946836729307
  0
LINE
  8
_1-1_
  6
CONTINUOUS
 62
    3
 10
68.799999340160468
 20
179.85947892472552
 11
68.799999340160468
 21
176.25947694520693
  0
LINE
  8
_1-1_
  6
CONTINUOUS
 62
    3
 10
129.99998350401182
 20
179.85947892472552
 11
129.99998350401182
 21
177.45947348104943
  0
LINE
  8
_1-1_
  6
CONTINUOUS
 62
    3
 10
68.799999340160468
 20
179.85947892472552
 11
70.000008247994089
 21
179.85947892472552
  0
LINE
  8
_1-1_
  6
CONTINUOUS
 62
    3
 10
120.13777449324326
 20
179.85947892472552
 11
129.99998350401182
 21
179.85947892472552
  0
LINE
  8
_1-1_
  6
CONTINUOUS
 62
    3
 10
121.99998185441301
 20
177.45947348104943
 11
118.9999719568201
 21
174.25947034681167
  0
LINE
  8
_1-1_
  6
CONTINUOUS
 62
    3
 10
128.39998812288852
 20
177.45947348104943
 11
128.39998812288852
 21
177.05947463576859
  0
LINE
  8
_1-1_
  6
CONTINUOUS
 62
    3
 10
127.59999043232686
 20
177.45947348104943
 11
127.59999043232686
 21
177.05947463576859
  0
LINE
  8
_1-1_
  6
CONTINUOUS
 62
    3
 10
125.99999505120356
 20
177.45947348104943
 11
125.99999505120356
 21
177.05947463576859
  0
LINE
  8
_1-1_
  6
CONTINUOUS
 62
    3
 10
125.1999973606419
 20
177.45947348104943
 11
125.1999973606419
 21
177.05947463576859
  0
LINE
  8
_1-1_
  6
CONTINUOUS
 62
    3
 10
121.99998185441301
 20
177.45947348104943
 11
125.1999973606419
 21
177.45947348104943
  0
LINE
  8
_1-1_
  6
CONTINUOUS
 62
    3
 10
125.99999505120356
 20
177.45947348104943
 11
127.59999043232686
 21
177.45947348104943
  0
LINE
  8
_1-1_
  6
CONTINUOUS
 62
    3
 10
128.39998812288852
 20
177.45947348104943
 11
129.99998350401182
 21
177.45947348104943
  0
LINE
  8
_1-1_
  6
CONTINUOUS
 62
    3
 10
125.1999973606419
 20
177.05947463576859
 11
125.99999505120356
 21
177.05947463576859
  0
LINE
  8
_1-1_
  6
CONTINUOUS
 62
    3
 10
127.59999043232686
 20
177.05947463576859
 11
128.39998812288852
 21
177.05947463576859
  0
LINE
  8
_1-1_
  6
CONTINUOUS
 62
    3
 10
73.600010227512655
 20
177.25946787241344
 11
117.3999765756968
 21
177.25946787241344
  0
LINE
  8
ADD_LINE
  6
DOT
 62
    3
 10
69.000004948796459
 20
174.71588547165331
 11
69.000004948796459
 21
173.89319754935602
  0
LINE
  8
_1-1_
  6
CONTINUOUS
 62
    3
 10
122.199987463049
 20
176.8594690271326
 11
122.199987463049
 21
174.25947034681167
  0
LINE
  8
_1-1_
  6
CONTINUOUS
 62
    3
 10
129.99998350401182
 20
179.85947892472552
 11
129.99998350401182
 21
176.25947694520693
  0
LINE
  8
_1-1_
  6
CONTINUOUS
 62
    3
 10
191.19996766786318
 20
179.85947892472552
 11
191.19996766786318
 21
177.45947348104943
  0
LINE
  8
_1-1_
  6
CONTINUOUS
 62
    3
 10
122.199987463049
 20
174.25947034681167
 11
180.19996849266261
 21
174.25947034681167
  0
LINE
  8
_1-1_
  6
CONTINUOUS
 62
    3
 10
129.99998350401182
 20
179.85947892472552
 11
131.20001715582771
 21
179.85947892472552
  0
LINE
  8
_1-1_
  6
CONTINUOUS
 62
    3
 10
181.33777102908573
 20
179.85947892472552
 11
191.19996766786318
 21
179.85947892472552
  0
LINE
  8
_1-1_
  6
CONTINUOUS
 62
    3
 10
183.19996601826438
 20
177.45947348104943
 11
180.19996849266261
 21
174.25947034681167
  0
LINE
  8
_1-1_
  6
CONTINUOUS
 62
    3
 10
189.59997228673987
 20
177.45947348104943
 11
189.59997228673987
 21
177.05947463576859
  0
LINE
  8
_1-1_
  6
CONTINUOUS
 62
    3
 10
188.79997459617823
 20
177.45947348104943
 11
188.79997459617823
 21
177.05947463576859
  0
LINE
  8
_1-1_
  6
CONTINUOUS
 62
    3
 10
187.1999792150549
 20
177.45947348104943
 11
187.1999792150549
 21
177.05947463576859
  0
LINE
  8
_1-1_
  6
CONTINUOUS
 62
    3
 10
186.39998152449326
 20
177.45947348104943
 11
186.39998152449326
 21
177.05947463576859
  0
LINE
  8
_1-1_
  6
CONTINUOUS
 62
    3
 10
183.19996601826438
 20
177.45947348104943
 11
186.39998152449326
 21
177.45947348104943
  0
LINE
  8
_1-1_
  6
CONTINUOUS
 62
    3
 10
187.1999792150549
 20
177.45947348104943
 11
188.79997459617823
 21
177.45947348104943
  0
LINE
  8
_1-1_
  6
CONTINUOUS
 62
    3
 10
189.59997228673987
 20
177.45947348104943
 11
191.19996766786318
 21
177.45947348104943
  0
LINE
  8
_1-1_
  6
CONTINUOUS
 62
    3
 10
186.39998152449326
 20
177.05947463576859
 11
187.1999792150549
 21
177.05947463576859
  0
LINE
  8
_1-1_
  6
CONTINUOUS
 62
    3
 10
188.79997459617823
 20
177.05947463576859
 11
189.59997228673987
 21
177.05947463576859
  0
LINE
  8
_1-1_
  6
CONTINUOUS
 62
    3
 10
134.79999439136404
 20
177.25946787241344
 11
178.59996073954815
 21
177.25946787241344
  0
LINE
  8
_1-1_
  6
CONTINUOUS
 62
    3
 10
123.39997162690034
 20
176.8594690271326
 11
123.68405728726775
 21
176.25947694520693
  0
LINE
  8
_1-1_
  6
CONTINUOUS
 62
    3
 10
122.199987463049
 20
176.8594690271326
 11
123.39997162690034
 21
176.8594690271326
  0
LINE
  8
_1-1_
  6
CONTINUOUS
 62
    3
 10
123.68405728726775
 20
176.25947694520693
 11
129.99998350401182
 21
176.25947694520693
  0
LINE
  8
_1-1_
  6
CONTINUOUS
 62
    3
 10
183.39998399889149
 20
176.8594690271326
 11
183.39998399889149
 21
174.25947034681167
  0
LINE
  8
_1-1_
  6
CONTINUOUS
 62
    3
 10
191.19996766786318
 20
179.85947892472552
 11
191.19996766786318
 21
176.25947694520693
  0
LINE
  8
_1-1_
  6
CONTINUOUS
 62
    3
 10
252.39995183171453
 20
179.85947892472552
 11
252.39995183171453
 21
177.45947348104943
  0
LINE
  8
_1-0_
  6
CONTINUOUS
 62
    3
 10
183.39998399889149
 20
174.25947034681167
 11
241.39996502850508
 21
174.25947034681167
  0
LINE
  8
_1-1_
  6
CONTINUOUS
 62
    3
 10
191.19996766786318
 20
179.85947892472552
 11
192.40000131967906
 21
179.85947892472552
  0
LINE
  8
_1-1_
  6
CONTINUOUS
 62
    3
 10
242.53776756492823
 20
179.85947892472552
 11
252.39995183171453
 21
179.85947892472552
  0
LINE
  8
_1-1_
  6
CONTINUOUS
 62
    3
 10
244.399974926098
 20
177.45947348104943
 11
241.39996502850508
 21
174.25947034681167
  0
LINE
  8
_1-1_
  6
CONTINUOUS
 62
    3
 10
250.79995645059122
 20
177.45947348104943
 11
250.79995645059122
 21
177.05947463576859
  0
LINE
  8
_1-1_
  6
CONTINUOUS
 62
    3
 10
249.99998350401185
 20
177.45947348104943
 11
249.99998350401185
 21
177.05947463576859
  0
LINE
  8
_1-1_
  6
CONTINUOUS
 62
    3
 10
248.39998812288852
 20
177.45947348104943
 11
248.39998812288852
 21
177.05947463576859
  0
LINE
  8
_1-1_
  6
CONTINUOUS
 62
    3
 10
247.59996568834461
 20
177.45947348104943
 11
247.59996568834461
 21
177.05947463576859
  0
LINE
  8
_1-1_
  6
CONTINUOUS
 62
    3
 10
244.399974926098
 20
177.45947348104943
 11
247.59996568834461
 21
177.45947348104943
  0
LINE
  8
_1-1_
  6
CONTINUOUS
 62
    3
 10
248.39998812288852
 20
177.45947348104943
 11
249.99998350401185
 21
177.45947348104943
  0
LINE
  8
_1-1_
  6
CONTINUOUS
 62
    3
 10
250.79995645059122
 20
177.45947348104943
 11
252.39995183171453
 21
177.45947348104943
  0
LINE
  8
_1-1_
  6
CONTINUOUS
 62
    3
 10
247.59996568834461
 20
177.05947463576859
 11
248.39998812288852
 21
177.05947463576859
  0
LINE
  8
_1-1_
  6
CONTINUOUS
 62
    3
 10
249.99998350401185
 20
177.05947463576859
 11
250.79995645059122
 21
177.05947463576859
  0
LINE
  8
_1-1_
  6
CONTINUOUS
 62
    3
 10
196.00000329919766
 20
177.25946787241344
 11
239.79996964738177
 21
177.25946787241344
  0
LINE
  8
_1-1_
  6
CONTINUOUS
 62
    3
 10
184.59996816274284
 20
176.8594690271326
 11
184.88405382311024
 21
176.25947694520693
  0
LINE
  8
_1-1_
  6
CONTINUOUS
 62
    3
 10
183.39998399889149
 20
176.8594690271326
 11
184.59996816274284
 21
176.8594690271326
  0
LINE
  8
_1-1_
  6
CONTINUOUS
 62
    3
 10
184.88405382311024
 20
176.25947694520693
 11
191.19996766786318
 21
176.25947694520693
  0
LINE
  8
_1-1_
  6
CONTINUOUS
 62
    3
 10
244.59998053473396
 20
176.8594690271326
 11
244.59998053473396
 21
174.25947034681167
  0
LINE
  8
_1-1_
  6
CONTINUOUS
 62
    3
 10
252.3999765756968
 20
179.85947892472552
 11
252.3999765756968
 21
176.25947694520693
  0
LINE
  8
_1-1_
  6
CONTINUOUS
 62
    3
 10
313.59996073954818
 20
179.85947892472552
 11
313.59996073954818
 21
177.45947348104943
  0
LINE
  8
_1-0_
  6
CONTINUOUS
 62
    3
 10
244.59998053473396
 20
174.25947034681167
 11
302.59994919235646
 21
174.25947034681167
  0
LINE
  8
_1-1_
  6
CONTINUOUS
 62
    3
 10
252.3999765756968
 20
179.85947892472552
 11
253.59998548353042
 21
179.85947892472552
  0
LINE
  8
_1-1_
  6
CONTINUOUS
 62
    3
 10
303.73777647276182
 20
179.85947892472552
 11
313.59996073954818
 21
179.85947892472552
  0
LINE
  8
_1-1_
  6
CONTINUOUS
 62
    3
 10
305.59995908994932
 20
177.45947348104943
 11
302.59994919235646
 21
174.25947034681167
  0
LINE
  8
_1-1_
  6
CONTINUOUS
 62
    3
 10
311.99996535842484
 20
177.45947348104943
 11
311.99996535842484
 21
177.05947463576859
  0
LINE
  8
_1-1_
  6
CONTINUOUS
 62
    3
 10
311.19996766786318
 20
177.45947348104943
 11
311.19996766786318
 21
177.05947463576859
  0
LINE
  8
_1-1_
  6
CONTINUOUS
 62
    3
 10
309.5999722867399
 20
177.45947348104943
 11
309.5999722867399
 21
177.05947463576859
  0
LINE
  8
_1-1_
  6
CONTINUOUS
 62
    3
 10
308.79997459617823
 20
177.45947348104943
 11
308.79997459617823
 21
177.05947463576859
  0
LINE
  8
_1-1_
  6
CONTINUOUS
 62
    3
 10
305.59995908994932
 20
177.45947348104943
 11
308.79997459617823
 21
177.45947348104943
  0
LINE
  8
_1-1_
  6
CONTINUOUS
 62
    3
 10
309.5999722867399
 20
177.45947348104943
 11
311.19996766786318
 21
177.45947348104943
  0
LINE
  8
_1-1_
  6
CONTINUOUS
 62
    3
 10
311.99996535842484
 20
177.45947348104943
 11
313.59996073954818
 21
177.45947348104943
  0
LINE
  8
_1-1_
  6
CONTINUOUS
 62
    3
 10
308.79997459617823
 20
177.05947463576859
 11
309.5999722867399
 21
177.05947463576859
  0
LINE
  8
_1-1_
  6
CONTINUOUS
 62
    3
 10
311.19996766786318
 20
177.05947463576859
 11
311.99996535842484
 21
177.05947463576859
  0
LINE
  8
_1-1_
  6
CONTINUOUS
 62
    3
 10
257.19998746304901
 20
177.25946787241344
 11
300.99995381123313
 21
177.25946787241344
  0
LINE
  8
_1-1_
  6
CONTINUOUS
 62
    3
 10
245.79996469858531
 20
176.8594690271326
 11
246.08405035895271
 21
176.25947694520693
  0
LINE
  8
_1-1_
  6
CONTINUOUS
 62
    3
 10
244.59998053473396
 20
176.8594690271326
 11
245.79996469858531
 21
176.8594690271326
  0
LINE
  8
_1-1_
  6
CONTINUOUS
 62
    3
 10
246.08405035895271
 20
176.25947694520693
 11
252.3999765756968
 21
176.25947694520693
  0
LINE
  8
_1-0_
  6
CONTINUOUS
 62
    3
 10
244.59998053473396
 20
174.25947034681167
 11
302.59994919235646
 21
174.25947034681167
  0
LINE
  8
_1-1_
  6
CONTINUOUS
 62
    7
 10
241.39996502850508
 20
174.25947034681167
 11
244.59998053473396
 21
174.25947034681167
  0
LINE
  8
_1-0_
  6
CONTINUOUS
 62
    3
 10
183.39998399889149
 20
174.25947034681167
 11
241.39996502850508
 21
174.25947034681167
  0
LINE
  8
_1-1_
  6
CONTINUOUS
 62
    7
 10
180.19996849266261
 20
174.25947034681167
 11
183.39998399889149
 21
174.25947034681167
  0
LINE
  8
_1-0_
  6
CONTINUOUS
 62
    3
 10
66.600011877111484
 20
174.25947034681167
 11
118.9999719568201
 21
174.25947034681167
  0
LINE
  8
_1-0_
  6
CONTINUOUS
 62
    3
 10
122.199987463049
 20
174.25947034681167
 11
180.19996849266261
 21
174.25947034681167
  0
LINE
  8
_1-1_
  6
CONTINUOUS
 62
    7
 10
122.199987463049
 20
174.25947034681167
 11
118.9999719568201
 21
174.25947034681167
  0
LINE
  8
_1-2_
  6
CONTINUOUS
 62
    7
 10
69.000004948796459
 20
192.16216216216216
 11
69.000004948796459
 21
212.43243243243245
  0
LINE
  8
_1-2_
  6
CONTINUOUS
 62
    7
 10
69.000004948796459
 20
212.43243243243245
 11
129.99998350401182
 21
212.43243243243245
  0
LINE
  8
_1-2_
  6
CONTINUOUS
 62
    7
 10
129.99998350401182
 20
192.16216216216216
 11
129.99998350401182
 21
212.43243243243245
  0
LINE
  8
_1-2_
  6
CONTINUOUS
 62
    7
 10
129.99998350401182
 20
212.43243243243245
 11
191.19996766786318
 21
212.43243243243245
  0
LINE
  8
_1-2_
  6
CONTINUOUS
 62
    7
 10
191.19996766786318
 20
192.16216216216216
 11
191.19996766786318
 21
212.43243243243245
  0
LINE
  8
_1-2_
  6
CONTINUOUS
 62
    7
 10
191.19996766786318
 20
212.43243243243245
 11
252.3999765756968
 21
212.43243243243245
  0
LINE
  8
_1-2_
  6
CONTINUOUS
 62
    7
 10
252.3999765756968
 20
192.16216216216216
 11
252.3999765756968
 21
212.43243243243245
  0
LINE
  8
_1-2_
  6
CONTINUOUS
 62
    7
 10
252.3999765756968
 20
212.43243243243245
 11
313.59998548353042
 21
212.43243243243245
  0
LINE
  8
_1-2_
  6
CONTINUOUS
 62
    7
 10
313.59998548353042
 20
192.16216216216216
 11
313.59998548353042
 21
212.43243243243245
  0
LINE
  8
_1-2_
  6
CONTINUOUS
 62
    7
 10
185.42054047455659
 20
177.17077306798987
 11
217.0477294921875
 21
90.27581498429582
  0
LINE
  8
_1-2_
  6
CONTINUOUS
 62
    7
 10
217.0477294921875
 20
90.27581498429582
 11
222.972972972973
 21
90.27581498429582
  0
LINE
  8
_0-1_
  6
CONTINUOUS
 62
    7
 10
204.30876035948057
 20
125.27581292229731
 11
222.972972972973
 21
125.27581292229731
  0
LINE
  8
_0-1_
  6
CONTINUOUS
 62
    7
 10
206.85654923722552
 20
118.27581457189612
 11
222.972972972973
 21
118.27581457189612
  0
LINE
  8
_0-1_
  6
CONTINUOUS
 62
    7
 10
209.40436285895271
 20
111.27581622149494
 11
222.972972972973
 21
111.27581622149494
  0
LINE
  8
_0-1_
  6
CONTINUOUS
 62
    7
 10
211.95215173669766
 20
104.27581787109375
 11
222.972972972973
 21
104.27581787109375
  0
LINE
  8
_0-1_
  6
CONTINUOUS
 62
    7
 10
214.49994061444258
 20
97.275813334697006
 11
222.972972972973
 21
97.275813334697006
  0
LINE
  8
_1-0_
  6
CONTINUOUS
 62
    7
 10
323.29690469277875
 20
178.45946440825591
 11
315.2969030431799
 21
178.45946440825591
  0
LINE
  8
_1-0_
  6
CONTINUOUS
 62
    7
 10
308.69689116606844
 20
171.2594728212099
 11
308.69689116606844
 21
170.65946836729307
  0
LINE
  8
_1-0_
  6
CONTINUOUS
 62
    2
 10
314.38592859216641
 20
170.48158387880068
 11
309.12659516205662
 21
170.48158387880068
  0
LINE
  8
_1-0_
  6
CONTINUOUS
 62
    2
 10
309.12659516205662
 20
170.48158387880068
 11
309.12659516205662
 21
172.73556271114865
  0
LINE
  8
_1-0_
  6
CONTINUOUS
 62
    7
 10
323.29690469277875
 20
140.15251365867823
 11
315.2969030431799
 21
148.15251530827703
  0
LINE
  8
_1-0_
  6
CONTINUOUS
 62
    7
 10
323.29690469277875
 20
142.98094878325591
 11
315.2969030431799
 21
150.98095043285474
  0
LINE
  8
_1-0_
  6
CONTINUOUS
 62
    7
 10
323.29690469277875
 20
145.8093715358425
 11
315.2969030431799
 21
153.8093731854413
  0
LINE
  8
_1-0_
  6
CONTINUOUS
 62
    7
 10
323.29690469277875
 20
151.46621704101562
 11
315.2969030431799
 21
159.46623106260557
  0
LINE
  8
_1-0_
  6
CONTINUOUS
 62
    7
 10
323.29690469277875
 20
154.29465216559333
 11
315.2969030431799
 21
162.29465381519216
  0
LINE
  8
_1-0_
  6
CONTINUOUS
 62
    7
 10
323.29690469277875
 20
157.1230749181799
 11
315.2969030431799
 21
165.12307656777872
  0
LINE
  8
_1-0_
  6
CONTINUOUS
 62
    7
 10
323.29690469277875
 20
159.9515100427576
 11
315.2969030431799
 21
167.95151169235643
  0
LINE
  8
_1-0_
  6
CONTINUOUS
 62
    7
 10
323.29690469277875
 20
162.77993279534419
 11
315.2969030431799
 21
170.77994681693414
  0
LINE
  8
_1-0_
  6
CONTINUOUS
 62
    7
 10
323.29690469277875
 20
165.60836791992187
 11
315.2969030431799
 21
173.60835719752956
  0
LINE
  8
_1-0_
  6
CONTINUOUS
 62
    7
 10
323.29690469277875
 20
168.43679067250847
 11
315.2969030431799
 21
176.43679232210727
  0
LINE
  8
_1-0_
  6
CONTINUOUS
 62
    7
 10
323.29690469277875
 20
171.26521342509503
 11
316.10266608160896
 21
178.45946440825591
  0
LINE
  8
_1-0_
  6
CONTINUOUS
 62
    7
 10
323.29690469277875
 20
174.09364854967274
 11
318.93107646220443
 21
178.45946440825591
  0
LINE
  8
_1-0_
  6
CONTINUOUS
 62
    7
 10
323.29690469277875
 20
176.9220713022593
 11
321.75951158678214
 21
178.45946440825591
  0
LINE
  8
_1-0_
  6
CONTINUOUS
 62
    2
 10
309.12659516205662
 20
172.73556271114865
 11
309.12659516205662
 21
174.10540194124789
  0
LINE
  8
_1-0_
  6
CONTINUOUS
 62
    2
 10
309.12659516205662
 20
174.10540194124789
 11
310.18264358108109
 21
174.10540194124789
  0
LINE
  8
_1-0_
  6
CONTINUOUS
 62
    7
 10
308.69689116606844
 20
170.65946836729307
 11
308.69689116606844
 21
171.2594728212099
  0
LINE
  8
_1-0_
  6
CONTINUOUS
 62
    7
 10
308.69689116606844
 20
171.2594728212099
 11
303.89690502269849
 21
171.2594728212099
  0
LINE
  8
_1-0_
  6
CONTINUOUS
 62
    7
 10
303.89690502269849
 20
171.2594728212099
 11
303.89690502269849
 21
170.65946836729307
  0
LINE
  8
_1-0_
  6
CONTINUOUS
 62
    7
 10
303.89690502269849
 20
170.65946836729307
 11
308.69689116606844
 21
170.65946836729307
  0
LINE
  8
_1-0_
  6
CONTINUOUS
 62
    7
 10
308.69689116606844
 20
171.2594728212099
 11
303.89690502269849
 21
170.65946836729307
  0
LINE
  8
_1-1_
  6
CONTINUOUS
 62
    3
 10
306.49690370301943
 20
179.85947892472552
 11
305.29689479518584
 21
179.85947892472552
  0
LINE
  8
_1-1_
  6
CONTINUOUS
 62
    3
 10
324.29690799197635
 20
179.85947892472552
 11
324.29690799197635
 21
156.65947166649073
  0
LINE
  8
_1-1_
  6
CONTINUOUS
 62
    3
 10
304.69690271326016
 20
179.85947892472552
 11
324.29690799197635
 21
179.85947892472552
  0
LINE
  8
_1-1_
  6
CONTINUOUS
 62
    3
 10
304.69690271326016
 20
183.05946968697214
 11
304.69690271326016
 21
179.85947892472552
  0
LINE
  8
_1-1_
  6
CONTINUOUS
 62
    3
 10
324.29690799197635
 20
156.65947166649073
 11
327.29691788956927
 21
156.65947166649073
  0
LINE
  8
_1-1_
  6
CONTINUOUS
 62
    3
 10
327.29691788956927
 20
182.05946638777451
 11
327.29691788956927
 21
156.65947166649073
  0
LINE
  8
_1-1_
  6
CONTINUOUS
 62
    3
 10
320.09691393053214
 20
182.53670357369089
 11
322.0968957849451
 21
182.53670357369089
  0
LINE
  8
_1-1_
  6
CONTINUOUS
 62
    3
 10
320.09691393053214
 20
183.05946968697214
 11
320.09691393053214
 21
182.53670357369089
  0
LINE
  8
_1-1_
  6
CONTINUOUS
 62
    3
 10
322.0968957849451
 20
183.05946968697214
 11
322.0968957849451
 21
182.53670357369089
  0
LINE
  8
_1-1_
  6
CONTINUOUS
 62
    3
 10
326.29691459037161
 20
183.05946968697214
 11
322.0968957849451
 21
183.05946968697214
  0
LINE
  8
_1-1_
  6
CONTINUOUS
 62
    3
 10
320.09691393053214
 20
183.05946968697214
 11
304.69690271326016
 21
183.05946968697214
  0
LINE
  8
_1-0_
  6
CONTINUOUS
 62
    2
 10
314.38592859216641
 20
170.48158387880068
 11
314.74513698268584
 21
170.48158387880068
  0
LINE
  8
_1-0_
  6
CONTINUOUS
 62
    2
 10
314.74513698268584
 20
170.48158387880068
 11
314.74513698268584
 21
179.24172066353464
  0
LINE
  8
_1-0_
  6
CONTINUOUS
 62
    2
 10
314.74513698268584
 20
179.24172066353464
 11
313.93281678895693
 21
177.93494147223396
  0
LINE
  8
_1-0_
  6
DASHED1
 62
    3
 10
323.29690469277875
 20
179.05946886217274
 11
314.99235410948057
 21
179.05946886217274
  0
LINE
  8
_1-0_
  6
DASHED1
 62
    3
 10
314.99235410948057
 20
179.05946886217274
 11
314.99235410948057
 21
170.05946391337628
  0
LINE
  8
_1-2_
  6
CONTINUOUS
 62
    7
 10
324.29690799197635
 20
113.48630750501479
 11
323.29690469277875
 21
113.48630750501479
  0
LINE
  8
_1-2_
  6
CONTINUOUS
 62
    7
 10
324.29690799197635
 20
126.89461372994089
 11
324.29690799197635
 21
113.48630750501479
  0
LINE
  8
_1-2_
  6
CONTINUOUS
 62
    7
 10
323.29690469277875
 20
126.89461372994089
 11
323.29690469277875
 21
113.48630750501479
  0
LINE
  8
_1-2_
  6
CONTINUOUS
 62
    7
 10
323.29690469277875
 20
113.48630750501479
 11
315.2969030431799
 21
113.48630750501479
  0
LINE
  8
_1-2_
  6
CONTINUOUS
 62
    7
 10
315.2969030431799
 20
126.89461372994089
 11
315.2969030431799
 21
113.48630750501479
  0
LINE
  8
_1-1_
  6
CONTINUOUS
 62
    3
 10
313.59998548353042
 20
179.85947892472552
 11
313.59998548353042
 21
177.45947348104943
  0
LINE
  8
_1-0_
  6
CONTINUOUS
 62
    7
 10
66.600011877111484
 20
170.65946836729307
 11
308.69689116606844
 21
170.65946836729307
  0
LINE
  8
_1-0_
  6
CONTINUOUS
 62
    7
 10
66.600011877111484
 20
171.2594728212099
 11
308.69689116606844
 21
171.2594728212099
  0
LINE
  8
_1-0_
  6
CONTINUOUS
 62
    7
 10
302.59994919235646
 20
174.25947034681167
 11
308.69689116606844
 21
174.25947034681167
  0
LINE
  8
_1-0_
  6
CONTINUOUS
 62
    7
 10
308.69689116606844
 20
171.2594728212099
 11
308.69689116606844
 21
174.25947034681167
  0
LINE
  8
_1-0_
  6
CONTINUOUS
 62
    7
 10
320.27027027027032
 20
149.18918918918919
 11
338.01717397328969
 21
100.42994731181378
  0
LINE
  8
_1-0_
  6
CONTINUOUS
 62
    7
 10
313.35803882495776
 20
170.47062229465794
 11
303.25739680109797
 21
198.22192630252323
  0
LINE
  8
_1-0_
  6
CONTINUOUS
 62
    7
 10
303.25739680109797
 20
198.22192630252323
 11
300.75446876319683
 21
198.22192630252323
  0
LINE
  8
_1-0_
  6
CONTINUOUS
 62
    7
 10
338.01717397328969
 20
100.42994731181378
 11
342.97297297297297
 21
100.42994731181378
  0
LINE
  8
_1-0_
  6
CONTINUOUS
 62
    7
 10
325.13513513513516
 20
181.62162162162164
 11
333.9491890572213
 21
205.83804981128591
  0
LINE
  8
_1-0_
  6
CONTINUOUS
 62
    7
 10
333.9491890572213
 20
205.83804981128591
 11
337.29729729729729
 21
205.83804981128591
  0
LINE
  8
_1-0_
  6
CONTINUOUS
 62
    7
 10
65.544192339922915
 20
169.45945945945948
 11
315.2969030431799
 21
169.45945945945948
  0
LINE
  8
_1-0_
  6
DASHED1
 62
    3
 10
65.544192339922915
 20
170.05946391337628
 11
314.99235410948057
 21
170.05946391337628
  0
LINE
  8
_1-1_
  6
CONTINUOUS
 62
    3
 10
65.544192339922915
 20
174.25947034681167
 11
118.9999719568201
 21
174.25947034681167
  0
LINE
  8
_1-1_
  6
CONTINUOUS
 62
    3
 10
65.544192339922915
 20
176.25947694520693
 11
68.799999340160468
 21
176.25947694520693
  0
LINE
  8
_1-3_
  6
CONTINUOUS
 62
    7
 10
350.28207314981
 20
169.45945945945948
 11
350.28207314981
 21
178.45946440825591
  0
LINE
  8
_1-3_
  6
CONTINUOUS
 62
    7
 10
335.46255575644005
 20
169.45945945945948
 11
350.28207314981
 21
169.45945945945948
  0
LINE
  8
_1-3_
  6
CONTINUOUS
 62
    7
 10
335.46255575644005
 20
178.45946440825591
 11
350.28207314981
 21
178.45946440825591
  0
LINE
  8
_1-3_
  6
CONTINUOUS
 62
    7
 10
65.544192339922915
 20
165.85945747994089
 11
315.2969030431799
 21
165.85945747994089
  0
LINE
  8
_1-3_
  6
CONTINUOUS
 62
    7
 10
65.544192339922915
 20
145.85945335594386
 11
315.2969030431799
 21
145.85945335594386
  0
LINE
  8
_1-3_
  6
CONTINUOUS
 62
    7
 10
65.544192339922915
 20
141.85945253114443
 11
315.2969030431799
 21
141.85945253114443
  0
LINE
  8
_1-3_
  6
CONTINUOUS
 62
    7
 10
65.544192339922915
 20
140.65945599530195
 11
315.2969030431799
 21
140.65945599530195
  0
LINE
  8
_1-0_
  6
CONTINUOUS
 62
    7
 10
323.29690469277875
 20
178.45946440825591
 11
323.29690469277875
 21
136.65945517050255
  0
LINE
  8
_1-3_
  6
CONTINUOUS
 62
    7
 10
315.2969030431799
 20
136.65945517050255
 11
323.29690469277875
 21
136.65945517050255
  0
LINE
  8
_1-0_
  6
CONTINUOUS
 62
    7
 10
318.30470729518584
 20
136.65945517050255
 11
315.2969030431799
 21
139.6672346785262
  0
LINE
  8
_1-0_
  6
CONTINUOUS
 62
    7
 10
323.29690469277875
 20
137.32407853410052
 11
315.2969030431799
 21
145.32409255569047
  0
LINE
  8
_1-3_
  6
CONTINUOUS
 62
    7
 10
315.2969030431799
 20
141.85945253114443
 11
317.52099114495354
 21
141.85945253114443
  0
LINE
  8
_1-3_
  6
CONTINUOUS
 62
    7
 10
315.2969030431799
 20
140.65945599530195
 11
317.52099114495354
 21
140.65945599530195
  0
LINE
  8
_1-3_
  6
CONTINUOUS
 62
    7
 10
317.52099114495354
 20
141.85945253114443
 11
317.52099114495354
 21
140.65945599530195
  0
LINE
  8
_1-0_
  6
CONTINUOUS
 62
    7
 10
321.13309293179901
 20
136.65945517050255
 11
317.13310447899073
 21
140.65945599530195
  0
LINE
  8
_1-0_
  6
CONTINUOUS
 62
    7
 10
315.93309557115714
 20
141.85945253114443
 11
315.2969030431799
 21
142.49565743111276
  0
LINE
  8
_1-0_
  6
CONTINUOUS
 62
    7
 10
323.29690469277875
 20
148.63779428842906
 11
315.2969030431799
 21
156.63780831001901
  0
LINE
  8
_1-3_
  6
CONTINUOUS
 62
    3
 10
314.89686708192568
 20
161.85945665514149
 11
315.29687829919766
 21
161.85945665514149
  0
LINE
  8
_1-3_
  6
CONTINUOUS
 62
    3
 10
315.29687829919766
 20
149.85945418074326
 11
314.89686708192568
 21
149.85945418074326
  0
LINE
  8
_1-3_
  6
CONTINUOUS
 62
    3
 10
313.89686378272808
 20
165.45945863466005
 11
306.69690931165542
 21
165.45945863466005
  0
LINE
  8
_1-3_
  6
CONTINUOUS
 62
    3
 10
314.89686708192568
 20
164.45945533546242
 11
314.89686708192568
 21
161.85945665514149
  0
LINE
  8
_1-3_
  6
CONTINUOUS
 62
    3
 10
315.29687829919766
 20
164.85945418074326
 11
315.29687829919766
 21
161.85945665514149
  0
LINE
  8
_1-3_
  6
CONTINUOUS
 62
    3
 10
314.296875
 20
165.85945747994089
 11
306.29689809438344
 21
165.85945747994089
  0
LINE
  8
_1-3_
  6
CONTINUOUS
 62
    3
 10
314.89686708192568
 20
147.25945550042232
 11
314.89686708192568
 21
149.85945418074326
  0
LINE
  8
_1-3_
  6
CONTINUOUS
 62
    3
 10
315.29687829919766
 20
146.85945665514149
 11
315.29687829919766
 21
149.85945418074326
  0
LINE
  8
_1-3_
  6
CONTINUOUS
 62
    3
 10
306.69690931165542
 20
146.25945220122466
 11
313.89686378272808
 21
146.25945220122466
  0
LINE
  8
_1-3_
  6
CONTINUOUS
 62
    3
 10
305.69690601245776
 20
147.25945550042232
 11
305.69690601245776
 21
164.45945533546242
  0
LINE
  8
_1-3_
  6
CONTINUOUS
 62
    3
 10
305.29689479518584
 20
146.85945665514149
 11
305.29689479518584
 21
164.85945418074326
  0
LINE
  8
_1-3_
  6
CONTINUOUS
 62
    3
 10
306.29689809438344
 20
145.85946572793497
 11
314.296875
 21
145.85946572793497
  0
LINE
  8
ADD_LINE
  6
DOT
 62
    3
 10
306.29689809438344
 20
165.85945747994089
 11
304.89864040065459
 21
165.85945747994089
  0
LINE
  8
ADD_LINE
  6
DOT
 62
    3
 10
305.29689479518584
 20
164.85945418074326
 11
305.29689479518584
 21
166.37070526947846
  0
LINE
  8
ADD_LINE
  6
DOT
 62
    3
 10
306.29689809438344
 20
145.85946572793497
 11
304.39759950380068
 21
145.85946572793497
  0
LINE
  8
ADD_LINE
  6
DOT
 62
    3
 10
305.29689479518584
 20
146.85945665514149
 11
305.29689479518584
 21
145.42776984137458
  0
LINE
  8
_1-3_
  6
CONTINUOUS
 62
    3
 10
134.89687945391682
 20
161.85945665514149
 11
135.29689067118878
 21
161.85945665514149
  0
LINE
  8
_1-3_
  6
CONTINUOUS
 62
    3
 10
135.29689067118878
 20
149.85945418074326
 11
134.89687945391682
 21
149.85945418074326
  0
LINE
  8
_1-3_
  6
CONTINUOUS
 62
    3
 10
133.89687615471917
 20
165.45945863466005
 11
126.69692168364655
 21
165.45945863466005
  0
LINE
  8
_1-3_
  6
CONTINUOUS
 62
    3
 10
134.89687945391682
 20
164.45945533546242
 11
134.89687945391682
 21
161.85945665514149
  0
LINE
  8
_1-3_
  6
CONTINUOUS
 62
    3
 10
135.29689067118878
 20
164.85945418074326
 11
135.29689067118878
 21
161.85945665514149
  0
LINE
  8
_1-3_
  6
CONTINUOUS
 62
    3
 10
134.29688737199115
 20
165.85945747994089
 11
126.29691046637458
 21
165.85945747994089
  0
LINE
  8
_1-3_
  6
CONTINUOUS
 62
    3
 10
134.89687945391682
 20
147.25945550042232
 11
134.89687945391682
 21
149.85945418074326
  0
LINE
  8
_1-3_
  6
CONTINUOUS
 62
    3
 10
135.29689067118878
 20
146.85945665514149
 11
135.29689067118878
 21
149.85945418074326
  0
LINE
  8
_1-3_
  6
CONTINUOUS
 62
    3
 10
126.69692168364655
 20
146.25945220122466
 11
133.89687615471917
 21
146.25945220122466
  0
LINE
  8
_1-3_
  6
CONTINUOUS
 62
    3
 10
125.69691838444891
 20
147.25945550042232
 11
125.69691838444891
 21
164.45945533546242
  0
LINE
  8
_1-3_
  6
CONTINUOUS
 62
    3
 10
125.29690716717695
 20
146.85945665514149
 11
125.29690716717695
 21
164.85945418074326
  0
LINE
  8
_1-3_
  6
CONTINUOUS
 62
    3
 10
126.29691046637458
 20
145.85946572793497
 11
134.29688737199115
 21
145.85946572793497
  0
LINE
  8
ADD_LINE
  6
DOT
 62
    3
 10
126.29691046637458
 20
165.85945747994089
 11
124.8986527726457
 21
165.85945747994089
  0
LINE
  8
ADD_LINE
  6
DOT
 62
    3
 10
125.29690716717695
 20
164.85945418074326
 11
125.29690716717695
 21
166.37070526947846
  0
LINE
  8
ADD_LINE
  6
DOT
 62
    3
 10
126.29691046637458
 20
145.85946572793497
 11
124.39761187579181
 21
145.85946572793497
  0
LINE
  8
ADD_LINE
  6
DOT
 62
    3
 10
125.29690716717695
 20
146.85945665514149
 11
125.29690716717695
 21
145.42776984137458
  0
LINE
  8
ADD_LINE
  6
DOT
 62
    7
 10
65.544192339922915
 20
165.85945747994089
 11
65.544192339922915
 21
169.45945945945948
  0
LINE
  8
_1-3_
  6
CONTINUOUS
 62
    7
 10
65.544192339922915
 20
166.38677648595862
 11
66.071505159945104
 21
165.85945747994089
  0
LINE
  8
_1-3_
  6
CONTINUOUS
 62
    7
 10
65.544192339922915
 20
169.21518686655406
 11
68.899927912531666
 21
165.85945747994089
  0
LINE
  8
_1-3_
  6
CONTINUOUS
 62
    7
 10
68.128323941617396
 20
169.45945945945948
 11
71.728344479122683
 21
165.85945747994089
  0
LINE
  8
_1-3_
  6
CONTINUOUS
 62
    7
 10
70.956759066195104
 20
169.45945945945948
 11
74.556761045713699
 21
165.85945747994089
  0
LINE
  8
_1-3_
  6
CONTINUOUS
 62
    7
 10
73.785169446790547
 20
169.45945945945948
 11
77.385183798300261
 21
165.85945747994089
  0
LINE
  8
_1-3_
  6
CONTINUOUS
 62
    7
 10
76.613604571368228
 20
169.45945945945948
 11
80.213600364891249
 21
165.85945747994089
  0
LINE
  8
_1-3_
  6
CONTINUOUS
 62
    7
 10
79.441990207981405
 20
169.45945945945948
 11
83.042016931482266
 21
165.85945747994089
  0
LINE
  8
_1-3_
  6
CONTINUOUS
 62
    7
 10
82.270425332559128
 20
169.45945945945948
 11
85.870439684068842
 21
165.85945747994089
  0
LINE
  8
_1-3_
  6
CONTINUOUS
 62
    7
 10
85.098835713154571
 20
169.45945945945948
 11
88.698862436655403
 21
165.85945747994089
  0
LINE
  8
_1-3_
  6
CONTINUOUS
 62
    7
 10
87.927270837732266
 20
169.45945945945948
 11
91.527272817250847
 21
165.85945747994089
  0
LINE
  8
_1-3_
  6
CONTINUOUS
 62
    7
 10
90.755681218327709
 20
169.45945945945948
 11
94.355695569837422
 21
165.85945747994089
  0
LINE
  8
_1-3_
  6
CONTINUOUS
 62
    7
 10
93.584116342905418
 20
169.45945945945948
 11
97.184112136428425
 21
165.85945747994089
  0
LINE
  8
_1-3_
  6
CONTINUOUS
 62
    7
 10
96.412526723500847
 20
169.45945945945948
 11
100.01252870301943
 21
165.85945747994089
  0
LINE
  8
_1-3_
  6
CONTINUOUS
 62
    7
 10
99.24093710409629
 20
169.45945945945948
 11
102.84094526961043
 21
165.85945747994089
  0
LINE
  8
_1-3_
  6
CONTINUOUS
 62
    7
 10
102.069372228674
 20
169.45945945945948
 11
105.66937420819258
 21
165.85945747994089
  0
LINE
  8
_1-3_
  6
CONTINUOUS
 62
    7
 10
104.89775786528716
 20
169.45945945945948
 11
108.49778458878801
 21
165.85945747994089
  0
LINE
  8
_1-3_
  6
CONTINUOUS
 62
    7
 10
107.72621773384714
 20
169.45945945945948
 11
111.32620734137458
 21
165.85945747994089
  0
LINE
  8
_1-3_
  6
CONTINUOUS
 62
    7
 10
110.55460337046031
 20
169.45945945945948
 11
114.15463009396116
 21
165.85945747994089
  0
LINE
  8
_1-3_
  6
CONTINUOUS
 62
    7
 10
113.38303849503801
 20
169.45945945945948
 11
116.98305284654772
 21
165.85945747994089
  0
LINE
  8
_1-3_
  6
CONTINUOUS
 62
    7
 10
116.21146124762458
 20
169.45945945945948
 11
119.81146322714316
 21
165.85945747994089
  0
LINE
  8
_1-3_
  6
CONTINUOUS
 62
    7
 10
119.03988400021116
 20
169.45945945945948
 11
122.63988597972974
 21
165.85945747994089
  0
LINE
  8
_1-3_
  6
CONTINUOUS
 62
    7
 10
121.86830675279772
 20
169.45945945945948
 11
125.4683087323163
 21
165.85945747994089
  0
LINE
  8
_1-3_
  6
CONTINUOUS
 62
    7
 10
124.69674187737543
 20
169.45945945945948
 11
128.29674385689401
 21
165.85945747994089
  0
LINE
  8
_1-3_
  6
CONTINUOUS
 62
    7
 10
127.52517700195312
 20
169.45945945945948
 11
131.12517898147172
 21
165.85945747994089
  0
LINE
  8
_1-3_
  6
CONTINUOUS
 62
    7
 10
130.35361212653083
 20
169.45945945945948
 11
133.95360173405828
 21
165.85945747994089
  0
LINE
  8
_1-3_
  6
CONTINUOUS
 62
    7
 10
133.18204725110854
 20
169.45945945945948
 11
136.78204923062711
 21
165.85945747994089
  0
LINE
  8
_1-3_
  6
CONTINUOUS
 62
    7
 10
136.01048237568625
 20
169.45945945945948
 11
139.61049672719597
 21
165.85945747994089
  0
LINE
  8
_1-3_
  6
CONTINUOUS
 62
    7
 10
138.83891750026393
 20
169.45945945945948
 11
142.43891947978253
 21
165.85945747994089
  0
LINE
  8
_1-3_
  6
CONTINUOUS
 62
    7
 10
141.66735262484164
 20
169.45945945945948
 11
145.26734223236909
 21
165.85945747994089
  0
LINE
  8
_1-3_
  6
CONTINUOUS
 62
    7
 10
144.49578774941935
 20
169.45945945945948
 11
148.09580210092906
 21
165.85945747994089
  0
LINE
  8
_1-3_
  6
CONTINUOUS
 62
    7
 10
147.32422287399706
 20
169.45945945945948
 11
150.92422485351562
 21
165.85945747994089
  0
LINE
  8
_1-3_
  6
CONTINUOUS
 62
    7
 10
150.15267037056589
 20
169.45945945945948
 11
153.75267235008448
 21
165.85945747994089
  0
LINE
  8
_1-3_
  6
CONTINUOUS
 62
    7
 10
152.98110549514359
 20
169.45945945945948
 11
156.58110747466216
 21
165.85945747994089
  0
LINE
  8
_1-3_
  6
CONTINUOUS
 62
    7
 10
155.8095406197213
 20
169.45945945945948
 11
159.40954259923987
 21
165.85945747994089
  0
LINE
  8
_1-3_
  6
CONTINUOUS
 62
    7
 10
158.63797574429898
 20
169.45945945945948
 11
162.23797772381758
 21
165.85945747994089
  0
LINE
  8
_1-3_
  6
CONTINUOUS
 62
    7
 10
161.46641086887669
 20
169.45945945945948
 11
165.06641284839529
 21
165.85945747994089
  0
LINE
  8
_1-3_
  6
CONTINUOUS
 62
    7
 10
164.2948459934544
 20
169.45945945945948
 11
167.89484797297297
 21
165.85945747994089
  0
LINE
  8
_1-3_
  6
CONTINUOUS
 62
    7
 10
167.12329349002323
 20
169.45945945945948
 11
170.72328309755068
 21
165.85945747994089
  0
LINE
  8
_1-3_
  6
CONTINUOUS
 62
    7
 10
169.95171624260982
 20
169.45945945945948
 11
173.55171822212839
 21
165.85945747994089
  0
LINE
  8
_1-3_
  6
CONTINUOUS
 62
    7
 10
172.7801513671875
 20
169.45945945945948
 11
176.38015334670609
 21
165.85945747994089
  0
LINE
  8
_1-3_
  6
CONTINUOUS
 62
    7
 10
175.60858649176521
 20
169.45945945945948
 11
179.2085884712838
 21
165.85945747994089
  0
LINE
  8
_1-3_
  6
CONTINUOUS
 62
    7
 10
178.43703398833404
 20
169.45945945945948
 11
182.03702359586148
 21
165.85945747994089
  0
LINE
  8
_1-3_
  6
CONTINUOUS
 62
    7
 10
181.26545674092063
 20
169.45945945945948
 11
184.86548346442146
 21
165.85945747994089
  0
LINE
  8
_1-3_
  6
CONTINUOUS
 62
    7
 10
184.09389186549831
 20
169.45945945945948
 11
187.6938938450169
 21
165.85945747994089
  0
LINE
  8
_1-3_
  6
CONTINUOUS
 62
    7
 10
186.92233936206716
 20
169.45945945945948
 11
190.52235371357688
 21
165.85945747994089
  0
LINE
  8
_1-3_
  6
CONTINUOUS
 62
    7
 10
189.75076211465372
 20
169.45945945945948
 11
193.35078883815459
 21
165.85945747994089
  0
LINE
  8
_1-3_
  6
CONTINUOUS
 62
    7
 10
192.57920961122255
 20
169.45945945945948
 11
196.17919921875
 21
165.85945747994089
  0
LINE
  8
_1-3_
  6
CONTINUOUS
 62
    7
 10
195.40764473580026
 20
169.45945945945948
 11
199.00765908730997
 21
165.85945747994089
  0
LINE
  8
_1-3_
  6
CONTINUOUS
 62
    7
 10
198.23606748838682
 20
169.45945945945948
 11
201.83609421188768
 21
165.85945747994089
  0
LINE
  8
_1-3_
  6
CONTINUOUS
 62
    7
 10
201.06451498495568
 20
169.45945945945948
 11
204.66452933646539
 21
165.85945747994089
  0
LINE
  8
_1-3_
  6
CONTINUOUS
 62
    7
 10
203.89295010953336
 20
169.45945945945948
 11
207.49296446104307
 21
165.85945747994089
  0
LINE
  8
_1-3_
  6
CONTINUOUS
 62
    7
 10
206.72138523411107
 20
169.45945945945948
 11
210.32139958562078
 21
165.85945747994089
  0
LINE
  8
_1-3_
  6
CONTINUOUS
 62
    7
 10
209.54983273067992
 20
169.45945945945948
 11
213.14983471019849
 21
165.85945747994089
  0
LINE
  8
_1-3_
  6
CONTINUOUS
 62
    7
 10
212.37824311127534
 20
169.45945945945948
 11
215.9782698347762
 21
165.85945747994089
  0
LINE
  8
_1-3_
  6
CONTINUOUS
 62
    7
 10
215.20667823585305
 20
169.45945945945948
 11
218.80670495935391
 21
165.85945747994089
  0
LINE
  8
_1-3_
  6
CONTINUOUS
 62
    7
 10
218.03513810441302
 20
169.45945945945948
 11
221.63514008393159
 21
165.85945747994089
  0
LINE
  8
_1-3_
  6
CONTINUOUS
 62
    7
 10
220.86357322899073
 20
169.45945945945948
 11
224.4635752085093
 21
165.85945747994089
  0
LINE
  8
_1-3_
  6
CONTINUOUS
 62
    7
 10
223.69200835356841
 20
169.45945945945948
 11
227.29203507706927
 21
165.85945747994089
  0
LINE
  8
_1-3_
  6
CONTINUOUS
 62
    7
 10
226.52046822212839
 20
169.45945945945948
 11
230.12047020164698
 21
165.85945747994089
  0
LINE
  8
_1-3_
  6
CONTINUOUS
 62
    7
 10
229.34887860272383
 20
169.45945945945948
 11
232.94888058224242
 21
165.85945747994089
  0
LINE
  8
_1-3_
  6
CONTINUOUS
 62
    7
 10
232.17731372730154
 20
169.45945945945948
 11
235.77734045080237
 21
165.85945747994089
  0
LINE
  8
_1-3_
  6
CONTINUOUS
 62
    7
 10
235.00574885187925
 20
169.45945945945948
 11
238.60577557538008
 21
165.85945747994089
  0
LINE
  8
_1-3_
  6
CONTINUOUS
 62
    7
 10
237.83418397645693
 20
169.45945945945948
 11
241.43418595597552
 21
165.85945747994089
  0
LINE
  8
_1-3_
  6
CONTINUOUS
 62
    7
 10
240.66261910103464
 20
169.45945945945948
 11
244.2626458245355
 21
165.85945747994089
  0
LINE
  8
_1-3_
  6
CONTINUOUS
 62
    7
 10
243.49107896959461
 20
169.45945945945948
 11
247.09108094911318
 21
165.85945747994089
  0
LINE
  8
_1-3_
  6
CONTINUOUS
 62
    7
 10
246.31948935019005
 20
169.45945945945948
 11
249.91951607369089
 21
165.85945747994089
  0
LINE
  8
_1-3_
  6
CONTINUOUS
 62
    7
 10
249.14794921875
 20
169.45945945945948
 11
252.74795119826859
 21
165.85945747994089
  0
LINE
  8
_1-3_
  6
CONTINUOUS
 62
    7
 10
251.97638434332771
 20
169.45945945945948
 11
255.5763863228463
 21
165.85945747994089
  0
LINE
  8
_1-3_
  6
CONTINUOUS
 62
    7
 10
254.80481946790542
 20
169.45945945945948
 11
258.40482144742401
 21
165.85945747994089
  0
LINE
  8
_1-3_
  6
CONTINUOUS
 62
    7
 10
257.63325459248313
 20
169.45945945945948
 11
261.23325657200172
 21
165.85945747994089
  0
LINE
  8
_1-3_
  6
CONTINUOUS
 62
    7
 10
260.46168971706084
 20
169.45945945945948
 11
264.06169169657943
 21
165.85945747994089
  0
LINE
  8
_1-3_
  6
CONTINUOUS
 62
    7
 10
263.29012484163854
 20
169.45945945945948
 11
266.89012682115708
 21
165.85945747994089
  0
LINE
  8
_1-3_
  6
CONTINUOUS
 62
    7
 10
266.11855996621625
 20
169.45945945945948
 11
269.71856194573479
 21
165.85945747994089
  0
LINE
  8
_1-3_
  6
CONTINUOUS
 62
    7
 10
268.94699509079396
 20
169.45945945945948
 11
272.5469970703125
 21
165.85945747994089
  0
LINE
  8
_1-3_
  6
CONTINUOUS
 62
    7
 10
271.77543021537161
 20
169.45945945945948
 11
275.37543219489021
 21
165.85945747994089
  0
LINE
  8
_1-3_
  6
CONTINUOUS
 62
    7
 10
274.60386533994932
 20
169.45945945945948
 11
278.20384257548568
 21
165.85945747994089
  0
LINE
  8
_1-3_
  6
CONTINUOUS
 62
    7
 10
277.43230046452703
 20
169.45945945945948
 11
281.03230244404563
 21
165.85945747994089
  0
LINE
  8
_1-3_
  6
CONTINUOUS
 62
    7
 10
280.26073558910474
 20
169.45945945945948
 11
283.86073756862334
 21
165.85945747994089
  0
LINE
  8
_1-3_
  6
CONTINUOUS
 62
    7
 10
283.08917071368245
 20
169.45945945945948
 11
286.68914794921875
 21
165.85945747994089
  0
LINE
  8
_1-3_
  6
CONTINUOUS
 62
    7
 10
285.91760583826016
 20
169.45945945945948
 11
289.51760781777875
 21
165.85945747994089
  0
LINE
  8
_1-3_
  6
CONTINUOUS
 62
    7
 10
288.74604096283787
 20
169.45945945945948
 11
292.34601819837417
 21
165.85945747994089
  0
LINE
  8
_1-3_
  6
CONTINUOUS
 62
    7
 10
291.57447608741558
 20
169.45945945945948
 11
295.17447806693411
 21
165.85945747994089
  0
LINE
  8
_1-3_
  6
CONTINUOUS
 62
    7
 10
294.40291121199328
 20
169.45945945945948
 11
298.00291319151182
 21
165.85945747994089
  0
LINE
  8
_1-3_
  6
CONTINUOUS
 62
    7
 10
297.23134633657094
 20
169.45945945945948
 11
300.83134831608953
 21
165.85945747994089
  0
LINE
  8
_1-3_
  6
CONTINUOUS
 62
    7
 10
300.05978146114865
 20
169.45945945945948
 11
303.65980818464953
 21
165.85945747994089
  0
LINE
  8
_1-3_
  6
CONTINUOUS
 62
    7
 10
302.88821658572635
 20
169.45945945945948
 11
306.48824330922719
 21
165.85945747994089
  0
LINE
  8
_1-3_
  6
CONTINUOUS
 62
    7
 10
305.71667645428636
 20
169.45945945945948
 11
309.31665368982266
 21
165.85945747994089
  0
LINE
  8
_1-3_
  6
CONTINUOUS
 62
    7
 10
308.54508683488177
 20
169.45945945945948
 11
312.1451135583826
 21
165.85945747994089
  0
LINE
  8
_1-3_
  6
CONTINUOUS
 62
    7
 10
311.37352195945948
 20
169.45945945945948
 11
314.97354868296031
 21
165.85945747994089
  0
LINE
  8
_1-3_
  6
CONTINUOUS
 62
    7
 10
314.20195708403719
 20
169.45945945945948
 11
315.2969030431799
 21
168.36452587230787
  0
LINE
  8
_1-3_
  6
CONTINUOUS
 62
    7
 10
312.93768805426521
 20
165.85945747994089
 11
315.2969030431799
 21
168.21867246885557
  0
LINE
  8
_1-3_
  6
CONTINUOUS
 62
    7
 10
310.1092529296875
 20
165.85945747994089
 11
313.70925490920609
 21
169.45945945945948
  0
LINE
  8
_1-3_
  6
CONTINUOUS
 62
    7
 10
307.28084254909209
 20
165.85945747994089
 11
310.88084452861068
 21
169.45945945945948
  0
LINE
  8
_1-3_
  6
CONTINUOUS
 62
    7
 10
304.45240742451438
 20
165.85945747994089
 11
308.05238466005068
 21
169.45945945945948
  0
LINE
  8
_1-3_
  6
CONTINUOUS
 62
    7
 10
301.62397229993667
 20
165.85945747994089
 11
305.22394953547297
 21
169.45945945945948
  0
LINE
  8
_1-3_
  6
CONTINUOUS
 62
    7
 10
298.79553717535896
 20
165.85945747994089
 11
302.39553915487755
 21
169.45945945945948
  0
LINE
  8
_1-3_
  6
CONTINUOUS
 62
    7
 10
295.96712679476354
 20
165.85945747994089
 11
299.56712877428214
 21
169.45945945945948
  0
LINE
  8
_1-3_
  6
CONTINUOUS
 62
    7
 10
293.13866692620354
 20
165.85945747994089
 11
296.73869364970443
 21
169.45945945945948
  0
LINE
  8
_1-3_
  6
CONTINUOUS
 62
    7
 10
290.31025654560813
 20
165.85945747994089
 11
293.91025852512672
 21
169.45945945945948
  0
LINE
  8
_1-3_
  6
CONTINUOUS
 62
    7
 10
287.48184616501271
 20
165.85945747994089
 11
291.08184814453125
 21
169.45945945945948
  0
LINE
  8
_1-3_
  6
CONTINUOUS
 62
    7
 10
284.65338629645271
 20
165.85945747994089
 11
288.2533882759713
 21
169.45945945945948
  0
LINE
  8
_1-3_
  6
CONTINUOUS
 62
    7
 10
281.824951171875
 20
165.85945747994089
 11
285.42495315139359
 21
169.45945945945948
  0
LINE
  8
_1-3_
  6
CONTINUOUS
 62
    7
 10
278.99654079127959
 20
165.85945747994089
 11
282.59654277079818
 21
169.45945945945948
  0
LINE
  8
_1-3_
  6
CONTINUOUS
 62
    7
 10
276.16813041068411
 20
165.85945747994089
 11
279.76813239020271
 21
169.45945945945948
  0
LINE
  8
_1-3_
  6
CONTINUOUS
 62
    7
 10
273.33969528610646
 20
165.85945747994089
 11
276.939697265625
 21
169.45945945945948
  0
LINE
  8
_1-3_
  6
CONTINUOUS
 62
    7
 10
270.51128490551099
 20
165.85945747994089
 11
274.11128688502959
 21
169.45945945945948
  0
LINE
  8
_1-3_
  6
CONTINUOUS
 62
    7
 10
267.68284978093328
 20
165.85945747994089
 11
271.28282701646958
 21
169.45945945945948
  0
LINE
  8
_1-3_
  6
CONTINUOUS
 62
    7
 10
264.85441465635557
 20
165.85945747994089
 11
268.45441663587417
 21
169.45945945945948
  0
LINE
  8
_1-3_
  6
CONTINUOUS
 62
    7
 10
262.02595478779563
 20
165.85945747994089
 11
265.62595676731422
 21
169.45945945945948
  0
LINE
  8
_1-3_
  6
CONTINUOUS
 62
    7
 10
259.19754440720016
 20
165.85945747994089
 11
262.79754638671875
 21
169.45945945945948
  0
LINE
  8
_1-3_
  6
CONTINUOUS
 62
    7
 10
256.36913402660474
 20
165.85945747994089
 11
259.96913600612334
 21
169.45945945945948
  0
LINE
  8
_1-3_
  6
CONTINUOUS
 62
    7
 10
253.54069890202703
 20
165.85945747994089
 11
257.14070088154563
 21
169.45945945945948
  0
LINE
  8
_1-3_
  6
CONTINUOUS
 62
    7
 10
250.71231326541385
 20
165.85945747994089
 11
254.31229050095018
 21
169.45945945945948
  0
LINE
  8
_1-3_
  6
CONTINUOUS
 62
    7
 10
247.88385339685391
 20
165.85945747994089
 11
251.48383063239021
 21
169.45945945945948
  0
LINE
  8
_1-3_
  6
CONTINUOUS
 62
    7
 10
245.05544301625847
 20
165.85945747994089
 11
248.65542025179477
 21
169.45945945945948
  0
LINE
  8
_1-3_
  6
CONTINUOUS
 62
    7
 10
242.22698314769849
 20
165.85945747994089
 11
245.82698512721709
 21
169.45945945945948
  0
LINE
  8
_1-3_
  6
CONTINUOUS
 62
    7
 10
239.39857276710305
 20
165.85945747994089
 11
242.99859949060391
 21
169.45945945945948
  0
LINE
  8
_1-3_
  6
CONTINUOUS
 62
    7
 10
236.57013764252534
 20
165.85945747994089
 11
240.17013962204393
 21
169.45945945945948
  0
LINE
  8
_1-3_
  6
CONTINUOUS
 62
    7
 10
233.74170251794766
 20
165.85945747994089
 11
237.34170449746622
 21
169.45945945945948
  0
LINE
  8
_1-3_
  6
CONTINUOUS
 62
    7
 10
230.91326739336995
 20
165.85945747994089
 11
234.51326937288852
 21
169.45945945945948
  0
LINE
  8
_1-3_
  6
CONTINUOUS
 62
    7
 10
228.08483226879224
 20
165.85945747994089
 11
231.68483424831084
 21
169.45945945945948
  0
LINE
  8
_1-3_
  6
CONTINUOUS
 62
    7
 10
225.2564218881968
 20
165.85945747994089
 11
228.85642386771539
 21
169.45945945945948
  0
LINE
  8
_1-3_
  6
CONTINUOUS
 62
    7
 10
222.42798676361909
 20
165.85945747994089
 11
226.02798874313768
 21
169.45945945945948
  0
LINE
  8
_1-3_
  6
CONTINUOUS
 62
    7
 10
219.59957638302367
 20
165.85945747994089
 11
223.19957836254224
 21
169.45945945945948
  0
LINE
  8
_1-3_
  6
CONTINUOUS
 62
    7
 10
216.77114125844597
 20
165.85945747994089
 11
220.37114323796453
 21
169.45945945945948
  0
LINE
  8
_1-3_
  6
CONTINUOUS
 62
    7
 10
213.94270613386826
 20
165.85945747994089
 11
217.54270811338682
 21
169.45945945945948
  0
LINE
  8
_1-3_
  6
CONTINUOUS
 62
    7
 10
211.11427100929055
 20
165.85945747994089
 11
214.71427298880914
 21
169.45945945945948
  0
LINE
  8
_1-3_
  6
CONTINUOUS
 62
    7
 10
208.2858606286951
 20
165.85945747994089
 11
211.8858626082137
 21
169.45945945945948
  0
LINE
  8
_1-3_
  6
CONTINUOUS
 62
    7
 10
205.45742550411742
 20
165.85945747994089
 11
209.05745222761826
 21
169.45945945945948
  0
LINE
  8
_1-3_
  6
CONTINUOUS
 62
    7
 10
202.62899037953972
 20
165.85945747994089
 11
206.22899235905828
 21
169.45945945945948
  0
LINE
  8
_1-3_
  6
CONTINUOUS
 62
    7
 10
199.80057999894427
 20
165.85945747994089
 11
203.40056960647172
 21
169.45945945945948
  0
LINE
  8
_1-3_
  6
CONTINUOUS
 62
    7
 10
196.97214487436656
 20
165.85945747994089
 11
200.57214685388516
 21
169.45945945945948
  0
LINE
  8
_1-3_
  6
CONTINUOUS
 62
    7
 10
194.14370974978885
 20
165.85945747994089
 11
197.7436993573163
 21
169.45945945945948
  0
LINE
  8
_1-3_
  6
CONTINUOUS
 62
    7
 10
191.31527462521115
 20
165.85945747994089
 11
194.91528897672086
 21
169.45945945945948
  0
LINE
  8
_1-3_
  6
CONTINUOUS
 62
    7
 10
188.48686424461573
 20
165.85945747994089
 11
192.0868662241343
 21
169.45945945945948
  0
LINE
  8
_1-3_
  6
CONTINUOUS
 62
    7
 10
185.65842912003802
 20
165.85945747994089
 11
189.25843109955659
 21
169.45945945945948
  0
LINE
  8
_1-3_
  6
CONTINUOUS
 62
    7
 10
182.83001873944258
 20
165.85945747994089
 11
186.42999597497891
 21
169.45945945945948
  0
LINE
  8
_1-3_
  6
CONTINUOUS
 62
    7
 10
180.00158361486487
 20
165.85945747994089
 11
183.60158559438347
 21
169.45945945945948
  0
LINE
  8
_1-3_
  6
CONTINUOUS
 62
    7
 10
177.17314849028716
 20
165.85945747994089
 11
180.77315046980576
 21
169.45945945945948
  0
LINE
  8
_1-3_
  6
CONTINUOUS
 62
    7
 10
174.34473810969175
 20
165.85945747994089
 11
177.94472771721919
 21
169.45945945945948
  0
LINE
  8
_1-3_
  6
CONTINUOUS
 62
    7
 10
171.51630298511404
 20
165.85945747994089
 11
175.1163049646326
 21
169.45945945945948
  0
LINE
  8
_1-3_
  6
CONTINUOUS
 62
    7
 10
168.68788023252745
 20
165.85945747994089
 11
172.2878698400549
 21
169.45945945945948
  0
LINE
  8
_1-3_
  6
CONTINUOUS
 62
    7
 10
165.85945747994089
 20
165.85945747994089
 11
169.45944708746833
 21
169.45945945945948
  0
LINE
  8
_1-3_
  6
CONTINUOUS
 62
    7
 10
163.03102235536318
 20
165.85945747994089
 11
166.63101196289062
 21
169.45945945945948
  0
LINE
  8
_1-3_
  6
CONTINUOUS
 62
    7
 10
160.20258723078547
 20
165.85945747994089
 11
163.80258921030406
 21
169.45945945945948
  0
LINE
  8
_1-3_
  6
CONTINUOUS
 62
    7
 10
157.37415210620779
 20
165.85945747994089
 11
160.97414171373524
 21
169.45945945945948
  0
LINE
  8
_1-3_
  6
CONTINUOUS
 62
    7
 10
154.54574172561234
 20
165.85945747994089
 11
158.14574370513091
 21
169.45945945945948
  0
LINE
  8
_1-3_
  6
CONTINUOUS
 62
    7
 10
151.71731897302575
 20
165.85945747994089
 11
155.31730858055323
 21
169.45945945945948
  0
LINE
  8
_1-3_
  6
CONTINUOUS
 62
    7
 10
148.88889622043919
 20
165.85945747994089
 11
152.48889819995779
 21
169.45945945945948
  0
LINE
  8
_1-3_
  6
CONTINUOUS
 62
    7
 10
146.06046109586148
 20
165.85945747994089
 11
149.66045070338893
 21
169.45945945945948
  0
LINE
  8
_1-3_
  6
CONTINUOUS
 62
    7
 10
143.2320259712838
 20
165.85945747994089
 11
146.83202795080237
 21
169.45945945945948
  0
LINE
  8
_1-3_
  6
CONTINUOUS
 62
    7
 10
140.40361559068836
 20
165.85945747994089
 11
144.00360519821581
 21
169.45945945945948
  0
LINE
  8
_1-3_
  6
CONTINUOUS
 62
    7
 10
137.57518046611065
 20
165.85945747994089
 11
141.1751700736381
 21
169.45945945945948
  0
LINE
  8
_1-3_
  6
CONTINUOUS
 62
    7
 10
134.74674534153294
 20
165.85945747994089
 11
138.34673494906039
 21
169.45945945945948
  0
LINE
  8
_1-3_
  6
CONTINUOUS
 62
    7
 10
131.9183349609375
 20
165.85945747994089
 11
135.51832456846495
 21
169.45945945945948
  0
LINE
  8
_1-3_
  6
CONTINUOUS
 62
    7
 10
129.08989983635979
 20
165.85945747994089
 11
132.68990181587839
 21
169.45945945945948
  0
LINE
  8
_1-3_
  6
CONTINUOUS
 62
    7
 10
126.2614647117821
 20
165.85945747994089
 11
129.86146669130068
 21
169.45945945945948
  0
LINE
  8
_1-3_
  6
CONTINUOUS
 62
    7
 10
123.4330295872044
 20
165.85945747994089
 11
127.03303156672298
 21
169.45945945945948
  0
LINE
  8
_1-3_
  6
CONTINUOUS
 62
    7
 10
120.60461920660896
 20
165.85945747994089
 11
124.20462118612754
 21
169.45945945945948
  0
LINE
  8
_1-3_
  6
CONTINUOUS
 62
    7
 10
117.77618408203125
 20
165.85945747994089
 11
121.37617368955871
 21
169.45945945945948
  0
LINE
  8
_1-3_
  6
CONTINUOUS
 62
    7
 10
114.94776132944469
 20
165.85945747994089
 11
118.54775093697214
 21
169.45945945945948
  0
LINE
  8
_1-3_
  6
CONTINUOUS
 62
    7
 10
112.11933857685811
 20
165.85945747994089
 11
115.71932818438556
 21
169.45945945945948
  0
LINE
  8
_1-3_
  6
CONTINUOUS
 62
    7
 10
109.29090345228042
 20
165.85945747994089
 11
112.89089305980787
 21
169.45945945945948
  0
LINE
  8
_1-3_
  6
CONTINUOUS
 62
    7
 10
106.46246832770271
 20
165.85945747994089
 11
110.06245793523016
 21
169.45945945945948
  0
LINE
  8
_1-3_
  6
CONTINUOUS
 62
    7
 10
103.63404557511613
 20
165.85945747994089
 11
107.23403518264358
 21
169.45945945945948
  0
LINE
  8
_1-3_
  6
CONTINUOUS
 62
    7
 10
100.805616636534
 20
165.85945747994089
 11
104.40560005806589
 21
169.45945945945948
  0
LINE
  8
_1-3_
  6
CONTINUOUS
 62
    7
 10
97.977187697951862
 20
165.85945747994089
 11
101.57718967747044
 21
169.45945945945948
  0
LINE
  8
_1-3_
  6
CONTINUOUS
 62
    7
 10
95.148764945365286
 20
165.85945747994089
 11
98.748754552892748
 21
169.45945945945948
  0
LINE
  8
_1-3_
  6
CONTINUOUS
 62
    7
 10
92.320342192778725
 20
165.85945747994089
 11
95.920344172297305
 21
169.45945945945948
  0
LINE
  8
_1-3_
  6
CONTINUOUS
 62
    7
 10
89.491907068201016
 20
165.85945747994089
 11
93.091909047719597
 21
169.45945945945948
  0
LINE
  8
_1-3_
  6
CONTINUOUS
 62
    7
 10
86.663484315614454
 20
165.85945747994089
 11
90.263473923141902
 21
169.45945945945948
  0
LINE
  8
_1-3_
  6
CONTINUOUS
 62
    7
 10
83.835055377032305
 20
165.85945747994089
 11
87.435063542546459
 21
169.45945945945948
  0
LINE
  8
_1-3_
  6
CONTINUOUS
 62
    7
 10
81.006626438450155
 20
165.85945747994089
 11
84.60662841796875
 21
169.45945945945948
  0
LINE
  8
_1-3_
  6
CONTINUOUS
 62
    7
 10
78.178203685863593
 20
165.85945747994089
 11
81.778193293391041
 21
169.45945945945948
  0
LINE
  8
_1-3_
  6
CONTINUOUS
 62
    7
 10
75.349774747281458
 20
165.85945747994089
 11
78.949758168813332
 21
169.45945945945948
  0
LINE
  8
_1-3_
  6
CONTINUOUS
 62
    7
 10
72.521339622703749
 20
165.85945747994089
 11
76.121347788217918
 21
169.45945945945948
  0
LINE
  8
_1-3_
  6
CONTINUOUS
 62
    7
 10
69.692923056112761
 20
165.85945747994089
 11
73.292912663640209
 21
169.45945945945948
  0
LINE
  8
_1-3_
  6
CONTINUOUS
 62
    7
 10
66.864494117530626
 20
165.85945747994089
 11
70.464502283044766
 21
169.45945945945948
  0
LINE
  8
_1-3_
  6
CONTINUOUS
 62
    7
 10
65.544192339922915
 20
167.36759082691091
 11
67.636067158467085
 21
169.45945945945948
  0
LINE
  8
_1-0_
  6
CONTINUOUS
 62
    7
 10
315.2969030431799
 20
178.45946440825591
 11
315.2969030431799
 21
141.85945253114443
  0
LINE
  8
_1-0_
  6
CONTINUOUS
 62
    7
 10
315.2969030431799
 20
140.65945599530195
 11
315.2969030431799
 21
136.65945517050255
  0
ARC
  8
_1-1_
  6
CONTINUOUS
 62
    3
 10
73.846138619087839
 20
181.39254183382602
 40
4.1404008865356445
 50
201.73239135742187
 51
266.59201049804687
  0
ARC
  8
_1-1_
  6
CONTINUOUS
 62
    3
 10
117.39534945101352
 20
180.00581483583193
 40
2.7463450302948824
 50
270.09652709960937
 51
356.94560241699224
  0
ARC
  8
_1-1_
  6
CONTINUOUS
 62
    3
 10
135.04612278293919
 20
181.39254183382602
 40
4.1404008865356445
 50
201.73239135742187
 51
266.59201049804687
  0
ARC
  8
_1-1_
  6
CONTINUOUS
 62
    3
 10
178.59533361486487
 20
180.00581483583193
 40
2.7463450302948824
 50
270.09652709960937
 51
356.94560241699224
  0
ARC
  8
_1-1_
  6
CONTINUOUS
 62
    3
 10
196.24610694679055
 20
181.39254183382602
 40
4.1404008865356445
 50
201.73239135742187
 51
266.59201049804687
  0
ARC
  8
_1-1_
  6
CONTINUOUS
 62
    3
 10
239.79531777871622
 20
180.00581483583193
 40
2.7463450302948824
 50
270.09652709960937
 51
356.94560241699224
  0
ARC
  8
_1-1_
  6
CONTINUOUS
 62
    3
 10
257.44611585462417
 20
181.39254183382602
 40
4.1404008865356445
 50
201.73239135742187
 51
266.59201049804687
  0
ARC
  8
_1-1_
  6
CONTINUOUS
 62
    3
 10
300.99532668654984
 20
180.00581483583193
 40
2.7463450302948824
 50
270.09652709960937
 51
356.94560241699224
  0
ARC
  8
_1-1_
  6
CONTINUOUS
 62
    3
 10
326.29691459037161
 20
182.05946638777451
 40
0.9999999162313101
 50
0
 51
90
  0
ARC
  8
_1-3_
  6
CONTINUOUS
 62
    3
 10
306.29689809438344
 20
164.85945418074326
 40
0.9999999162313101
 50
90
 51
180
  0
ARC
  8
_1-3_
  6
CONTINUOUS
 62
    3
 10
306.69690931165542
 20
164.45945533546242
 40
0.9999999162313101
 50
90
 51
180
  0
ARC
  8
_1-3_
  6
CONTINUOUS
 62
    3
 10
313.89686378272808
 20
164.45945533546242
 40
0.9999999162313101
 50
0
 51
90
  0
ARC
  8
_1-3_
  6
CONTINUOUS
 62
    3
 10
314.296875
 20
164.85945418074326
 40
0.9999999162313101
 50
0
 51
90
  0
ARC
  8
_1-3_
  6
CONTINUOUS
 62
    3
 10
313.89686378272808
 20
147.25945550042232
 40
0.9999999162313101
 50
270
 51
0
  0
ARC
  8
_1-3_
  6
CONTINUOUS
 62
    3
 10
314.296875
 20
146.85945665514149
 40
0.9999999162313101
 50
270
 51
0
  0
ARC
  8
_1-3_
  6
CONTINUOUS
 62
    3
 10
306.69690931165542
 20
147.25945550042232
 40
0.9999999162313101
 50
180
 51
270
  0
ARC
  8
_1-3_
  6
CONTINUOUS
 62
    3
 10
306.29689809438344
 20
146.85945665514149
 40
0.9999999162313101
 50
180
 51
270
  0
ARC
  8
_1-3_
  6
CONTINUOUS
 62
    3
 10
126.29691046637458
 20
164.85945418074326
 40
0.9999999162313101
 50
90
 51
180
  0
ARC
  8
_1-3_
  6
CONTINUOUS
 62
    3
 10
126.69692168364655
 20
164.45945533546242
 40
0.9999999162313101
 50
90
 51
180
  0
ARC
  8
_1-3_
  6
CONTINUOUS
 62
    3
 10
133.89687615471917
 20
164.45945533546242
 40
0.9999999162313101
 50
0
 51
90
  0
ARC
  8
_1-3_
  6
CONTINUOUS
 62
    3
 10
134.29688737199115
 20
164.85945418074326
 40
0.9999999162313101
 50
0
 51
90
  0
ARC
  8
_1-3_
  6
CONTINUOUS
 62
    3
 10
133.89687615471917
 20
147.25945550042232
 40
0.9999999162313101
 50
270
 51
0
  0
ARC
  8
_1-3_
  6
CONTINUOUS
 62
    3
 10
134.29688737199115
 20
146.85945665514149
 40
0.9999999162313101
 50
270
 51
0
  0
ARC
  8
_1-3_
  6
CONTINUOUS
 62
    3
 10
126.69692168364655
 20
147.25945550042232
 40
0.9999999162313101
 50
180
 51
270
  0
ARC
  8
_1-3_
  6
CONTINUOUS
 62
    3
 10
126.29691046637458
 20
146.85945665514149
 40
0.9999999162313101
 50
180
 51
270
  0
TEXT
  8
_0-0_
 62
    7
 10
147.56756962956609
 20
22.702702702702709
 40
2.5
 41
1
 50
0
  1
図名
  0
TEXT
  8
_0-0_
 62
    7
 10
147.56756962956609
 20
12.972972972972968
 40
2.5
 41
1
 50
0
  1
縮尺
  0
TEXT
  8
_0-0_
 62
    7
 10
382.77784605284
 20
21.243871740392734
 40
2.5
 41
1
 50
0
  1
ＮＯ
  0
TEXT
  8
_0-0_
 62
    7
 10
20.270270012520456
 20
22.702702702702709
 40
2.5
 41
1
 50
0
  1
Ｆ形
  0
TEXT
  8
_0-0_
 62
    7
 10
389.99062615471917
 20
16.178650211643514
 40
2.5
 41
1
 50
0
  1
Ｆ
  0
TEXT
  8
_0-0_
 62
    7
 10
171.37221877639359
 20
12.362518826046511
 40
2.5
 41
1
 50
0
  1
1/5
  0
TEXT
  8
_1-2_
 62
    7
 10
158.7249755859375
 20
212.93243408203125
 40
2.5
 41
1
 50
0
  1
306
  0
TEXT
  8
_1-2_
 62
    7
 10
219.92495974978885
 20
212.93243408203125
 40
2.5
 41
1
 50
0
  1
306
  0
TEXT
  8
_1-2_
 62
    7
 10
281.12499340160474
 20
212.93243408203125
 40
2.5
 41
1
 50
0
  1
306
  0
TEXT
  8
_1-2_
 62
    7
 10
97.625006598395274
 20
212.93243408203125
 40
2.5
 41
1
 50
0
  1
306
  0
TEXT
  8
_0-1_
 62
    7
 10
227.36824241844386
 20
123.33247004328548
 40
2.5
 41
1
 50
0
  1
桟瓦
  0
TEXT
  8
_0-1_
 62
    7
 10
227.36824654244089
 20
108.89752362225508
 40
2.5
 41
1
 50
0
  1
流し桟
  0
TEXT
  8
_1-2_
 62
    7
 10
323.17191871436864
 20
113.98630915461361
 40
2.5
 41
1
 50
0
  1
5
  0
TEXT
  8
_1-2_
 62
    7
 10
322.6719170647699
 20
113.98630915461361
 40
2.5
 41
1
 50
0
  1
0
  0
TEXT
  8
_1-2_
 62
    7
 10
318.04690386797932
 20
113.98630915461361
 40
2.5
 41
1
 50
0
  1
40
  0
TEXT
  8
_0-1_
 62
    7
 10
292.38202069256761
 20
197.18041497307857
 40
2.5
 41
1
 50
0
  1
捨水切
  0
TEXT
  8
_1-0_
 62
    7
 10
344.7088623046875
 20
99.204588194151185
 40
2.5
 41
1
 50
0
  1
破風板　40ｘ200
  0
TEXT
  8
_1-0_
 62
    7
 10
340.02400991078969
 20
204.61703326251057
 40
2.5
 41
1
 50
0
  1
右袖瓦
  0
TEXT
  8
_1-0_
 62
    7
 10
45.397582698512736
 20
13.77361400707349
 40
2.5
 41
1
 50
0
  1
袖　2
  0
TEXT
  8
_1-3_
 62
    7
 10
349.78207150021115
 20
172.70945574786214
 40
2.5
 41
1
 50
90
  1
45
  0
TEXT
  8
_1-3_
 62
    7
 10
31.231869362496042
 20
18.589955922719582
 40
2.5
 41
1
 50
0
  1
Ｓ
  0
TEXT
  8
_1-3_
 62
    7
 10
227.36824241844386
 20
88.323595201646967
 40
2.5
 41
1
 50
0
  1
垂木　　Ｃ－100ｘ50ｘ20ｘ2.3
  0
TEXT
  8
_1-3_
 62
    7
 10
227.36825066643792
 20
101.92893775733742
 40
2.5
 41
1
 50
0
  1
下葺き材
  0
TEXT
  8
_1-3_
 62
    7
 10
240.82020940007391
 20
102.29127626161318
 40
2.5
 41
1
 50
0
  1
ゴムアス系ルーフィング
  0
TEXT
  8
_1-3_
 62
    7
 10
241.92214141020906
 20
95.564538079339115
 40
2.5
 41
1
 50
0
  1
硬質木片セメント板　ｔ＝18
  0
TEXT
  8
_1-3_
 62
    7
 10
227.36824654244089
 20
95.126266479492187
 40
2.5
 41
1
 50
0
  1
野地板
  0
POINT
  8
_1-2_
 62
    7
 10
69.000004948796459
 20
212.43243243243245
  0
POINT
  8
_1-2_
 62
    7
 10
129.99998350401182
 20
212.43243243243245
  0
POINT
  8
_1-2_
 62
    7
 10
191.19996766786318
 20
212.43243243243245
  0
POINT
  8
_1-2_
 62
    7
 10
252.3999765756968
 20
212.43243243243245
  0
POINT
  8
_1-2_
 62
    7
 10
313.59998548353042
 20
212.43243243243245
  0
POINT
  8
_1-2_
 62
    7
 10
324.29690799197635
 20
113.48630750501479
  0
POINT
  8
_1-2_
 62
    7
 10
323.29690469277875
 20
113.48630750501479
  0
POINT
  8
_1-2_
 62
    7
 10
315.2969030431799
 20
113.48630750501479
  0
POINT
  8
_1-3_
 62
    7
 10
350.28207314981
 20
169.45945945945948
  0
POINT
  8
_1-3_
 62
    7
 10
350.28207314981
 20
178.45946440825591
  0
TEXT
  8
_1-3_
 62
    7
 10
399.33840777422932
 20
14.096054386448202
 40
2.5
 41
1
 50
0
  1
30
  0
TEXT
  8
_1-3_
 62
    7
 10
227.36825066643792
 20
116.03203026024072
 40
2.5
 41
1
 50
0
  1
瓦桟　
  0
TEXT
  8
_1-3_
 62
    7
 10
239.1065275933226
 20
112.99275548916808
 40
2.5
 41
1
 50
0
  1
※　地域により瓦桟木の大きさは、異なります
  0
TEXT
  8
_1-3_
 62
    7
 10
238.69232781747559
 20
116.17683367432537
 40
2.5
 41
1
 50
0
  1
15×30　（防腐処理）
  0
TEXT
  8
_1-3_
 62
    7
 10
265.35740487983145
 20
88.314701509685733
 40
2.5
 41
1
 50
0
  1
＠606
  0
TEXT
  8
_1-3_
 62
    7
 10
251.93011647254576
 20
57.651414309484181
 40
3
 41
1
 50
0
  1
※　耐火仕様ではありません
  0
ENDSEC
  0
EOF
