  0
SECTION
  2
HEADER
  9
$ACADVER
  1
AC1009
  9
$INSBASE
 10
0
 20
0
 30
0
  9
$EXTMIN
 10
0
 20
0
  9
$EXTMAX
 10
420
 20
297
  9
$LIMMIN
 10
0
 20
0
  9
$LIMMAX
 10
420
 20
297
  9
$LTSCALE
 40
1
  0
ENDSEC
  0
SECTION
  2
TABLES
  0
TABLE
  2
LTYPE
 70
     9
  0
LTYPE
  2
CONTINUOUS
 70
    64
  3
実線
 72
    65
 73
     0
 40
0.0
  0
LTYPE
  2
DASHED1
 70
    64
  3
--  --  --  --  --  --  --  --  
 72
    65
 73
     2
 40
2.5
 49
1.25
 49
-1.25
  0
LTYPE
  2
DASHED2
 70
    64
  3
----    ----    ----    ----    
 72
    65
 73
     2
 40
5.0
 49
2.5
 49
-2.5
  0
LTYPE
  2
DASHED3
 70
    64
  3
------  ------  ------  ------  
 72
    65
 73
     2
 40
5.0
 49
3.75
 49
-1.25
  0
LTYPE
  2
CENTER1
 70
    64
  3
----- - ----- - ----- - ----- - 
 72
    65
 73
     4
 40
10.0
 49
6.25
 49
-1.25
 49
1.25
 49
-1.25
  0
LTYPE
  2
CENTER2
 70
    64
  3
----------  --  ----------  --  
 72
    65
 73
     4
 40
20.0
 49
12.5
 49
-2.5
 49
2.5
 49
-2.5
  0
LTYPE
  2
PHANTOM1
 70
    64
  3
--- - - --- - - --- - - --- - - 
 72
    65
 73
     6
 40
10.0
 49
3.25
 49
-1.25
 49
1.25
 49
-1.25
 49
1.25
 49
-1.25
  0
LTYPE
  2
PHANTOM2
 70
    64
  3
--------  -  -  --------  -  -  
 72
    65
 73
     6
 40
20.0
 49
10.0
 49
-2.5
 49
1.25
 49
-2.5
 49
1.25
 49
-2.5
  0
LTYPE
  2
DOT
 70
    64
  3
-   -   -   -   -   -   -   -   
 72
    65
 73
     2
 40
2.5
 49
0.625
 49
-1.875
  0
LTYPE
  2
DUMMY
 70
    64
  3
ダミー
 72
    65
 73
     0
 40
0.0
  0
LTYPE
  2
RAND1
 70
    64
  3
ランダム線1
 72
    65
 73
     4
 40
10.0
 49
1.0
 49
-2.0
 49
3.0
 49
-4.0
  0
LTYPE
  2
RAND2
 70
    64
  3
ランダム線2
 72
    65
 73
     4
 40
14.0
 49
2.0
 49
-3.0
 49
4.0
 49
-5.0
  0
LTYPE
  2
RAND3
 70
    64
  3
ランダム線3
 72
    65
 73
     4
 40
18.0
 49
3.0
 49
-4.0
 49
5.0
 49
-6.0
  0
LTYPE
  2
RAND4
 70
    64
  3
ランダム線4
 72
    65
 73
     4
 40
22.0
 49
4.0
 49
-5.0
 49
6.0
 49
-7.0
  0
LTYPE
  2
RAND5
 70
    64
  3
ランダム線5
 72
    65
 73
     4
 40
26.0
 49
5.0
 49
-6.0
 49
7.0
 49
-8.0
  0
LTYPE
  2
LONG1
 70
    64
  3
----------  --  ----------  --  
 72
    65
 73
     4
 40
40.0
 49
32.5
 49
-2.5
 49
2.5
 49
-2.5
  0
LTYPE
  2
LONG2
 70
    64
  3
--------  -  -  --------  -  -  
 72
    65
 73
     6
 40
40.0
 49
30.0
 49
-2.5
 49
1.25
 49
-2.5
 49
1.25
 49
-2.5
  0
LTYPE
  2
LONG3
 70
    64
  3
+++++++++++++++..+++++++++++++++
 72
    65
 73
     2
 40
40.0
 49
37.5
 49
-2.5
  0
LTYPE
  2
LONG4
 70
    64
  3
+++++++++++++++..+++++++++++++++
 72
    65
 73
     2
 40
80.0
 49
75.0
 49
-5.0
  0
LTYPE
  2
LONG5
 70
    64
  3
----------  --  ----------  --  
 72
    65
 73
     4
 40
60.0
 49
37.5
 49
-7.5
 49
7.5
 49
-7.5
  0
LTYPE
  2
dashed
 70
   64
  3
-------   -------------   ------
 72
   65
 73
    2
 40
7.5
 49
6
 49
-1.5
  0
LTYPE
  2
dashed_spaced
 70
   64
  3
----        --------        ----
 72
   65
 73
    2
 40
12
 49
6
 49
-6
  0
LTYPE
  2
long_dashed_dotted
 70
   64
  3
------------- --- --------------
 72
   65
 73
    4
 40
15.25
 49
12
 49
-1.5
 49
0.25
 49
-1.5
  0
LTYPE
  2
long_dashed_double-dotted
 70
   64
  3
----------- --- --- ------------
 72
   65
 73
    6
 40
17
 49
12
 49
-1.5
 49
0.25
 49
-1.5
 49
0.25
 49
-1.5
  0
LTYPE
  2
long_dashed_triplicate-dotted
 70
   64
  3
--------- --- --- --- ----------
 72
   65
 73
    8
 40
18.75
 49
12
 49
-1.5
 49
0.25
 49
-1.5
 49
0.25
 49
-1.5
 49
0.25
 49
-1.5
  0
LTYPE
  2
dotted
 70
   64
  3
   -       -       -       -    
 72
   65
 73
    2
 40
1.75
 49
0.25
 49
-1.5
  0
LTYPE
  2
chain
 70
   64
  3
-------------- -- --------------
 72
   65
 73
    4
 40
18.5
 49
12
 49
-1.5
 49
3.5
 49
-1.5
  0
LTYPE
  2
chain_double_dash
 70
   64
  3
------------ -- -- -------------
 72
   65
 73
    6
 40
23.5
 49
12
 49
-1.5
 49
3.5
 49
-1.5
 49
3.5
 49
-1.5
  0
LTYPE
  2
dashed_dotted
 70
   64
  3
-----------     -     ----------
 72
   65
 73
    4
 40
9.25
 49
6
 49
-1.5
 49
0.25
 49
-1.5
  0
LTYPE
  2
double-dashed_dotted
 70
   64
  3
------   -----------   -   -----
 72
   65
 73
    6
 40
16.75
 49
6
 49
-1.5
 49
6
 49
-1.5
 49
0.25
 49
-1.5
  0
LTYPE
  2
dashed_double-dotted
 70
   64
  3
---------    -    -    ---------
 72
   65
 73
    6
 40
11
 49
6
 49
-1.5
 49
0.25
 49
-1.5
 49
0.25
 49
-1.5
  0
LTYPE
  2
double-dashed_double-dotted
 70
   64
  3
-----   ---------   -   -   ----
 72
   65
 73
    8
 40
18.5
 49
6
 49
-1.5
 49
6
 49
-1.5
 49
0.25
 49
-1.5
 49
0.25
 49
-1.5
  0
LTYPE
  2
dashed_triplicate-dotted
 70
   64
  3
-------    -    -    -    ------
 72
   65
 73
    8
 40
12.75
 49
6
 49
-1.5
 49
0.25
 49
-1.5
 49
0.25
 49
-1.5
 49
0.25
 49
-1.5
  0
LTYPE
  2
double-dashed_triplicate-dotted
 70
   64
  3
-----  ---------  -  -  -  -----
 72
   65
 73
   10
 40
20.25
 49
6
 49
-1.5
 49
6
 49
-1.5
 49
0.25
 49
-1.5
 49
0.25
 49
-1.5
 49
0.25
 49
-1.5
  0
LTYPE
  2
undefined
 70
   64
  3
--------------------------------
 72
   65
 73
    0
 40
0
  0
LTYPE
  2
DOT_17
 70
   64
  3
--             ---             -
 72
   65
 73
    2
 40
5
 49
1
 49
-4
  0
LTYPE
  2
DASHED
 70
   64
  3
---          ------          ---
 72
   65
 73
    2
 40
5
 49
2
 49
-3
  0
LTYPE
  2
DASHED2_19
 70
   64
  3
---          ------          ---
 72
   65
 73
    2
 40
10
 49
4
 49
-6
  0
LTYPE
  2
CENTER
 70
   64
  3
----------    ----    ----------
 72
   65
 73
    4
 40
9
 49
6
 49
-1
 49
1
 49
-1
  0
LTYPE
  2
CENTER2_21
 70
   64
  3
----------    ----    ----------
 72
   65
 73
    4
 40
18
 49
12
 49
-2
 49
2
 49
-2
  0
LTYPE
  2
PHANTOM
 70
   64
  3
---------   ---   ---   --------
 72
   65
 73
    6
 40
10
 49
5
 49
-1
 49
1
 49
-1
 49
1
 49
-1
  0
LTYPE
  2
PHANTOM2_23
 70
   64
  3
------    ----    ----    ------
 72
   65
 73
    6
 40
16
 49
6
 49
-2
 49
2
 49
-2
 49
2
 49
-2
  0
LTYPE
  2
HIDDEN
 70
   64
  3
--             ---             -
 72
   65
 73
    2
 40
2.5
 49
0.5
 49
-2
  0
ENDTAB
  0
TABLE
  2
STYLE
  5
3
100
AcDbSymbolTable
 70
     1
  0
STYLE
  5
10
100
AcDbSymbolTableRecord
100
AcDbTextStyleTableRecord
  2
STANDARD
 70
     0
 40
0.0
 41
1.0
 50
0.0
 71
     0
 42
0.2
  3
txt
  4
bigfont.shx
  0
STYLE
  5
26
100
AcDbSymbolTableRecord
100
AcDbTextStyleTableRecord
  2
TATEGAKI
 70
    68
 40
0.0
 41
1.0
 50
0.0
 71
     0
 42
1.0
  3
txt
  4
bigfont.shx
  0
ENDTAB
  0
TABLE
  2
LAYER
 70
    8
  0
LAYER
  2
_0-0_
 70
   64
 62
    7
  6
CONTINUOUS
  0
LAYER
  2
_0-1_
 70
   64
 62
    7
  6
CONTINUOUS
  0
LAYER
  2
_1-0_
 70
   64
 62
    7
  6
CONTINUOUS
  0
LAYER
  2
_1-1_
 70
   64
 62
    7
  6
CONTINUOUS
  0
LAYER
  2
_1-2_
 70
   64
 62
    7
  6
CONTINUOUS
  0
LAYER
  2
_1-3_
 70
   64
 62
    7
  6
CONTINUOUS
  0
LAYER
  2
_1-4_
 70
   64
 62
    7
  6
CONTINUOUS
  0
LAYER
  2
ADD_LINE
 70
   64
 62
    7
  6
CONTINUOUS
  0
ENDTAB
  0
ENDSEC
  0
SECTION
  2
BLOCKS
  0
ENDSEC
  0
SECTION
  2
ENTITIES
  0
LINE
  8
_0-0_
  6
CONTINUOUS
 62
    5
 10
12.432428308435391
 20
278.51351351351354
 11
412.43244892842063
 21
278.51351351351354
  0
LINE
  8
_0-0_
  6
CONTINUOUS
 62
    5
 10
412.43244892842063
 20
8.5135135135135158
 11
12.432428308435391
 21
8.5135135135135158
  0
LINE
  8
_0-0_
  6
CONTINUOUS
 62
    5
 10
412.43244892842063
 20
28.513511451515001
 11
12.432415936444272
 21
28.513511451515001
  0
LINE
  8
_0-0_
  6
CONTINUOUS
 62
    5
 10
377.43248192039698
 20
8.5135135135135158
 11
377.43248192039698
 21
28.513511451515001
  0
LINE
  8
_0-0_
  6
CONTINUOUS
 62
    5
 10
142.70271507469386
 20
28.513511451515001
 11
142.70271507469386
 21
8.5135135135135158
  0
LINE
  8
_0-0_
  6
CONTINUOUS
 62
    5
 10
220.54054054054055
 20
28.513511451515001
 11
220.54054054054055
 21
8.5135135135135158
  0
LINE
  8
_0-0_
  6
CONTINUOUS
 62
    5
 10
142.70271507469386
 20
18.513512482514244
 11
220.54054054054055
 21
18.513512482514244
  0
LINE
  8
_0-0_
  6
CONTINUOUS
 62
    5
 10
402.16218690614443
 20
24.324325870823216
 11
389.59456985061234
 21
11.756758303255651
  0
LINE
  8
_1-1_
  6
CONTINUOUS
 62
    7
 10
93.380003233213685
 20
86.063356141786329
 11
92.148903511665964
 21
88.799125052787161
  0
LINE
  8
_1-1_
  6
CONTINUOUS
 62
    7
 10
92.148903511665964
 20
88.799125052787161
 11
96.52615109005491
 21
90.768882132865286
  0
LINE
  8
_1-1_
  6
CONTINUOUS
 62
    7
 10
96.52615109005491
 20
90.768882132865286
 11
97.757238439611498
 21
88.033113221864454
  0
LINE
  8
_1-1_
  6
CONTINUOUS
 62
    7
 10
97.757238439611498
 20
88.033113221864454
 11
93.380003233213685
 21
86.063356141786329
  0
LINE
  8
_1-1_
  6
CONTINUOUS
 62
    7
 10
93.380003233213685
 20
86.063356141786329
 11
96.52615109005491
 21
90.768882132865286
  0
LINE
  8
_1-1_
  6
CONTINUOUS
 62
    7
 10
144.44759884396115
 20
109.04377292942357
 11
143.21651149440456
 21
111.77954184042441
  0
LINE
  8
_1-1_
  6
CONTINUOUS
 62
    7
 10
143.21651149440456
 20
111.77954184042441
 11
147.59374670080237
 21
113.74929892050254
  0
LINE
  8
_1-1_
  6
CONTINUOUS
 62
    7
 10
147.59374670080237
 20
113.74929892050254
 11
148.82483405035896
 21
111.01353000950169
  0
LINE
  8
_1-1_
  6
CONTINUOUS
 62
    7
 10
148.82483405035896
 20
111.01353000950169
 11
144.44759884396115
 21
109.04377292942357
  0
LINE
  8
_1-1_
  6
CONTINUOUS
 62
    7
 10
144.44759884396115
 20
109.04377292942357
 11
147.59374670080237
 21
113.74929892050254
  0
LINE
  8
_1-1_
  6
CONTINUOUS
 62
    7
 10
195.51519445470862
 20
132.02421446104307
 11
194.28410710515203
 21
134.75998337204393
  0
LINE
  8
_1-1_
  6
CONTINUOUS
 62
    7
 10
194.28410710515203
 20
134.75998337204393
 11
198.66134231154984
 21
136.72972808013091
  0
LINE
  8
_1-1_
  6
CONTINUOUS
 62
    7
 10
198.66134231154984
 20
136.72972808013091
 11
199.89242966110643
 21
133.99395916913008
  0
LINE
  8
_1-1_
  6
CONTINUOUS
 62
    7
 10
199.89242966110643
 20
133.99395916913008
 11
195.51519445470862
 21
132.02421446104307
  0
LINE
  8
_1-1_
  6
CONTINUOUS
 62
    7
 10
195.51519445470862
 20
132.02421446104307
 11
198.66134231154984
 21
136.72972808013091
  0
LINE
  8
_1-1_
  6
CONTINUOUS
 62
    7
 10
246.58279006545609
 20
155.00464362067146
 11
245.35170271589951
 21
157.74041253167232
  0
LINE
  8
_1-1_
  6
CONTINUOUS
 62
    7
 10
245.35170271589951
 20
157.74041253167232
 11
249.72893792229732
 21
159.7101572397593
  0
LINE
  8
_1-1_
  6
CONTINUOUS
 62
    7
 10
249.72893792229732
 20
159.7101572397593
 11
250.96002527185391
 21
156.97438832875847
  0
LINE
  8
_1-1_
  6
CONTINUOUS
 62
    7
 10
246.58279006545609
 20
155.00464362067146
 11
249.72893792229732
 21
159.7101572397593
  0
LINE
  8
_0-1_
  6
CONTINUOUS
 62
    7
 10
74.581257588154585
 20
144.71349767736487
 11
80.669316472233959
 21
144.71349767736487
  0
LINE
  8
_0-1_
  6
CONTINUOUS
 62
    7
 10
64.390102077174845
 20
172.71349107896961
 11
80.669316472233959
 21
172.71349107896961
  0
LINE
  8
_0-1_
  6
CONTINUOUS
 62
    7
 10
66.937890954919766
 20
165.71349272856841
 11
80.669316472233959
 21
165.71349272856841
  0
LINE
  8
_0-1_
  6
CONTINUOUS
 62
    7
 10
69.485679832664687
 20
158.71349437816724
 11
80.669316472233959
 21
158.71349437816724
  0
LINE
  8
_0-1_
  6
CONTINUOUS
 62
    7
 10
72.033468710409636
 20
151.71349602776607
 11
80.669316472233959
 21
151.71349602776607
  0
LINE
  8
_1-2_
  6
CONTINUOUS
 62
    3
 10
95.603819151182435
 20
96.149337356154987
 11
96.934105125633451
 21
96.585536647487331
  0
LINE
  8
_1-2_
  6
CONTINUOUS
 62
    3
 10
94.270415434966225
 20
95.08068187816724
 11
95.483291213576862
 21
95.478379533097552
  0
LINE
  8
_1-2_
  6
CONTINUOUS
 62
    3
 10
95.603819151182435
 20
96.149337356154987
 11
95.483291213576862
 21
95.478379533097552
  0
LINE
  8
_1-2_
  6
CONTINUOUS
 62
    3
 10
94.270415434966225
 20
95.08068187816724
 11
93.881019386085313
 21
93.058702623521967
  0
LINE
  8
_1-2_
  6
CONTINUOUS
 62
    3
 10
97.177165263407943
 20
94.560464395059128
 11
97.557257574957774
 21
94.685099833720443
  0
LINE
  8
_1-2_
  6
CONTINUOUS
 62
    7
 10
96.934105125633451
 20
96.585536647487331
 11
97.557257574957774
 21
94.685099833720443
  0
LINE
  8
_1-2_
  6
CONTINUOUS
 62
    3
 10
97.177165263407943
 20
94.560464395059128
 11
98.236529376055742
 21
91.329716862858959
  0
LINE
  8
_1-2_
  6
CONTINUOUS
 62
    7
 10
96.52615109005491
 20
90.768882132865286
 11
97.844065073374168
 21
88.675306165540547
  0
LINE
  8
_1-2_
  6
CONTINUOUS
 62
    7
 10
97.844065073374168
 20
88.675306165540547
 11
99.364409575591225
 21
89.173823176203555
  0
LINE
  8
_1-2_
  6
CONTINUOUS
 62
    3
 10
96.934105125633451
 20
96.585536647487331
 11
97.557257574957774
 21
94.685099833720443
  0
LINE
  8
_1-2_
  6
CONTINUOUS
 62
    7
 10
97.557257574957774
 20
94.685099833720443
 11
99.364409575591225
 21
89.173823176203555
  0
LINE
  8
ADD_LINE
  6
DOT
 62
    4
 10
95.416878365181589
 20
96.71947582347974
 11
96.747164339632604
 21
97.155675114812084
  0
LINE
  8
ADD_LINE
  6
DOT
 62
    4
 10
96.747164339632604
 20
97.155675114812084
 11
147.59374670080237
 21
113.74929892050254
  0
LINE
  8
_1-2_
  6
CONTINUOUS
 62
    3
 10
146.67896167652029
 20
119.13104083086994
 11
148.00986625052789
 21
119.56538432353253
  0
LINE
  8
_1-2_
  6
CONTINUOUS
 62
    3
 10
145.34404857738599
 20
118.06425352354309
 11
146.5574934675887
 21
118.46025621568835
  0
LINE
  8
_1-2_
  6
CONTINUOUS
 62
    3
 10
146.67896167652029
 20
119.13104083086994
 11
146.5574934675887
 21
118.46025621568835
  0
LINE
  8
_1-2_
  6
CONTINUOUS
 62
    3
 10
145.34404857738599
 20
118.06425352354309
 11
144.95183171452703
 21
116.04283100849874
  0
LINE
  8
_1-2_
  6
CONTINUOUS
 62
    3
 10
148.25008083034206
 20
117.53996565535263
 11
148.63034634976773
 21
117.66405672640414
  0
LINE
  8
_1-2_
  6
CONTINUOUS
 62
    7
 10
148.00986625052789
 20
119.56538432353253
 11
148.63034634976773
 21
117.66405672640414
  0
LINE
  8
_1-2_
  6
CONTINUOUS
 62
    3
 10
148.25008083034206
 20
117.53996565535263
 11
149.30491679423565
 21
114.30773348421664
  0
LINE
  8
_1-2_
  6
CONTINUOUS
 62
    7
 10
147.59374670080237
 20
113.74929892050254
 11
148.90871615023227
 21
111.65386715450803
  0
LINE
  8
_1-2_
  6
CONTINUOUS
 62
    7
 10
148.90871615023227
 20
111.65386715450803
 11
150.42975348395271
 21
112.15025618269638
  0
LINE
  8
_1-2_
  6
CONTINUOUS
 62
    3
 10
84.069919070682019
 20
89.862782246357696
 11
83.096466064453125
 21
94.80462564004435
  0
LINE
  8
_1-2_
  6
CONTINUOUS
 62
    3
 10
86.011072107263516
 20
96.807688120249168
 11
144.95183171452703
 21
116.04283100849874
  0
LINE
  8
_1-2_
  6
CONTINUOUS
 62
    3
 10
84.069919070682019
 20
89.862782246357696
 11
85.542940706820104
 21
90.506298993084883
  0
LINE
  8
_1-2_
  6
CONTINUOUS
 62
    3
 10
86.418654983108112
 20
93.784987990920612
 11
149.30491679423565
 21
114.30773348421664
  0
LINE
  8
_1-2_
  6
CONTINUOUS
 62
    3
 10
85.731959987331081
 20
92.912651268211576
 11
85.542940706820104
 21
90.506298993084883
  0
LINE
  8
_1-2_
  6
CONTINUOUS
 62
    3
 10
148.00986625052789
 20
119.56538432353253
 11
148.63034634976773
 21
117.66405672640414
  0
LINE
  8
_1-2_
  6
CONTINUOUS
 62
    7
 10
148.63034634976773
 20
117.66405672640414
 11
150.42975348395271
 21
112.15025618269638
  0
LINE
  8
_1-2_
  6
CONTINUOUS
 62
    3
 10
197.74655728726773
 20
142.11146999049831
 11
199.07746186127534
 21
142.54580111116977
  0
LINE
  8
_1-2_
  6
CONTINUOUS
 62
    3
 10
196.41164418813347
 20
141.04468268317146
 11
197.62508907833615
 21
141.44068537531672
  0
LINE
  8
_1-2_
  6
CONTINUOUS
 62
    3
 10
197.74655728726773
 20
142.11146999049831
 11
197.62508907833615
 21
141.44068537531672
  0
LINE
  8
_1-2_
  6
CONTINUOUS
 62
    3
 10
196.41164418813347
 20
141.04468268317146
 11
196.01942732527451
 21
139.02324779613599
  0
LINE
  8
_1-2_
  6
CONTINUOUS
 62
    3
 10
199.31767644108953
 20
140.52038244298987
 11
199.69794196051521
 21
140.64449825802365
  0
LINE
  8
_1-2_
  6
CONTINUOUS
 62
    7
 10
199.07746186127534
 20
142.54580111116977
 11
199.69794196051521
 21
140.64449825802365
  0
LINE
  8
_1-2_
  6
CONTINUOUS
 62
    3
 10
199.31767644108953
 20
140.52038244298987
 11
200.37251240498313
 21
137.28815027185388
  0
LINE
  8
_1-2_
  6
CONTINUOUS
 62
    7
 10
198.66134231154984
 20
136.72972808013091
 11
199.97631176097974
 21
134.63430868612755
  0
LINE
  8
_1-2_
  6
CONTINUOUS
 62
    7
 10
199.97631176097974
 20
134.63430868612755
 11
201.49734909470018
 21
135.13069771431589
  0
LINE
  8
_1-2_
  6
CONTINUOUS
 62
    3
 10
135.13752705342063
 20
112.84321140598607
 11
134.16404930320948
 21
117.78505479967272
  0
LINE
  8
_1-2_
  6
CONTINUOUS
 62
    3
 10
137.07866771801099
 20
119.78811727987754
 11
196.01942732527451
 21
139.02324779613599
  0
LINE
  8
_1-2_
  6
CONTINUOUS
 62
    3
 10
135.13752705342063
 20
112.84321140598607
 11
136.61053631756758
 21
113.48672815271327
  0
LINE
  8
_1-2_
  6
CONTINUOUS
 62
    3
 10
137.48625059385557
 20
116.765417150549
 11
200.37251240498313
 21
137.28815027185388
  0
LINE
  8
_1-2_
  6
CONTINUOUS
 62
    3
 10
136.79955559807854
 20
115.89308042783996
 11
136.61053631756758
 21
113.48672815271327
  0
LINE
  8
_1-2_
  6
CONTINUOUS
 62
    3
 10
199.07746186127534
 20
142.54580111116977
 11
199.69794196051521
 21
140.64449825802365
  0
LINE
  8
_1-2_
  6
CONTINUOUS
 62
    7
 10
199.69794196051521
 20
140.64449825802365
 11
201.49734909470018
 21
135.13069771431589
  0
LINE
  8
_1-2_
  6
CONTINUOUS
 62
    3
 10
248.81415289801521
 20
165.09189915012669
 11
250.14505747202281
 21
165.52623027079815
  0
LINE
  8
_1-2_
  6
CONTINUOUS
 62
    3
 10
247.47923979888094
 20
164.02511184279984
 11
248.69268468908362
 21
164.4211145349451
  0
LINE
  8
_1-2_
  6
CONTINUOUS
 62
    3
 10
248.81415289801521
 20
165.09189915012669
 11
248.69268468908362
 21
164.4211145349451
  0
LINE
  8
_1-2_
  6
CONTINUOUS
 62
    3
 10
247.47923979888094
 20
164.02511184279984
 11
247.08702293602198
 21
162.00367695576438
  0
LINE
  8
_1-2_
  6
CONTINUOUS
 62
    3
 10
250.38527205183701
 20
163.50081160261826
 11
250.76553757126268
 21
163.62492741765203
  0
LINE
  8
_1-2_
  6
CONTINUOUS
 62
    7
 10
250.14505747202281
 20
165.52623027079815
 11
250.76553757126268
 21
163.62492741765203
  0
LINE
  8
_1-2_
  6
CONTINUOUS
 62
    3
 10
250.38527205183701
 20
163.50081160261826
 11
251.4401080157306
 21
160.26857943148227
  0
LINE
  8
_1-2_
  6
CONTINUOUS
 62
    7
 10
249.72893792229732
 20
159.7101572397593
 11
251.04390737172722
 21
157.61473784575591
  0
LINE
  8
_1-2_
  6
CONTINUOUS
 62
    7
 10
251.04390737172722
 20
157.61473784575591
 11
252.56494470544766
 21
158.11112687394427
  0
LINE
  8
_1-2_
  6
CONTINUOUS
 62
    3
 10
186.20509792018581
 20
135.82365293760557
 11
185.23166965793919
 21
140.76549633129224
  0
LINE
  8
_1-2_
  6
CONTINUOUS
 62
    3
 10
188.14626332875847
 20
142.76854643950591
 11
247.08702293602198
 21
162.00367695576438
  0
LINE
  8
_1-2_
  6
CONTINUOUS
 62
    3
 10
186.20509792018581
 20
135.82365293760557
 11
187.67813192831505
 21
136.46714494035052
  0
LINE
  8
_1-2_
  6
CONTINUOUS
 62
    3
 10
188.55384620460305
 20
139.74584631017737
 11
251.4401080157306
 21
160.26857943148227
  0
LINE
  8
_1-2_
  6
CONTINUOUS
 62
    3
 10
187.86715120882602
 20
138.87349721547722
 11
187.67813192831505
 21
136.46714494035052
  0
LINE
  8
_1-2_
  6
CONTINUOUS
 62
    3
 10
250.14505747202281
 20
165.52623027079815
 11
250.76553757126268
 21
163.62492741765203
  0
LINE
  8
_1-2_
  6
CONTINUOUS
 62
    7
 10
250.76553757126268
 20
163.62492741765203
 11
252.56494470544766
 21
158.11112687394427
  0
LINE
  8
_1-2_
  6
CONTINUOUS
 62
    3
 10
73.271187447212839
 20
83.14361572265625
 11
98.236529376055742
 21
91.329716862858959
  0
LINE
  8
_1-2_
  6
CONTINUOUS
 62
    3
 10
73.271187447212839
 20
86.300768465609167
 11
93.881019386085313
 21
93.058702623521967
  0
LINE
  8
ADD_LINE
  6
DOT
 62
    7
 10
258.5649397566512
 20
123.41193534232475
 11
258.5649397566512
 21
113.81280435098185
  0
LINE
  8
_1-0_
  6
CONTINUOUS
 62
    7
 10
258.5649397566512
 20
117.5838985958615
 11
258.5649397566512
 21
80.270270270270274
  0
LINE
  8
_1-0_
  6
CONTINUOUS
 62
    7
 10
73.271187447212839
 20
59.249700597814609
 11
258.5649397566512
 21
142.6319101694468
  0
LINE
  8
_1-0_
  6
CONTINUOUS
 62
    7
 10
73.271187447212839
 20
72.408729759422513
 11
258.5649397566512
 21
155.79093314505914
  0
LINE
  8
_1-0_
  6
CONTINUOUS
 62
    7
 10
73.271187447212839
 20
75.040536828943203
 11
258.5649397566512
 21
158.4227278425887
  0
LINE
  8
_1-0_
  6
DASHED1
 62
    3
 10
73.271187447212839
 20
75.698491689321159
 11
258.03059345967063
 21
158.84024542731208
  0
LINE
  8
_1-1_
  6
CONTINUOUS
 62
    7
 10
251.47576409417232
 20
157.20646213840794
 11
246.58279006545609
 21
155.00464362067146
  0
LINE
  8
_1-0_
  6
CONTINUOUS
 62
    7
 10
73.271187447212839
 20
76.356440363703555
 11
251.7220162056588
 21
156.65929845861487
  0
LINE
  8
_1-0_
  6
CONTINUOUS
 62
    7
 10
73.271187447212839
 20
77.014389038085938
 11
251.47576409417232
 21
157.20646213840794
  0
LINE
  8
_1-0_
  6
CONTINUOUS
 62
    7
 10
251.47576409417232
 20
157.20646213840794
 11
251.7220162056588
 21
156.65929845861487
  0
LINE
  8
_1-1_
  6
CONTINUOUS
 62
    7
 10
251.63061193517737
 20
182.33109345307221
 11
254.03060500686234
 21
182.33109345307221
  0
LINE
  8
_1-1_
  6
CONTINUOUS
 62
    7
 10
251.63061193517737
 20
182.33109345307221
 11
251.63061193517737
 21
241.62162162162164
  0
LINE
  8
_1-0_
  6
CONTINUOUS
 62
    7
 10
258.5649397566512
 20
117.5838985958615
 11
258.5649397566512
 21
241.62162162162164
  0
LINE
  8
_1-1_
  6
CONTINUOUS
 62
    7
 10
254.03060500686234
 20
182.33109345307221
 11
254.03060500686234
 21
241.62162162162164
  0
LINE
  8
_1-0_
  6
DASHED1
 62
    3
 10
258.03059345967063
 20
158.84024542731208
 11
258.03059345967063
 21
218.84023305532097
  0
LINE
  8
_1-1_
  6
CONTINUOUS
 62
    7
 10
246.56494965424409
 20
115.33429944837417
 11
258.5649397566512
 21
115.33429944837417
  0
LINE
  8
_1-1_
  6
CONTINUOUS
 62
    7
 10
251.23693517736487
 20
139.33430439717063
 11
258.5649397566512
 21
139.33430439717063
  0
LINE
  8
_1-1_
  6
CONTINUOUS
 62
    7
 10
246.56494965424409
 20
137.23190720016893
 11
246.56494965424409
 21
115.33429944837417
  0
LINE
  8
_1-1_
  6
CONTINUOUS
 62
    7
 10
258.5649397566512
 20
139.33430439717063
 11
246.56494965424409
 21
115.33429944837417
  0
LINE
  8
_1-1_
  6
CONTINUOUS
 62
    7
 10
247.40589863545188
 20
137.65238169077281
 11
258.5649397566512
 21
115.33429944837417
  0
LINE
  8
_1-4_
  6
CONTINUOUS
 62
    7
 10
322.54698882231844
 20
158.84024542731208
 11
322.54698882231844
 21
218.84023305532097
  0
LINE
  8
_1-4_
  6
CONTINUOUS
 62
    7
 10
271.04954075168922
 20
158.84024542731208
 11
322.54698882231844
 21
158.84024542731208
  0
LINE
  8
_1-4_
  6
CONTINUOUS
 62
    7
 10
271.04954075168922
 20
218.84023305532097
 11
322.54698882231844
 21
218.84023305532097
  0
LINE
  8
_1-4_
  6
CONTINUOUS
 62
    7
 10
303.71362634607266
 20
177.33108932907518
 11
303.71362634607266
 21
199.33108767947635
  0
LINE
  8
_1-4_
  6
CONTINUOUS
 62
    7
 10
271.04954075168922
 20
177.33108932907518
 11
303.71362634607266
 21
177.33108932907518
  0
LINE
  8
_1-4_
  6
CONTINUOUS
 62
    7
 10
218.56493150865711
 20
103.78378378378379
 11
223.60104947476776
 21
106.69137490762247
  0
LINE
  8
ADD_LINE
  6
DOT
 62
    7
 10
215.16307933910474
 20
103.78378378378379
 11
227.3252415012669
 21
103.78378378378379
  0
LINE
  8
_1-4_
  6
CONTINUOUS
 62
    7
 10
218.56493150865711
 20
103.78378378378379
 11
223.60104947476776
 21
100.8761926599451
  0
LINE
  8
ADD_LINE
  6
DOT
 62
    7
 10
215.16307933910474
 20
103.78378378378379
 11
216.49512213629646
 21
103.78378378378379
  0
LINE
  8
ADD_LINE
  6
DOT
 62
    7
 10
217.01635412267737
 20
103.78378378378379
 11
227.3252415012669
 21
103.78378378378379
  0
LINE
  8
_1-4_
  6
CONTINUOUS
 62
    7
 10
274.08199001002959
 20
103.78378378378379
 11
218.56493150865711
 21
103.78378378378379
  0
LINE
  8
_1-4_
  6
CONTINUOUS
 62
    7
 10
218.56493150865711
 20
115.94594594594595
 11
218.56493150865711
 21
96.515449317725938
  0
LINE
  8
_1-4_
  6
CONTINUOUS
 62
    7
 10
284.08199825802365
 20
218.84023305532097
 11
282.11480218010979
 21
215.43296195365289
  0
LINE
  8
_1-4_
  6
CONTINUOUS
 62
    7
 10
284.08199825802365
 20
218.84023305532097
 11
286.0491943359375
 21
215.43296195365289
  0
LINE
  8
_1-4_
  6
CONTINUOUS
 62
    7
 10
284.08199825802365
 20
113.78377965978675
 11
284.08199825802365
 21
218.84023305532097
  0
LINE
  8
_1-4_
  6
CONTINUOUS
 62
    7
 10
241.69756090318836
 20
169.10414824614654
 11
228.70424837679477
 21
204.80299666121201
  0
LINE
  8
_1-4_
  6
CONTINUOUS
 62
    7
 10
234.20305406725086
 20
163.39402894716005
 11
224.37937143686656
 21
190.38439364046664
  0
LINE
  8
_1-4_
  6
CONTINUOUS
 62
    7
 10
231.6522959116343
 20
224.68800312763938
 11
227.65230745882602
 21
224.68800312763938
  0
LINE
  8
_1-4_
  6
CONTINUOUS
 62
    7
 10
228.70424837679477
 20
204.80299666121201
 11
224.70425992398651
 21
204.80299666121201
  0
LINE
  8
_1-4_
  6
CONTINUOUS
 62
    7
 10
224.37937143686656
 20
190.38439364046664
 11
220.37935824007602
 21
190.38439364046664
  0
LINE
  8
_1-4_
  6
CONTINUOUS
 62
    7
 10
99.21713339315879
 20
77.027027027027032
 11
64.390102077174845
 21
172.71349107896961
  0
LINE
  8
_1-4_
  6
CONTINUOUS
 62
    7
 10
252.67010663006758
 20
216.07796333931589
 11
243.04123337204393
 21
242.53309095228042
  0
LINE
  8
_1-4_
  6
CONTINUOUS
 62
    7
 10
243.04123337204393
 20
242.53309095228042
 11
239.04124491923565
 21
242.53309095228042
  0
LINE
  8
_1-4_
  6
CONTINUOUS
 62
    7
 10
250.03635715793919
 20
174.17818636507602
 11
231.6522959116343
 21
224.68800312763938
  0
LINE
  8
_1-4_
  6
CONTINUOUS
 62
    7
 10
284.08199825802365
 20
120.57680697054477
 11
288.63694474503802
 21
123.22838448189401
  0
LINE
  8
_1-4_
  6
CONTINUOUS
 62
    7
 10
284.08199825802365
 20
120.57680697054477
 11
294.31888064822635
 21
120.57680697054477
  0
LINE
  8
_1-4_
  6
CONTINUOUS
 62
    7
 10
218.56488202069258
 20
111.60779385953337
 11
258.56491501266891
 21
111.60779385953337
  0
LINE
  8
_1-4_
  6
CONTINUOUS
 62
    7
 10
303.71362634607266
 20
199.33108767947635
 11
303.71362634607266
 21
218.84023305532097
  0
LINE
  8
_1-4_
  6
CONTINUOUS
 62
    7
 10
303.71362634607266
 20
218.84023305532097
 11
301.7464302681588
 21
215.43296195365289
  0
LINE
  8
_1-4_
  6
CONTINUOUS
 62
    7
 10
303.71362634607266
 20
218.84023305532097
 11
305.68082242398651
 21
215.43296195365289
  0
LINE
  8
_1-4_
  6
CONTINUOUS
 62
    7
 10
303.74203243771115
 20
207.96322384396117
 11
310.55221970016896
 21
233.37917843380492
  0
LINE
  8
_1-4_
  6
CONTINUOUS
 62
    7
 10
310.55221970016896
 20
233.37917843380492
 11
313.758544921875
 21
233.37917843380492
  0
LINE
  8
_1-4_
  6
CONTINUOUS
 62
    7
 10
303.59685949377115
 20
184.3010237410262
 11
315.42049923458615
 21
140.174560546875
  0
LINE
  8
_1-4_
  6
CONTINUOUS
 62
    7
 10
315.42049923458615
 20
140.174560546875
 11
318.83937526393584
 21
140.174560546875
  0
LINE
  8
_1-1_
  6
CONTINUOUS
 62
    7
 10
257.70476470122469
 20
212.62687064505914
 11
257.70476470122469
 21
204.62686899546031
  0
LINE
  8
_1-1_
  6
CONTINUOUS
 62
    7
 10
254.03060500686234
 20
212.62687064505914
 11
257.70476470122469
 21
212.62687064505914
  0
LINE
  8
_1-1_
  6
CONTINUOUS
 62
    7
 10
254.03060500686234
 20
204.62686899546031
 11
257.70476470122469
 21
204.62686899546031
  0
LINE
  8
_1-1_
  6
CONTINUOUS
 62
    7
 10
254.03060500686234
 20
212.62687064505914
 11
257.70476470122469
 21
204.62686899546031
  0
LINE
  8
_1-4_
  6
CONTINUOUS
 62
    7
 10
271.04954075168922
 20
201.3310819058805
 11
303.71362634607266
 21
201.3310819058805
  0
LINE
  8
_1-4_
  6
CONTINUOUS
 62
    7
 10
303.71362634607266
 20
201.3310819058805
 11
301.7464302681588
 21
204.73835300754857
  0
LINE
  8
_1-4_
  6
CONTINUOUS
 62
    7
 10
303.71362634607266
 20
201.3310819058805
 11
305.68082242398651
 21
204.73835300754857
  0
ARC
  8
_1-2_
  6
CONTINUOUS
 62
    3
 10
87.807485219594597
 20
91.071785591744089
 40
6.01062568458351
 50
107.389892578125
 51
141.6080322265625
  0
ARC
  8
_1-2_
  6
CONTINUOUS
 62
    3
 10
86.728895032728047
 20
92.834336564347552
 40
0.9999999162313101
 50
108.07392883300781
 51
175.50869750976562
  0
ARC
  8
_1-2_
  6
CONTINUOUS
 62
    3
 10
138.87508083034206
 20
114.05221475137247
 40
6.01062568458351
 50
107.389892578125
 51
141.6080322265625
  0
ARC
  8
_1-2_
  6
CONTINUOUS
 62
    3
 10
137.79649064347552
 20
115.81476572397594
 40
0.9999999162313101
 50
108.07392883300781
 51
175.50869750976562
  0
ARC
  8
_1-2_
  6
CONTINUOUS
 62
    3
 10
189.94267644108953
 20
137.03264391100086
 40
6.01062568458351
 50
107.389892578125
 51
141.6080322265625
  0
ARC
  8
_1-2_
  6
CONTINUOUS
 62
    3
 10
188.864086254223
 20
138.79518251161318
 40
0.9999999162313101
 50
108.07392883300781
 51
175.50869750976562
  0
ARC
  8
_1-4_
  6
CONTINUOUS
 62
    7
 10
274.08199001002959
 20
113.78377965978675
 40
9.9999997422501856
 50
270
 51
0
  0
TEXT
  8
_0-0_
 62
    7
 10
147.56756962956609
 20
22.702702702702709
 40
2.5
 41
1
 50
0
  1
図名
  0
TEXT
  8
_0-0_
 62
    7
 10
147.56756962956609
 20
12.972972972972968
 40
2.5
 41
1
 50
0
  1
縮尺
  0
TEXT
  8
_0-0_
 62
    7
 10
382.77784605284
 20
21.243871740392734
 40
2.5
 41
1
 50
0
  1
ＮＯ
  0
TEXT
  8
_0-0_
 62
    7
 10
31.231870393495313
 20
18.589955922719582
 40
2.5
 41
1
 50
0
  1
木造
  0
TEXT
  8
_0-0_
 62
    7
 10
20.270270012520456
 20
22.702702702702709
 40
2.5
 41
1
 50
0
  1
Ｆ形
  0
TEXT
  8
_0-0_
 62
    7
 10
389.99062615471917
 20
16.178650211643514
 40
2.5
 41
1
 50
0
  1
Ｆ
  0
TEXT
  8
_0-0_
 62
    7
 10
171.37221877639359
 20
12.362518826046511
 40
2.5
 41
1
 50
0
  1
1/5
  0
TEXT
  8
_1-4_
 62
    7
 10
45.397583729511979
 20
13.77361400707349
 40
2.5
 41
1
 50
0
  1
壁際　3
  0
TEXT
  8
_0-1_
 62
    7
 10
87.155801927721186
 20
170.82510458456505
 40
2.5
 41
1
 50
0
  1
瓦桟
  0
TEXT
  8
_0-1_
 62
    7
 10
87.155802958720443
 20
163.3211950353674
 40
2.5
 41
1
 50
0
  1
流し桟
  0
TEXT
  8
_0-1_
 62
    7
 10
87.155802958720443
 20
149.41688331397805
 40
2.5
 41
1
 50
0
  1
野地板
  0
TEXT
  8
_0-1_
 62
    7
 10
87.155801927721186
 20
142.79577719198693
 40
2.5
 41
1
 50
0
  1
垂木
  0
TEXT
  8
_0-1_
 62
    7
 10
101.53750239191828
 20
149.41688331397805
 40
2.5
 41
1
 50
0
  1
耐水合板　ｔ＝12
  0
TEXT
  8
_1-4_
 62
    7
 10
225.33421284443625
 20
241.19743553367823
 40
2.5
 41
1
 50
0
  1
外壁
  0
TEXT
  8
_1-4_
 62
    7
 10
214.99091483451224
 20
223.46602156355576
 40
2.5
 41
1
 50
0
  1
水切鉄板
  0
TEXT
  8
_1-4_
 62
    7
 10
201.3229493837099
 20
202.77940904771961
 40
2.5
 41
1
 50
0
  1
発泡弾性シール材
  0
TEXT
  8
_1-4_
 62
    7
 10
304.38513266073693
 20
116.97824014199747
 40
2.5
 41
1
 50
0
  1
２重貼り
  0
TEXT
  8
_1-4_
 62
    7
 10
87.155802958720443
 20
156.03797706397805
 40
2.5
 41
1
 50
0
  1
下葺き材　　　ゴムアス系ルーフィング
  0
TEXT
  8
_1-4_
 62
    7
 10
101.53750032991977
 20
142.79577719198693
 40
2.5
 41
1
 50
0
  1
60ｘ60
  0
TEXT
  8
_1-4_
 62
    7
 10
297.49637500659844
 20
120.62768059807856
 40
2.5
 41
1
 50
0
  1
ゴムアス系ルーフィング
  0
TEXT
  8
_1-4_
 62
    7
 10
236.68989851668076
 20
112.10779550913219
 40
2.5
 41
1
 50
0
  1
200
  0
TEXT
  8
_1-4_
 62
    7
 10
320.72654517921239
 20
139.58964992213893
 40
2.5
 41
1
 50
0
  1
水切り鉄板立上がり寸法
  0
TEXT
  8
_1-4_
 62
    7
 10
322.04698717271964
 20
186.96523305532097
 40
2.5
 41
1
 50
90
  1
300　以上
  0
TEXT
  8
_1-4_
 62
    7
 10
314.82592196077917
 20
231.82740907411318
 40
2.5
 41
1
 50
0
  1
水切鉄板上端より
  0
TEXT
  8
_1-4_
 62
    7
 10
315.31283404376057
 20
229.10069646062078
 40
2.5
 41
1
 50
0
  1
50ｍｍ以上
  0
TEXT
  8
_1-4_
 62
    7
 10
309.61657632363813
 20
242.28795231999578
 40
3
 41
1
 50
0
  1
下葺き材立上げ長さは、300ｍｍ以上かつ
  0
TEXT
  8
_1-4_
 62
    7
 10
397.66983444626271
 20
13.624907313166432
 40
2.5
 41
1
 50
0
  1
11
  0
TEXT
  8
_1-4_
 62
    7
 10
324.88953049118459
 20
191.29341331688136
 40
2.5
 41
1
 50
0
  1
下葺き材立上がり寸法
  0
TEXT
  8
_1-4_
 62
    7
 10
310.00319939690667
 20
236.64085594383448
 40
3
 41
1
 50
0
  1
水切鉄板上端より50mm以上とする
  0
TEXT
  8
_1-4_
 62
    7
 10
303.21362469647386
 20
186.45608850427578
 40
2.5
 41
1
 50
90
  1
120
  0
TEXT
  8
_1-4_
 62
    7
 10
101.53750032991977
 20
170.82510458456505
 40
2.5
 41
1
 50
0
  1
１５×２１　以上　（防腐処理）
  0
TEXT
  8
_1-2_
 62
    7
 10
101.75749598322687
 20
167.43744308884081
 40
2.5
 41
1
 50
0
  1
※　地域により瓦桟木の大きさは、異なります
  0
POINT
  8
_1-4_
 62
    7
 10
322.54698882231844
 20
158.84024542731208
  0
POINT
  8
_1-4_
 62
    7
 10
322.54698882231844
 20
218.84023305532097
  0
POINT
  8
_1-4_
 62
    7
 10
303.71362634607266
 20
177.33108932907518
  0
POINT
  8
_1-4_
 62
    7
 10
218.56488202069258
 20
111.60779385953337
  0
POINT
  8
_1-4_
 62
    7
 10
258.56491501266891
 20
111.60779385953337
  0
POINT
  8
_1-4_
 62
    7
 10
303.71362634607266
 20
201.3310819058805
  0
LINE
  8
_1-3_
  6
CONTINUOUS
 62
    3
 10
234.34921644624131
 20
163.53988845490792
 11
235.41823729645148
 21
158.24675863898261
  0
LINE
  8
_1-3_
  6
CONTINUOUS
 62
    3
 10
254.44348024774848
 20
167.59820206254287
 11
253.73081598322307
 21
171.12695275259478
  0
ARC
  8
_1-3_
  6
CONTINUOUS
 62
    3
 10
262.68127268905647
 20
126.80973361240959
 40
41.612016832506335
 50
101.41805079796902
 51
130.93269923546902
  0
ARC
  8
_1-3_
  6
CONTINUOUS
 62
    3
 10
265.64205938568512
 20
112.14972704141439
 40
60.168024011560398
 50
101.41805079796902
 51
121.33833888390653
  0
LINE
  8
_1-1_
  6
CONTINUOUS
 62
    7
 10
240.76676644632181
 20
166.96344829035763
 11
239.61570571840736
 21
169.73383850169091
  0
LINE
  8
_1-1_
  6
CONTINUOUS
 62
    7
 10
239.61570571840736
 20
169.73383850169091
 11
242.38609592974061
 21
170.88489922960534
  0
LINE
  8
_1-1_
  6
CONTINUOUS
 62
    7
 10
242.38609592974061
 20
170.88489922960534
 11
243.53715665765506
 21
168.11450901827209
  0
LINE
  8
_1-1_
  6
CONTINUOUS
 62
    7
 10
243.53715665765506
 20
168.11450901827209
 11
240.76676644632181
 21
166.96344829035763
  0
LINE
  8
_1-1_
  6
CONTINUOUS
 62
    7
 10
240.42689195086032
 20
167.78148246954504
 11
241.24065411088387
 21
167.1603314189399
  0
LINE
  8
_1-1_
  6
CONTINUOUS
 62
    7
 10
239.96763240469957
 20
168.88683894322716
 11
241.88099185483199
 21
167.42638251824147
  0
LINE
  8
_1-1_
  6
CONTINUOUS
 62
    7
 10
239.76536761307506
 20
169.79602177162664
 11
242.52130507477901
 21
167.69243032542667
  0
LINE
  8
_1-1_
  6
CONTINUOUS
 62
    7
 10
240.40570535702315
 20
170.0620728709282
 11
243.16164281872713
 21
167.95848142472823
  0
LINE
  8
_1-1_
  6
CONTINUOUS
 62
    7
 10
241.04601857697017
 20
170.32812067811341
 11
243.34724596785577
 21
168.5716068520577
  0
LINE
  8
_1-1_
  6
CONTINUOUS
 62
    7
 10
241.68635796697646
 20
170.59415951541442
 11
242.88798642169499
 21
169.67696332573982
  0
LINE
  8
_1-1_
  6
CONTINUOUS
 62
    7
 10
242.32667118692348
 20
170.86020732259968
 11
242.4287285215924
 21
170.78230753742142
  0
LINE
  8
_1-1_
  6
CONTINUOUS
 62
    7
 10
242.968682384803
 20
167.87831483930557
 11
243.40032660193964
 21
168.44381650565035
  0
LINE
  8
_1-1_
  6
CONTINUOUS
 62
    7
 10
241.86332755717905
 20
167.41904303114427
 11
243.13428776463863
 21
169.08415589565661
  0
LINE
  8
_1-1_
  6
CONTINUOUS
 62
    7
 10
240.76463460319474
 20
166.96854226984206
 11
242.86822604939471
 21
169.72447973154604
  0
LINE
  8
_1-1_
  6
CONTINUOUS
 62
    7
 10
240.49859576589375
 20
167.60888165984829
 11
242.60218721209372
 21
170.36481912155227
  0
LINE
  8
_1-1_
  6
CONTINUOUS
 62
    7
 10
240.23255692859274
 20
168.24922104985458
 11
242.17852286234694
 21
170.79865165612597
  0
LINE
  8
_1-1_
  6
CONTINUOUS
 62
    7
 10
239.96649356729066
 20
168.88955714774451
 11
241.07314186466374
 21
170.33938881784891
  0
LINE
  8
_1-1_
  6
CONTINUOUS
 62
    7
 10
239.70043020598854
 20
169.52989324563444
 11
239.96776251303874
 21
169.88011371757131
  0
LINE
  8
_1-1_
  6
CONTINUOUS
 62
    2
 10
239.00805922464224
 20
169.84761531667965
 11
239.00805922464224
 21
166.31331040588174
  0
LINE
  8
_1-1_
  6
CONTINUOUS
 62
    2
 10
239.00805922464224
 20
166.31331040588174
 11
239.94245792420523
 21
167.44487580351768
  0
LINE
  8
_1-1_
  6
CONTINUOUS
 62
    2
 10
239.00805922464224
 20
169.84761531667965
 11
257.11862924936656
 21
177.91013827364995
  0
LINE
  8
_1-1_
  6
CONTINUOUS
 62
    2
 10
257.11862924936656
 20
177.91013827364995
 11
257.11862924936656
 21
201.3310819058805
  0
CIRCLE
  8
_1-3_
  6
CONTINUOUS
 62
    7
 10
253.67642208860559
 20
165.29434984246114
 40
0.2832312618799795
  0
CIRCLE
  8
_1-3_
  6
CONTINUOUS
 62
    7
 10
251.82604699322539
 20
164.52059518107646
 40
0.2832312618799795
  0
CIRCLE
  8
_1-3_
  6
CONTINUOUS
 62
    7
 10
255.6824316654716
 20
163.58571404841072
 40
0.2832312618799795
  0
CIRCLE
  8
_1-3_
  6
CONTINUOUS
 62
    7
 10
255.74086173626318
 20
161.89124199545407
 40
0.2832312618799795
  0
CIRCLE
  8
_1-3_
  6
CONTINUOUS
 62
    7
 10
254.5138302496394
 20
160.60578043803866
 40
0.2832312618799795
  0
CIRCLE
  8
_1-3_
  6
CONTINUOUS
 62
    7
 10
254.22167989568135
 20
160.31363008408061
 40
0.2832312618799795
  0
CIRCLE
  8
_1-3_
  6
CONTINUOUS
 62
    7
 10
254.04638968330653
 20
157.97642725241624
 40
0.2832312618799795
  0
CIRCLE
  8
_1-3_
  6
CONTINUOUS
 62
    7
 10
252.64406798430792
 20
161.59909164149602
 40
0.2832312618799795
  0
CIRCLE
  8
_1-3_
  6
CONTINUOUS
 62
    7
 10
253.46208897539043
 20
162.59240284495337
 40
0.2832312618799795
  0
CIRCLE
  8
_1-3_
  6
CONTINUOUS
 62
    7
 10
255.62400159467998
 20
158.50229788954073
 40
0.2832312618799795
  0
CIRCLE
  8
_1-3_
  6
CONTINUOUS
 62
    7
 10
253.81266940014009
 20
158.09328739399947
 40
0.2832312618799795
  0
CIRCLE
  8
_1-3_
  6
CONTINUOUS
 62
    7
 10
245.74931963089804
 20
163.46885390682749
 40
0.2832312618799795
  0
CIRCLE
  8
_1-3_
  6
CONTINUOUS
 62
    7
 10
245.10658885219033
 20
162.2418224202037
 40
0.2832312618799795
  0
CIRCLE
  8
_1-3_
  6
CONTINUOUS
 62
    7
 10
243.23682658685885
 20
162.18339234941209
 40
0.2832312618799795
  0
CIRCLE
  8
_1-3_
  6
CONTINUOUS
 62
    7
 10
254.33854003726458
 20
165.68919659690866
 40
0.2832312618799795
  0
CIRCLE
  8
_1-3_
  6
CONTINUOUS
 62
    7
 10
255.50714145309675
 20
166.85779801274083
 40
0.2832312618799795
  0
CIRCLE
  8
_1-3_
  6
CONTINUOUS
 62
    7
 10
255.6824316654716
 20
168.31854978253105
 40
0.2832312618799795
  0
CIRCLE
  8
_1-3_
  6
CONTINUOUS
 62
    7
 10
255.50714145309675
 20
170.42203233102899
 40
0.2832312618799795
  0
CIRCLE
  8
_1-3_
  6
CONTINUOUS
 62
    7
 10
255.50714145309675
 20
170.94790296815347
 40
0.2832312618799795
  0
CIRCLE
  8
_1-3_
  6
CONTINUOUS
 62
    7
 10
256.14987223180447
 20
172.93452537506818
 40
0.2832312618799795
  0
CIRCLE
  8
_1-3_
  6
CONTINUOUS
 62
    7
 10
254.57226032043101
 20
172.70080509190174
 40
0.2832312618799795
  0
CIRCLE
  8
_1-3_
  6
CONTINUOUS
 62
    7
 10
253.57894911697366
 20
172.64237502111013
 40
0.2832312618799795
  0
CIRCLE
  8
_1-3_
  6
CONTINUOUS
 62
    7
 10
253.57894911697366
 20
173.28510579981784
 40
0.2832312618799795
  0
CIRCLE
  8
_1-3_
  6
CONTINUOUS
 62
    7
 10
254.33854003726458
 20
173.69411629535909
 40
0.2832312618799795
  0
CIRCLE
  8
_1-3_
  6
CONTINUOUS
 62
    7
 10
255.74086173626318
 20
176.14817926860667
 40
0.2832312618799795
  0
CIRCLE
  8
_1-3_
  6
CONTINUOUS
 62
    7
 10
257.31847364763667
 20
174.10312679090038
 40
0.2832312618799795
  0
CIRCLE
  8
_1-3_
  6
CONTINUOUS
 62
    7
 10
257.43533378921984
 20
169.83773162311289
 40
0.2832312618799795
  0
CIRCLE
  8
_1-3_
  6
CONTINUOUS
 62
    7
 10
256.96789322288697
 20
166.7409378711576
 40
0.2832312618799795
  0
CIRCLE
  8
_1-3_
  6
CONTINUOUS
 62
    7
 10
256.96789322288697
 20
164.34530496870164
 40
0.2832312618799795
  0
CIRCLE
  8
_1-3_
  6
CONTINUOUS
 62
    7
 10
257.72748414317789
 20
161.19008114595474
 40
0.2832312618799795
  0
CIRCLE
  8
_1-3_
  6
CONTINUOUS
 62
    7
 10
256.79260301051215
 20
159.43717902220646
 40
0.2832312618799795
  0
CIRCLE
  8
_1-3_
  6
CONTINUOUS
 62
    7
 10
256.03301209022123
 20
161.5406615707044
 40
0.2832312618799795
  0
CIRCLE
  8
_1-3_
  6
CONTINUOUS
 62
    7
 10
253.46208897539043
 20
161.77438185387084
 40
0.2832312618799795
  0
CIRCLE
  8
_1-3_
  6
CONTINUOUS
 62
    7
 10
251.47546656847572
 20
165.68919659690866
 40
0.2832312618799795
  0
CIRCLE
  8
_1-3_
  6
CONTINUOUS
 62
    7
 10
253.11150855064079
 20
163.81943433157716
 40
0.2832312618799795
  0
CIRCLE
  8
_1-3_
  6
CONTINUOUS
 62
    7
 10
255.03970088676388
 20
162.76769305732819
 40
0.2832312618799795
  0
CIRCLE
  8
_1-3_
  6
CONTINUOUS
 62
    7
 10
252.35191763034987
 20
162.76769305732819
 40
0.2832312618799795
  0
CIRCLE
  8
_1-3_
  6
CONTINUOUS
 62
    7
 10
253.34522883380723
 20
159.14502866824841
 40
0.2832312618799795
  0
CIRCLE
  8
_1-3_
  6
CONTINUOUS
 62
    7
 10
253.34522883380723
 20
157.68427689845819
 40
0.2832312618799795
  0
CIRCLE
  8
_1-3_
  6
CONTINUOUS
 62
    7
 10
256.03301209022123
 20
158.91130838508198
 40
0.2832312618799795
  0
CIRCLE
  8
_1-3_
  6
CONTINUOUS
 62
    7
 10
254.63069039122263
 20
163.29356369445267
 40
0.2832312618799795
  0
CIRCLE
  8
_1-3_
  6
CONTINUOUS
 62
    7
 10
255.97458201942965
 20
162.53397277416175
 40
0.2832312618799795
  0
CIRCLE
  8
_1-3_
  6
CONTINUOUS
 62
    7
 10
255.15656102834708
 20
165.45547631374222
 40
0.2832312618799795
  0
CIRCLE
  8
_1-3_
  6
CONTINUOUS
 62
    7
 10
253.228368692224
 20
165.86448680928348
 40
0.2832312618799795
  0
CIRCLE
  8
_1-3_
  6
CONTINUOUS
 62
    7
 10
252.93621833826597
 20
166.15663716324153
 40
0.2832312618799795
  0
CIRCLE
  8
_1-3_
  6
CONTINUOUS
 62
    7
 10
252.58563791351631
 20
166.15663716324153
 40
0.2832312618799795
  0
CIRCLE
  8
_1-3_
  6
CONTINUOUS
 62
    7
 10
251.41703649768411
 20
165.63076652611704
 40
0.2832312618799795
  0
CIRCLE
  8
_1-3_
  6
CONTINUOUS
 62
    7
 10
247.38536161306308
 20
164.52059518107646
 40
0.2832312618799795
  0
CIRCLE
  8
_1-3_
  6
CONTINUOUS
 62
    7
 10
244.69757835664907
 20
163.00141334049462
 40
0.2832312618799795
  0
CIRCLE
  8
_1-3_
  6
CONTINUOUS
 62
    7
 10
243.87955736556654
 20
161.65752171228763
 40
0.2832312618799795
  0
CIRCLE
  8
_1-3_
  6
CONTINUOUS
 62
    7
 10
242.18508531260989
 20
161.65752171228763
 40
0.2832312618799795
  0
CIRCLE
  8
_1-3_
  6
CONTINUOUS
 62
    7
 10
241.54235453390217
 20
161.07322100437153
 40
0.2832312618799795
  0
CIRCLE
  8
_1-3_
  6
CONTINUOUS
 62
    7
 10
255.7992918070548
 20
164.57902525186807
 40
0.2832312618799795
  0
CIRCLE
  8
_1-3_
  6
CONTINUOUS
 62
    7
 10
256.79260301051215
 20
167.50052879144852
 40
0.2832312618799795
  0
CIRCLE
  8
_1-3_
  6
CONTINUOUS
 62
    7
 10
256.79260301051215
 20
170.01302183548773
 40
0.2832312618799795
  0
CIRCLE
  8
_1-3_
  6
CONTINUOUS
 62
    7
 10
256.67574286892892
 20
171.35691346369472
 40
0.2832312618799795
  0
CIRCLE
  8
_1-3_
  6
CONTINUOUS
 62
    7
 10
254.86441067438906
 20
169.42872112757163
 40
0.2832312618799795
  0
TEXT
  8
_1-4_
 62
    7
 10
214.60503490822501
 20
188.57542487045666
 40
2.5
 41
1
 50
0
  1
のし
  0
LINE
  8
_1-3_
  6
CONTINUOUS
 62
    7
 10
255.5123320035849
 20
163.24910237323758
 11
284.05999384214147
 21
84.815009420455851
  0
LINE
  8
_1-3_
  6
CONTINUOUS
 62
    7
 10
284.05999384214147
 20
84.815009420455851
 11
289.84760375112029
 21
84.815009420455851
  0
TEXT
  8
_1-3_
 62
    7
 10
291.31492305657054
 20
83.280200226200094
 40
2.5
 41
1
 50
0
  1
南蛮漆喰
  0
ENDSEC
  0
EOF
