  0
SECTION
  2
HEADER
  9
$ACADVER
  1
AC1009
  9
$INSBASE
 10
0
 20
0
 30
0
  9
$EXTMIN
 10
0
 20
0
  9
$EXTMAX
 10
420
 20
297
  9
$LIMMIN
 10
0
 20
0
  9
$LIMMAX
 10
420
 20
297
  9
$LTSCALE
 40
1
  0
ENDSEC
  0
SECTION
  2
TABLES
  0
TABLE
  2
LTYPE
 70
     9
  0
LTYPE
  2
CONTINUOUS
 70
    64
  3
実線
 72
    65
 73
     0
 40
0.0
  0
LTYPE
  2
DASHED1
 70
    64
  3
--  --  --  --  --  --  --  --  
 72
    65
 73
     2
 40
2.5
 49
1.25
 49
-1.25
  0
LTYPE
  2
DASHED2
 70
    64
  3
----    ----    ----    ----    
 72
    65
 73
     2
 40
5.0
 49
2.5
 49
-2.5
  0
LTYPE
  2
DASHED3
 70
    64
  3
------  ------  ------  ------  
 72
    65
 73
     2
 40
5.0
 49
3.75
 49
-1.25
  0
LTYPE
  2
CENTER1
 70
    64
  3
----- - ----- - ----- - ----- - 
 72
    65
 73
     4
 40
10.0
 49
6.25
 49
-1.25
 49
1.25
 49
-1.25
  0
LTYPE
  2
CENTER2
 70
    64
  3
----------  --  ----------  --  
 72
    65
 73
     4
 40
20.0
 49
12.5
 49
-2.5
 49
2.5
 49
-2.5
  0
LTYPE
  2
PHANTOM1
 70
    64
  3
--- - - --- - - --- - - --- - - 
 72
    65
 73
     6
 40
10.0
 49
3.25
 49
-1.25
 49
1.25
 49
-1.25
 49
1.25
 49
-1.25
  0
LTYPE
  2
PHANTOM2
 70
    64
  3
--------  -  -  --------  -  -  
 72
    65
 73
     6
 40
20.0
 49
10.0
 49
-2.5
 49
1.25
 49
-2.5
 49
1.25
 49
-2.5
  0
LTYPE
  2
DOT
 70
    64
  3
-   -   -   -   -   -   -   -   
 72
    65
 73
     2
 40
2.5
 49
0.625
 49
-1.875
  0
LTYPE
  2
DUMMY
 70
    64
  3
ダミー
 72
    65
 73
     0
 40
0.0
  0
LTYPE
  2
RAND1
 70
    64
  3
ランダム線1
 72
    65
 73
     4
 40
10.0
 49
1.0
 49
-2.0
 49
3.0
 49
-4.0
  0
LTYPE
  2
RAND2
 70
    64
  3
ランダム線2
 72
    65
 73
     4
 40
14.0
 49
2.0
 49
-3.0
 49
4.0
 49
-5.0
  0
LTYPE
  2
RAND3
 70
    64
  3
ランダム線3
 72
    65
 73
     4
 40
18.0
 49
3.0
 49
-4.0
 49
5.0
 49
-6.0
  0
LTYPE
  2
RAND4
 70
    64
  3
ランダム線4
 72
    65
 73
     4
 40
22.0
 49
4.0
 49
-5.0
 49
6.0
 49
-7.0
  0
LTYPE
  2
RAND5
 70
    64
  3
ランダム線5
 72
    65
 73
     4
 40
26.0
 49
5.0
 49
-6.0
 49
7.0
 49
-8.0
  0
LTYPE
  2
LONG1
 70
    64
  3
----------  --  ----------  --  
 72
    65
 73
     4
 40
40.0
 49
32.5
 49
-2.5
 49
2.5
 49
-2.5
  0
LTYPE
  2
LONG2
 70
    64
  3
--------  -  -  --------  -  -  
 72
    65
 73
     6
 40
40.0
 49
30.0
 49
-2.5
 49
1.25
 49
-2.5
 49
1.25
 49
-2.5
  0
LTYPE
  2
LONG3
 70
    64
  3
+++++++++++++++..+++++++++++++++
 72
    65
 73
     2
 40
40.0
 49
37.5
 49
-2.5
  0
LTYPE
  2
LONG4
 70
    64
  3
+++++++++++++++..+++++++++++++++
 72
    65
 73
     2
 40
80.0
 49
75.0
 49
-5.0
  0
LTYPE
  2
LONG5
 70
    64
  3
----------  --  ----------  --  
 72
    65
 73
     4
 40
60.0
 49
37.5
 49
-7.5
 49
7.5
 49
-7.5
  0
LTYPE
  2
dashed
 70
   64
  3
-------   -------------   ------
 72
   65
 73
    2
 40
7.5
 49
6
 49
-1.5
  0
LTYPE
  2
dashed_spaced
 70
   64
  3
----        --------        ----
 72
   65
 73
    2
 40
12
 49
6
 49
-6
  0
LTYPE
  2
long_dashed_dotted
 70
   64
  3
------------- --- --------------
 72
   65
 73
    4
 40
15.25
 49
12
 49
-1.5
 49
0.25
 49
-1.5
  0
LTYPE
  2
long_dashed_double-dotted
 70
   64
  3
----------- --- --- ------------
 72
   65
 73
    6
 40
17
 49
12
 49
-1.5
 49
0.25
 49
-1.5
 49
0.25
 49
-1.5
  0
LTYPE
  2
long_dashed_triplicate-dotted
 70
   64
  3
--------- --- --- --- ----------
 72
   65
 73
    8
 40
18.75
 49
12
 49
-1.5
 49
0.25
 49
-1.5
 49
0.25
 49
-1.5
 49
0.25
 49
-1.5
  0
LTYPE
  2
dotted
 70
   64
  3
   -       -       -       -    
 72
   65
 73
    2
 40
1.75
 49
0.25
 49
-1.5
  0
LTYPE
  2
chain
 70
   64
  3
-------------- -- --------------
 72
   65
 73
    4
 40
18.5
 49
12
 49
-1.5
 49
3.5
 49
-1.5
  0
LTYPE
  2
chain_double_dash
 70
   64
  3
------------ -- -- -------------
 72
   65
 73
    6
 40
23.5
 49
12
 49
-1.5
 49
3.5
 49
-1.5
 49
3.5
 49
-1.5
  0
LTYPE
  2
dashed_dotted
 70
   64
  3
-----------     -     ----------
 72
   65
 73
    4
 40
9.25
 49
6
 49
-1.5
 49
0.25
 49
-1.5
  0
LTYPE
  2
double-dashed_dotted
 70
   64
  3
------   -----------   -   -----
 72
   65
 73
    6
 40
16.75
 49
6
 49
-1.5
 49
6
 49
-1.5
 49
0.25
 49
-1.5
  0
LTYPE
  2
dashed_double-dotted
 70
   64
  3
---------    -    -    ---------
 72
   65
 73
    6
 40
11
 49
6
 49
-1.5
 49
0.25
 49
-1.5
 49
0.25
 49
-1.5
  0
LTYPE
  2
double-dashed_double-dotted
 70
   64
  3
-----   ---------   -   -   ----
 72
   65
 73
    8
 40
18.5
 49
6
 49
-1.5
 49
6
 49
-1.5
 49
0.25
 49
-1.5
 49
0.25
 49
-1.5
  0
LTYPE
  2
dashed_triplicate-dotted
 70
   64
  3
-------    -    -    -    ------
 72
   65
 73
    8
 40
12.75
 49
6
 49
-1.5
 49
0.25
 49
-1.5
 49
0.25
 49
-1.5
 49
0.25
 49
-1.5
  0
LTYPE
  2
double-dashed_triplicate-dotted
 70
   64
  3
-----  ---------  -  -  -  -----
 72
   65
 73
   10
 40
20.25
 49
6
 49
-1.5
 49
6
 49
-1.5
 49
0.25
 49
-1.5
 49
0.25
 49
-1.5
 49
0.25
 49
-1.5
  0
LTYPE
  2
undefined
 70
   64
  3
--------------------------------
 72
   65
 73
    0
 40
0
  0
LTYPE
  2
DOT_17
 70
   64
  3
--             ---             -
 72
   65
 73
    2
 40
5
 49
1
 49
-4
  0
LTYPE
  2
DASHED
 70
   64
  3
---          ------          ---
 72
   65
 73
    2
 40
5
 49
2
 49
-3
  0
LTYPE
  2
DASHED2_19
 70
   64
  3
---          ------          ---
 72
   65
 73
    2
 40
10
 49
4
 49
-6
  0
LTYPE
  2
CENTER
 70
   64
  3
----------    ----    ----------
 72
   65
 73
    4
 40
9
 49
6
 49
-1
 49
1
 49
-1
  0
LTYPE
  2
CENTER2_21
 70
   64
  3
----------    ----    ----------
 72
   65
 73
    4
 40
18
 49
12
 49
-2
 49
2
 49
-2
  0
LTYPE
  2
PHANTOM
 70
   64
  3
---------   ---   ---   --------
 72
   65
 73
    6
 40
10
 49
5
 49
-1
 49
1
 49
-1
 49
1
 49
-1
  0
LTYPE
  2
PHANTOM2_23
 70
   64
  3
------    ----    ----    ------
 72
   65
 73
    6
 40
16
 49
6
 49
-2
 49
2
 49
-2
 49
2
 49
-2
  0
LTYPE
  2
HIDDEN
 70
   64
  3
--             ---             -
 72
   65
 73
    2
 40
2.5
 49
0.5
 49
-2
  0
ENDTAB
  0
TABLE
  2
STYLE
  5
3
100
AcDbSymbolTable
 70
     1
  0
STYLE
  5
10
100
AcDbSymbolTableRecord
100
AcDbTextStyleTableRecord
  2
STANDARD
 70
     0
 40
0.0
 41
1.0
 50
0.0
 71
     0
 42
0.2
  3
txt
  4
bigfont.shx
  0
STYLE
  5
26
100
AcDbSymbolTableRecord
100
AcDbTextStyleTableRecord
  2
TATEGAKI
 70
    68
 40
0.0
 41
1.0
 50
0.0
 71
     0
 42
1.0
  3
txt
  4
bigfont.shx
  0
ENDTAB
  0
TABLE
  2
LAYER
 70
   10
  0
LAYER
  2
_0-0_
 70
   64
 62
    7
  6
CONTINUOUS
  0
LAYER
  2
_1-0_
 70
   64
 62
    7
  6
CONTINUOUS
  0
LAYER
  2
_1-1_
 70
   64
 62
    7
  6
CONTINUOUS
  0
LAYER
  2
_1-2_
 70
   64
 62
    7
  6
CONTINUOUS
  0
LAYER
  2
_1-3_
 70
   64
 62
    7
  6
CONTINUOUS
  0
LAYER
  2
_1-4_
 70
   64
 62
    7
  6
CONTINUOUS
  0
LAYER
  2
_1-5_
 70
   64
 62
    7
  6
CONTINUOUS
  0
LAYER
  2
_1-6_
 70
   64
 62
    7
  6
CONTINUOUS
  0
LAYER
  2
_1-7_
 70
   64
 62
    7
  6
CONTINUOUS
  0
LAYER
  2
ADD_LINE
 70
   64
 62
    7
  6
CONTINUOUS
  0
ENDTAB
  0
ENDSEC
  0
SECTION
  2
BLOCKS
  0
ENDSEC
  0
SECTION
  2
ENTITIES
  0
LINE
  8
_1-0_
  6
CONTINUOUS
 62
    7
 10
330.74256690772808
 20
101.06755024677999
 11
181.99290507548565
 21
168.00490920608109
  0
LINE
  8
_0-0_
  6
CONTINUOUS
 62
    5
 10
6.7567526327597136
 20
280.13513513513516
 11
406.75677325274495
 21
280.13513513513516
  0
LINE
  8
_0-0_
  6
CONTINUOUS
 62
    5
 10
406.75677325274495
 20
10.13513513513513
 11
6.7567526327597136
 21
10.13513513513513
  0
LINE
  8
_0-0_
  6
CONTINUOUS
 62
    5
 10
406.75677325274495
 20
30.135133073136615
 11
6.7567402607685949
 21
30.135133073136615
  0
LINE
  8
_0-0_
  6
CONTINUOUS
 62
    5
 10
371.75678150073907
 20
10.13513513513513
 11
371.75678150073907
 21
30.135133073136615
  0
LINE
  8
_0-0_
  6
CONTINUOUS
 62
    5
 10
137.02703939901818
 20
30.135133073136615
 11
137.02703939901818
 21
10.13513513513513
  0
LINE
  8
_0-0_
  6
CONTINUOUS
 62
    5
 10
214.86486486486487
 20
30.135133073136615
 11
214.86486486486487
 21
10.13513513513513
  0
LINE
  8
_0-0_
  6
CONTINUOUS
 62
    5
 10
137.02703939901818
 20
20.135134104135886
 11
214.86486486486487
 21
20.135134104135886
  0
LINE
  8
_0-0_
  6
CONTINUOUS
 62
    5
 10
396.48648648648651
 20
25.945945945945951
 11
383.91891891891896
 21
13.378379924877265
  0
LINE
  8
_1-1_
  6
DASHED1
 62
    3
 10
33.243243243243228
 20
101.9448233939506
 11
181.99290507548565
 21
168.88218235325169
  0
LINE
  8
_1-0_
  6
CONTINUOUS
 62
    7
 10
330.74256690772808
 20
102.16414168074324
 11
181.99290507548565
 21
169.10151301203547
  0
LINE
  8
_1-3_
  6
CONTINUOUS
 62
    7
 10
137.55399961729307
 20
210.05619358372044
 11
152.41780873891472
 21
169.21823037637247
  0
LINE
  8
_1-0_
  6
CONTINUOUS
 62
    7
 10
33.243243243243228
 20
102.82209654112121
 11
181.99290507548565
 21
169.75944312843117
  0
LINE
  8
_1-0_
  6
CONTINUOUS
 62
    7
 10
33.243243243243228
 20
102.16414168074324
 11
181.99290507548565
 21
169.10151301203547
  0
LINE
  8
_1-3_
  6
DASHED1
 62
    7
 10
181.40559428447003
 20
167.74061873152451
 11
181.4068314835832
 21
167.74117547112544
  0
LINE
  8
_1-0_
  6
CONTINUOUS
 62
    7
 10
33.243243243243228
 20
101.06755024677999
 11
181.99290507548565
 21
168.00490920608109
  0
LINE
  8
_1-0_
  6
DASHED1
 62
    7
 10
182.89290557036529
 20
167.5998997043919
 11
182.89290557036529
 21
147.31265506228885
  0
LINE
  8
_1-0_
  6
DASHED1
 62
    7
 10
181.09290458060602
 20
149.11265605204815
 11
181.09290458060602
 21
167.74061873152451
  0
LINE
  8
_1-0_
  6
CONTINUOUS
 62
    7
 10
41.450537604254635
 20
82.829119708086992
 11
181.99290507548565
 21
146.07319187473607
  0
LINE
  8
_1-0_
  6
CONTINUOUS
 62
    7
 10
322.53526017472552
 20
82.829119708086992
 11
181.99290507548565
 21
146.07319187473607
  0
LINE
  8
_1-0_
  6
CONTINUOUS
 62
    7
 10
41.450537604254635
 20
82.829119708086992
 11
33.243243243243228
 21
79.135839101430534
  0
LINE
  8
_1-0_
  6
CONTINUOUS
 62
    7
 10
322.53526017472552
 20
82.829119708086992
 11
330.74256690772808
 21
79.135826729439401
  0
LINE
  8
_1-0_
  6
DASHED1
 62
    7
 10
41.204319515743776
 20
83.376271015888946
 11
181.74669007997255
 21
146.62034318253802
  0
LINE
  8
_1-0_
  6
DASHED1
 62
    7
 10
322.78148754222974
 20
83.376271015888946
 11
182.23912007099875
 21
146.62034318253802
  0
LINE
  8
_1-0_
  6
DASHED1
 62
    7
 10
322.78148754222974
 20
83.376271015888946
 11
330.98879427523229
 21
79.682978037241341
  0
LINE
  8
_1-0_
  6
DASHED1
 62
    7
 10
41.204319515743776
 20
83.376271015888946
 11
32.99702515473237
 21
79.682990409232474
  0
LINE
  8
_1-0_
  6
DASHED2
 62
    7
 10
34.884703352644635
 20
97.419866613439623
 11
181.99290507548565
 21
163.61856821421031
  0
LINE
  8
_1-0_
  6
DASHED2
 62
    7
 10
329.10110061233109
 20
97.419866613439623
 11
181.99290507548565
 21
163.61856821421031
  0
LINE
  8
_1-0_
  6
DASHED2
 62
    7
 10
324.1767264701225
 20
86.47680334142737
 11
181.99290507548565
 21
150.45952049461573
  0
LINE
  8
_1-0_
  6
DASHED2
 62
    7
 10
39.809077494853256
 20
86.47680334142737
 11
181.99290507548565
 21
150.45952049461573
  0
LINE
  8
_1-0_
  6
DASHED2
 62
    7
 10
39.809077494853256
 20
86.47680334142737
 11
33.243243243243228
 21
83.522180093301316
  0
LINE
  8
_1-0_
  6
DASHED2
 62
    7
 10
34.884703352644635
 20
97.419866613439623
 11
33.243243243243228
 21
96.681209254909206
  0
LINE
  8
_1-0_
  6
DASHED2
 62
    7
 10
324.1767264701225
 20
86.47680334142737
 11
330.74256690772808
 21
83.522173907305742
  0
LINE
  8
_1-0_
  6
CONTINUOUS
 62
    3
 10
191.99291332347974
 20
100.52241557353253
 11
171.99289682749156
 21
100.52241557353253
  0
LINE
  8
ADD_LINE
  6
DOT
 62
    3
 10
181.99290507548565
 20
141.68874379750847
 11
181.99290507548565
 21
99.000555502401824
  0
LINE
  8
_1-0_
  6
CONTINUOUS
 62
    3
 10
171.99289682749156
 20
100.52241557353253
 11
171.99289682749156
 21
102.12241714065139
  0
LINE
  8
_1-0_
  6
CONTINUOUS
 62
    3
 10
171.99289682749156
 20
138.92241606841216
 11
171.99289682749156
 21
140.52241144953547
  0
LINE
  8
_1-0_
  6
CONTINUOUS
 62
    3
 10
191.99291332347974
 20
140.52241144953547
 11
191.99291332347974
 21
138.92241606841216
  0
LINE
  8
_1-0_
  6
CONTINUOUS
 62
    3
 10
191.99291332347974
 20
102.12241714065139
 11
191.99291332347974
 21
100.52241557353253
  0
LINE
  8
_1-0_
  6
CONTINUOUS
 62
    3
 10
180.39290969436234
 20
138.92241606841216
 11
171.99289682749156
 21
138.92241606841216
  0
LINE
  8
_1-0_
  6
CONTINUOUS
 62
    3
 10
183.59290045660896
 20
138.92241606841216
 11
191.99291332347974
 21
138.92241606841216
  0
LINE
  8
_1-0_
  6
CONTINUOUS
 62
    3
 10
182.59289715741133
 20
103.12241425385346
 11
182.59289715741133
 21
137.92241276921453
  0
LINE
  8
_1-0_
  6
CONTINUOUS
 62
    3
 10
183.59290045660896
 20
102.12241714065139
 11
191.99291332347974
 21
102.12241714065139
  0
LINE
  8
_1-0_
  6
CONTINUOUS
 62
    3
 10
180.39290969436234
 20
102.12241714065139
 11
171.99289682749156
 21
102.12241714065139
  0
LINE
  8
ADD_LINE
  6
DOT
 62
    3
 10
172.24016344225086
 20
140.52241144953547
 11
193.1906457849451
 21
140.52241144953547
  0
LINE
  8
_1-0_
  6
CONTINUOUS
 62
    3
 10
171.99289682749156
 20
140.52241144953547
 11
191.99291332347974
 21
140.52241144953547
  0
LINE
  8
_1-0_
  6
CONTINUOUS
 62
    3
 10
181.39291299355997
 20
103.12241425385346
 11
181.39291299355997
 21
137.92241276921453
  0
LINE
  8
_1-0_
  6
DASHED1
 62
    7
 10
181.09290458060602
 20
149.11265605204815
 11
181.09290458060602
 21
140.52241144953547
  0
LINE
  8
_1-0_
  6
DASHED1
 62
    7
 10
182.89290557036529
 20
147.31265506228885
 11
182.89290557036529
 21
140.52241144953547
  0
LINE
  8
_1-0_
  6
DASHED1
 62
    7
 10
33.489461331754114
 20
100.52039893897805
 11
181.99290507548565
 21
167.34695434570312
  0
LINE
  8
_1-0_
  6
DASHED1
 62
    7
 10
330.49633954022386
 20
100.52039893897805
 11
181.99290507548565
 21
167.34695434570312
  0
LINE
  8
_1-1_
  6
DASHED1
 62
    3
 10
227.5889876082137
 20
148.36394026472763
 11
181.99290507548565
 21
168.88218235325169
  0
LINE
  8
_1-3_
  6
DASHED1
 62
    3
 10
227.42483602987755
 20
147.99917685019005
 11
330.51734718116558
 21
101.60753198572108
  0
LINE
  8
_1-3_
  6
CONTINUOUS
 62
    7
 10
149.14337570602831
 20
120.04220086175043
 11
137.88820421373524
 21
145.05367794552365
  0
LINE
  8
_1-3_
  6
CONTINUOUS
 62
    7
 10
194.57384676546664
 20
140.4859140756968
 11
183.31867527317357
 21
165.49739115947003
  0
LINE
  8
_1-3_
  6
DASHED1
 62
    3
 10
136.56243401604729
 20
147.99983256572003
 11
181.99290507548565
 21
168.44354577966641
  0
LINE
  8
_1-3_
  6
DASHED1
 62
    3
 10
227.42483602987755
 20
147.99917685019005
 11
181.99290507548565
 21
168.44354577966641
  0
LINE
  8
_1-3_
  6
CONTINUOUS
 62
    7
 10
149.14337570602831
 20
120.04220086175043
 11
194.57384676546664
 21
140.4859140756968
  0
LINE
  8
_1-3_
  6
CONTINUOUS
 62
    7
 10
169.28430918100719
 20
140.64086089263091
 11
180.53862700591216
 21
165.65045743375211
  0
LINE
  8
_1-3_
  6
CONTINUOUS
 62
    7
 10
214.88037934174409
 20
120.12261880410685
 11
226.13470953864021
 21
145.13221534522805
  0
LINE
  8
_1-3_
  6
CONTINUOUS
 62
    7
 10
169.28430918100719
 20
140.64086089263091
 11
214.88037934174409
 21
120.12261880410685
  0
LINE
  8
_1-6_
  6
CONTINUOUS
 62
    3
 10
211.680908203125
 20
169.69684085330448
 11
212.94641443201016
 21
169.12308976456927
  0
LINE
  8
_1-6_
  6
CONTINUOUS
 62
    3
 10
212.94641443201016
 20
169.12308976456927
 11
211.63278115762247
 21
166.22573027739654
  0
LINE
  8
_1-6_
  6
CONTINUOUS
 62
    3
 10
212.94641443201016
 20
169.12308976456927
 11
211.63278115762247
 21
166.22573027739654
  0
LINE
  8
_1-6_
  6
CONTINUOUS
 62
    3
 10
212.01596646695523
 20
172.70964338972763
 11
205.51874109216641
 21
172.11443926836995
  0
LINE
  8
_1-6_
  6
CONTINUOUS
 62
    3
 10
259.95154303473396
 20
147.81191439241977
 11
261.21702451963682
 21
147.23816330368456
  0
LINE
  8
_1-6_
  6
CONTINUOUS
 62
    3
 10
205.51874109216641
 20
172.11443926836995
 11
204.36257852090372
 21
169.56433682828336
  0
LINE
  8
_1-6_
  6
CONTINUOUS
 62
    3
 10
209.50509561074747
 20
169.83352661132812
 11
204.36257852090372
 21
169.56433682828336
  0
LINE
  8
_1-6_
  6
CONTINUOUS
 62
    3
 10
261.21702451963682
 20
147.23816330368456
 11
259.90341598923141
 21
144.34080381651182
  0
LINE
  8
_1-6_
  6
CONTINUOUS
 62
    3
 10
261.21702451963682
 20
147.23816330368456
 11
259.90341598923141
 21
144.34080381651182
  0
LINE
  8
_1-6_
  6
CONTINUOUS
 62
    3
 10
260.28650232263516
 20
150.82460558092274
 11
253.78930169182857
 21
150.22940145956505
  0
LINE
  8
_1-6_
  6
CONTINUOUS
 62
    3
 10
308.22205414643162
 20
125.926888955606
 11
309.48753563133448
 21
125.35313786687078
  0
LINE
  8
_1-6_
  6
CONTINUOUS
 62
    3
 10
253.78930169182857
 20
150.22940145956505
 11
252.63311437658362
 21
147.67929901947846
  0
LINE
  8
_1-6_
  6
CONTINUOUS
 62
    3
 10
257.7756314664274
 20
147.94850117451438
 11
252.63311437658362
 21
147.67929901947846
  0
LINE
  8
_1-6_
  6
CONTINUOUS
 62
    3
 10
309.48753563133448
 20
125.35313786687078
 11
308.17392710092906
 21
122.45579075168919
  0
LINE
  8
_1-6_
  6
CONTINUOUS
 62
    3
 10
309.48753563133448
 20
125.35313786687078
 11
308.17392710092906
 21
122.45579075168919
  0
LINE
  8
_1-6_
  6
CONTINUOUS
 62
    3
 10
307.9248046875
 20
121.90631350955448
 11
307.90884481894005
 21
121.87109045080237
  0
LINE
  8
_1-6_
  6
CONTINUOUS
 62
    3
 10
308.55703817831505
 20
128.93960488809122
 11
302.05983754750844
 21
128.34437602275128
  0
LINE
  8
_1-6_
  6
CONTINUOUS
 62
    3
 10
302.05983754750844
 20
128.34437602275128
 11
300.90367497624578
 21
125.7942735826647
  0
LINE
  8
_1-6_
  6
CONTINUOUS
 62
    3
 10
306.04616732210729
 20
126.06345099371833
 11
300.90367497624578
 21
125.7942735826647
  0
LINE
  8
ADD_LINE
  6
DOT
 62
    4
 10
326.2808557458826
 20
110.77502276446369
 11
335.55537043391047
 21
106.57011702254012
  0
LINE
  8
_1-6_
  6
CONTINUOUS
 62
    3
 10
188.22399654903927
 20
170.46449815904774
 11
189.31241009686445
 21
172.83841107342695
  0
LINE
  8
_1-6_
  6
CONTINUOUS
 62
    3
 10
57.789434484533359
 20
127.97698974609375
 11
59.059215236354532
 21
128.541164913693
  0
LINE
  8
_1-6_
  6
CONTINUOUS
 62
    3
 10
59.059215236354532
 20
128.541164913693
 11
60.350906784470027
 21
125.63396969357053
  0
LINE
  8
_1-6_
  6
CONTINUOUS
 62
    3
 10
59.059215236354532
 20
128.541164913693
 11
60.350906784470027
 21
125.63396969357053
  0
LINE
  8
_1-6_
  6
CONTINUOUS
 62
    3
 10
55.761114584433074
 20
130.22964477539062
 11
51.887465812064505
 21
124.97959033862965
  0
LINE
  8
_1-6_
  6
CONTINUOUS
 62
    3
 10
106.22384973474452
 20
149.49685586465372
 11
107.49363667256124
 21
150.06103103225297
  0
LINE
  8
_1-6_
  6
CONTINUOUS
 62
    3
 10
51.887465812064505
 20
124.97959033862965
 11
53.02434972814612
 21
122.42083987674198
  0
LINE
  8
_1-6_
  6
CONTINUOUS
 62
    3
 10
56.241178770323074
 20
126.44202155035896
 11
53.02434972814612
 21
122.42083987674198
  0
LINE
  8
_1-6_
  6
CONTINUOUS
 62
    3
 10
107.49363667256124
 20
150.06103103225297
 11
108.78532203468117
 21
147.1538358121305
  0
LINE
  8
_1-6_
  6
CONTINUOUS
 62
    3
 10
107.49363667256124
 20
150.06103103225297
 11
108.78532203468117
 21
147.1538358121305
  0
LINE
  8
_1-6_
  6
CONTINUOUS
 62
    3
 10
109.03028745908996
 20
146.6024903993349
 11
109.04599988782729
 21
146.56715599266261
  0
LINE
  8
_1-6_
  6
CONTINUOUS
 62
    3
 10
104.19552364864866
 20
151.74952326594172
 11
100.3219088992557
 21
146.49946882918076
  0
LINE
  8
_1-6_
  6
CONTINUOUS
 62
    3
 10
154.65830210092906
 20
171.0167219832137
 11
155.92810141073693
 21
171.58090952280406
  0
LINE
  8
_1-6_
  6
CONTINUOUS
 62
    3
 10
100.3219088992557
 20
146.49946882918076
 11
101.45878972233953
 21
143.94071836729307
  0
LINE
  8
_1-6_
  6
CONTINUOUS
 62
    3
 10
104.67561876451647
 20
147.96188766891893
 11
101.45878972233953
 21
143.94071836729307
  0
LINE
  8
ADD_LINE
  6
DOT
 62
    4
 10
129.54741606841216
 20
152.9189733556799
 11
138.85341747387037
 21
157.05371753589529
  0
LINE
  8
_1-6_
  6
CONTINUOUS
 62
    3
 10
155.92810141073693
 20
171.58090952280406
 11
157.21978677285685
 21
168.67372667467274
  0
LINE
  8
_1-6_
  6
CONTINUOUS
 62
    3
 10
155.92810141073693
 20
171.58090952280406
 11
157.21978677285685
 21
168.67372667467274
  0
LINE
  8
_1-6_
  6
CONTINUOUS
 62
    3
 10
152.62995127085094
 20
173.26938938450169
 11
148.75633033546242
 21
168.01934731973185
  0
LINE
  8
_1-6_
  6
CONTINUOUS
 62
    3
 10
148.75633033546242
 20
168.01934731973185
 11
149.89320497255068
 21
165.46058448585305
  0
LINE
  8
_1-6_
  6
CONTINUOUS
 62
    3
 10
153.11003401472763
 20
169.48175378747891
 11
149.89320497255068
 21
165.46058448585305
  0
LINE
  8
_1-6_
  6
CONTINUOUS
 62
    3
 10
171.36253150733742
 20
173.81416527000636
 11
172.52474398226352
 21
171.19840467298354
  0
LINE
  8
_1-6_
  6
CONTINUOUS
 62
    7
 10
322.86188074060391
 20
109.87744717984587
 11
188.22399654903927
 21
170.46449815904774
  0
LINE
  8
_1-6_
  6
CONTINUOUS
 62
    7
 10
42.62893882957664
 20
110.5547147183805
 11
175.37293717667865
 21
170.28953346046242
  0
LINE
  8
_1-6_
  6
CONTINUOUS
 62
    7
 10
175.37293717667865
 20
170.28953346046242
 11
176.68611268739443
 21
167.37138902818836
  0
LINE
  8
_1-0_
  6
CONTINUOUS
 62
    7
 10
330.74256690772808
 20
102.82209654112121
 11
187.87802618903083
 21
167.11113182274073
  0
LINE
  8
_1-0_
  6
CONTINUOUS
 62
    7
 10
187.87802618903083
 20
167.11113182274073
 11
181.99290507548565
 21
169.75944312843117
  0
LINE
  8
_1-6_
  6
CONTINUOUS
 62
    7
 10
188.22399654903927
 20
170.46449815904774
 11
186.91083341031461
 21
167.54637847075591
  0
LINE
  8
_1-2_
  6
CONTINUOUS
 62
    3
 10
155.10725691511826
 20
186.16182069520693
 11
155.57789982976141
 21
180.78236760319891
  0
LINE
  8
_1-2_
  6
CONTINUOUS
 62
    3
 10
154.17465622360643
 20
180.0468279864337
 11
154.64529913824958
 21
174.66736252243456
  0
LINE
  8
_1-2_
  6
CONTINUOUS
 62
    3
 10
174.28287815403294
 20
185.41982289907097
 11
174.59664422112544
 21
181.83351671373524
  0
LINE
  8
_1-3_
  6
CONTINUOUS
 62
    7
 10
199.78325921135982
 20
188.05967176282729
 11
209.48906151024073
 21
204.87060959274706
  0
LINE
  8
_1-3_
  6
CONTINUOUS
 62
    7
 10
209.48906151024073
 20
204.87060959274706
 11
201.22486836201438
 21
180.85163838154563
  0
LINE
  8
_1-3_
  6
CONTINUOUS
 62
    7
 10
208.13796584670609
 20
240.64542203336151
 11
213.24324324324326
 21
240.64542203336151
  0
LINE
  8
_1-3_
  6
CONTINUOUS
 62
    7
 10
209.48906151024073
 20
204.87060959274706
 11
213.81643759237755
 21
204.87060959274706
  0
LINE
  8
_1-3_
  6
CONTINUOUS
 62
    7
 10
137.55399961729307
 20
211.36562038112334
 11
130.54054054054055
 21
211.36562038112334
  0
LINE
  8
ADD_LINE
  6
DOT
 62
    7
 10
154.17465622360643
 20
180.04681561444258
 11
153.7124015189506
 21
180.04681561444258
  0
LINE
  8
_1-3_
  6
CONTINUOUS
 62
    7
 10
212.40439750052789
 20
227.05238960884714
 11
214.93686985325169
 21
227.05238960884714
  0
LINE
  8
_1-0_
  6
CONTINUOUS
 62
    7
 10
182.22269006677578
 20
186.54447400892104
 11
162.95201481999578
 21
239.49022447740711
  0
LINE
  8
_1-0_
  6
CONTINUOUS
 62
    7
 10
162.95201481999578
 20
239.49022447740711
 11
160.26505341400971
 21
239.49022447740711
  0
LINE
  8
_1-0_
  6
CONTINUOUS
 62
    7
 10
210.8148193359375
 20
234.7960188582137
 11
213.26516641152872
 21
234.7960188582137
  0
LINE
  8
_1-0_
  6
CONTINUOUS
 62
    7
 10
177.47101654877534
 20
191.90467628272805
 11
165.42594291068414
 21
224.9982431772593
  0
LINE
  8
_1-0_
  6
CONTINUOUS
 62
    7
 10
165.42594291068414
 20
224.9982431772593
 11
175.99291002428211
 21
185.69236549171242
  0
LINE
  8
_1-0_
  6
CONTINUOUS
 62
    7
 10
165.42594291068414
 20
224.9982431772593
 11
161.76771834089951
 21
224.9982431772593
  0
LINE
  8
_1-2_
  6
CONTINUOUS
 62
    3
 10
175.21547884554477
 20
191.53481560784419
 11
175.52924491263727
 21
187.94850942250847
  0
LINE
  8
_1-2_
  6
CONTINUOUS
 62
    3
 10
155.73673145191091
 20
192.00401099952492
 11
156.20737436655406
 21
186.6245579075169
  0
LINE
  8
_1-2_
  6
CONTINUOUS
 62
    3
 10
175.84495338233742
 20
197.37699354017104
 11
176.1587194494299
 21
193.79068735483531
  0
LINE
  8
_1-2_
  6
CONTINUOUS
 62
    3
 10
208.87855323585305
 20
186.16182069520693
 11
208.40792269320102
 21
180.78236760319891
  0
LINE
  8
_1-2_
  6
CONTINUOUS
 62
    3
 10
209.81115392736487
 20
180.0468279864337
 11
209.34052338471284
 21
174.66736252243456
  0
LINE
  8
_1-2_
  6
CONTINUOUS
 62
    3
 10
189.70293199693836
 20
185.41982289907097
 11
189.38916592984586
 21
181.83351671373524
  0
LINE
  8
ADD_LINE
  6
DOT
 62
    7
 10
209.81115392736487
 20
180.04681561444258
 11
210.27342100401182
 21
180.04681561444258
  0
LINE
  8
_1-2_
  6
CONTINUOUS
 62
    3
 10
188.77033130542654
 20
191.53481560784419
 11
188.45656523833404
 21
187.94850942250847
  0
LINE
  8
_1-2_
  6
CONTINUOUS
 62
    3
 10
208.24906632706927
 20
192.00401099952492
 11
207.77843578441724
 21
186.6245579075169
  0
LINE
  8
_1-2_
  6
CONTINUOUS
 62
    3
 10
188.14085676863388
 20
197.37699354017104
 11
187.82709070154141
 21
193.79068735483531
  0
LINE
  8
_1-0_
  6
CONTINUOUS
 62
    7
 10
184.02427467139992
 20
195.93872482712206
 11
210.8148193359375
 21
234.7960188582137
  0
LINE
  8
_1-0_
  6
CONTINUOUS
 62
    3
 10
181.99291744747677
 20
205.38539577174834
 11
182.89290557036529
 21
196.19630968248524
  0
LINE
  8
_1-0_
  6
CONTINUOUS
 62
    3
 10
184.51780576963682
 20
196.4749269227724
 11
181.99291744747677
 21
205.38544525971284
  0
LINE
  8
_1-3_
  6
CONTINUOUS
 62
    7
 10
183.8983154296875
 20
198.66115673168287
 11
208.13796584670609
 21
240.64542203336151
  0
LINE
  8
_1-0_
  6
CONTINUOUS
 62
    7
 10
181.09290458060602
 20
167.59991207638302
 11
181.09290458060602
 21
196.75439783044766
  0
LINE
  8
_1-0_
  6
CONTINUOUS
 62
    7
 10
182.89290557036529
 20
196.75439783044766
 11
181.09290458060602
 21
196.75439783044766
  0
LINE
  8
_1-0_
  6
CONTINUOUS
 62
    7
 10
182.89290557036529
 20
167.5998997043919
 11
182.89290557036529
 21
196.75439783044766
  0
LINE
  8
_1-7_
  6
CONTINUOUS
 62
    3
 10
283.71954840582771
 20
120.9987784720756
 11
276.71502190667229
 21
104.41756377349029
  0
LINE
  8
_1-7_
  6
CONTINUOUS
 62
    3
 10
284.08803578969594
 20
120.84311407965583
 11
277.08350929054058
 21
104.26189938107053
  0
LINE
  8
_1-7_
  6
CONTINUOUS
 62
    3
 10
285.02986598659209
 20
121.53081120671453
 11
292.39931673616979
 21
118.41768419420397
  0
LINE
  8
_1-7_
  6
CONTINUOUS
 62
    3
 10
284.87422633815459
 20
121.16233619483742
 11
292.24365234375
 21
118.04920918232686
  0
LINE
  8
_1-7_
  6
CONTINUOUS
 62
    3
 10
277.2470670133024
 20
103.10724000673036
 11
284.61649301889781
 21
99.994119180215378
  0
LINE
  8
_1-7_
  6
CONTINUOUS
 62
    3
 10
277.40273140572214
 20
103.47571501860747
 11
284.77215741131761
 21
100.36258800609693
  0
LINE
  8
_1-7_
  6
CONTINUOUS
 62
    3
 10
292.93133709881761
 20
117.10736661343962
 11
291.763916015625
 21
114.34383495433912
  0
LINE
  8
_1-7_
  6
CONTINUOUS
 62
    3
 10
292.56287445893162
 20
117.26301863386826
 11
291.39545337573901
 21
114.49948697476775
  0
LINE
  8
_1-7_
  6
CONTINUOUS
 62
    3
 10
291.39545337573901
 20
114.49948697476775
 11
291.763916015625
 21
114.34383495433912
  0
LINE
  8
_1-7_
  6
CONTINUOUS
 62
    3
 10
285.92681059966219
 20
100.52615810084988
 11
287.09423168285474
 21
103.28968975995039
  0
LINE
  8
_1-7_
  6
CONTINUOUS
 62
    3
 10
285.5583479597762
 20
100.68181012127852
 11
286.72576904296875
 21
103.44534796637458
  0
LINE
  8
_1-7_
  6
CONTINUOUS
 62
    3
 10
286.72576904296875
 20
103.44534796637458
 11
287.09423168285474
 21
103.28968975995039
  0
LINE
  8
_1-7_
  6
CONTINUOUS
 62
    3
 10
80.266249373152448
 20
120.9987784720756
 11
87.270782058303425
 21
104.41756377349029
  0
LINE
  8
_1-7_
  6
CONTINUOUS
 62
    3
 10
79.897780547270912
 20
120.84311407965583
 11
86.902313232421875
 21
104.26189938107053
  0
LINE
  8
_1-7_
  6
CONTINUOUS
 62
    3
 10
78.9559317923881
 20
121.53081120671453
 11
71.586505786792657
 21
118.41768419420397
  0
LINE
  8
_1-7_
  6
CONTINUOUS
 62
    3
 10
79.111589998812292
 20
121.16233619483742
 11
71.742163993216849
 21
118.04920918232686
  0
LINE
  8
_1-7_
  6
CONTINUOUS
 62
    3
 10
86.738743137668919
 20
103.10724000673036
 11
79.36931713207349
 21
99.994119180215378
  0
LINE
  8
_1-7_
  6
CONTINUOUS
 62
    3
 10
86.583084931244727
 20
103.47571501860747
 11
79.21365892564927
 21
100.36258800609693
  0
LINE
  8
_1-7_
  6
CONTINUOUS
 62
    3
 10
71.054466866158151
 20
117.10736661343962
 11
72.22188794935073
 21
114.34383495433912
  0
LINE
  8
_1-7_
  6
CONTINUOUS
 62
    3
 10
71.42294187803526
 20
117.26301863386826
 11
72.590362961227839
 21
114.49948697476775
  0
LINE
  8
_1-7_
  6
CONTINUOUS
 62
    3
 10
72.590362961227839
 20
114.49948697476775
 11
72.22188794935073
 21
114.34383495433912
  0
LINE
  8
_1-7_
  6
CONTINUOUS
 62
    3
 10
78.058999551309114
 20
100.52615810084988
 11
76.891578468116563
 21
103.28968975995039
  0
LINE
  8
_1-7_
  6
CONTINUOUS
 62
    3
 10
78.427468377190678
 20
100.68181012127852
 11
77.260047293998099
 21
103.44534796637458
  0
LINE
  8
_1-7_
  6
CONTINUOUS
 62
    3
 10
77.260047293998099
 20
103.44534796637458
 11
76.891578468116563
 21
103.28968975995039
  0
LINE
  8
_1-4_
  6
CONTINUOUS
 62
    7
 10
114.44394910657729
 20
151.16258363466005
 11
99.372222487990925
 21
177.26757152660474
  0
LINE
  8
_1-4_
  6
CONTINUOUS
 62
    7
 10
99.372222487990925
 20
177.26757152660474
 11
91.741252589870143
 21
177.26757152660474
  0
LINE
  8
_1-7_
  6
CONTINUOUS
 62
    7
 10
294.58188443570526
 20
192.69799309807857
 11
300.32956509976776
 21
192.69799309807857
  0
LINE
  8
_1-7_
  6
CONTINUOUS
 62
    7
 10
300.32956509976776
 20
185.65251530827703
 11
292.32038343274917
 21
185.65251530827703
  0
LINE
  8
_1-7_
  6
CONTINUOUS
 62
    7
 10
300.32956509976776
 20
175.5667444177576
 11
289.0829797693201
 21
175.5667444177576
  0
LINE
  8
_1-7_
  6
CONTINUOUS
 62
    7
 10
300.32956509976776
 20
168.70282559781461
 11
286.87975084459458
 21
168.70282559781461
  0
LINE
  8
_1-7_
  6
CONTINUOUS
 62
    7
 10
300.32956509976776
 20
161.8388944058805
 11
284.67649717588682
 21
161.8388944058805
  0
LINE
  8
_1-7_
  6
CONTINUOUS
 62
    7
 10
300.32956509976776
 20
155.95553011507602
 11
282.78801170555323
 21
155.95553011507602
  0
LINE
  8
_1-7_
  6
CONTINUOUS
 62
    7
 10
273.56887404983109
 20
127.23434860641892
 11
294.58188443570526
 21
192.69799309807857
  0
LINE
  8
_1-2_
  6
CONTINUOUS
 62
    3
 10
181.99290507548565
 20
205.06299405484586
 11
182.01858932907518
 21
205.18830995301943
  0
LINE
  8
_1-2_
  6
CONTINUOUS
 62
    3
 10
182.01858932907518
 20
205.18830995301943
 11
182.11428668047932
 21
205.28400730442357
  0
LINE
  8
_1-2_
  6
CONTINUOUS
 62
    3
 10
182.11428668047932
 20
205.28400730442357
 11
182.20997165989232
 21
205.3079347352724
  0
LINE
  8
_1-2_
  6
CONTINUOUS
 62
    3
 10
182.20997165989232
 20
205.3079347352724
 11
182.30566901129646
 21
205.3079347352724
  0
LINE
  8
_1-2_
  6
CONTINUOUS
 62
    3
 10
182.30566901129646
 20
205.3079347352724
 11
182.4013663627006
 21
205.3079347352724
  0
LINE
  8
_1-2_
  6
CONTINUOUS
 62
    3
 10
182.4013663627006
 20
205.3079347352724
 11
182.30566901129646
 21
205.18830995301943
  0
LINE
  8
_1-2_
  6
CONTINUOUS
 62
    3
 10
182.30566901129646
 20
205.18830995301943
 11
182.20997165989232
 21
205.14046746331294
  0
LINE
  8
_1-2_
  6
CONTINUOUS
 62
    3
 10
182.20997165989232
 20
205.14046746331294
 11
182.11428668047932
 21
205.11654003246412
  0
LINE
  8
_1-2_
  6
CONTINUOUS
 62
    3
 10
182.11428668047932
 20
205.11654003246412
 11
181.99290507548565
 21
205.06299405484586
  0
LINE
  8
_1-2_
  6
CONTINUOUS
 62
    3
 10
181.99291744747677
 20
205.06299405484586
 11
181.94681940851987
 21
205.18830995301943
  0
LINE
  8
_1-2_
  6
CONTINUOUS
 62
    3
 10
181.94681940851987
 20
205.18830995301943
 11
181.85112205711573
 21
205.21223738386826
  0
LINE
  8
_1-2_
  6
CONTINUOUS
 62
    3
 10
181.85112205711573
 20
205.21223738386826
 11
181.75542470571159
 21
205.21223738386826
  0
LINE
  8
_1-2_
  6
CONTINUOUS
 62
    3
 10
181.75542470571159
 20
205.21223738386826
 11
181.65972735430745
 21
205.21223738386826
  0
LINE
  8
_1-2_
  6
CONTINUOUS
 62
    3
 10
181.65972735430745
 20
205.21223738386826
 11
181.56403000290331
 21
205.21223738386826
  0
LINE
  8
_1-2_
  6
CONTINUOUS
 62
    3
 10
181.56403000290331
 20
205.21223738386826
 11
181.46834502349029
 21
205.23616481471709
  0
LINE
  8
_1-2_
  6
CONTINUOUS
 62
    3
 10
181.46834502349029
 20
205.23616481471709
 11
181.37264767208615
 21
205.23616481471709
  0
LINE
  8
_1-2_
  6
CONTINUOUS
 62
    3
 10
181.37264767208615
 20
205.23616481471709
 11
181.46834502349029
 21
205.18830995301943
  0
LINE
  8
_1-2_
  6
CONTINUOUS
 62
    3
 10
181.46834502349029
 20
205.18830995301943
 11
181.56403000290331
 21
205.16439489416175
  0
LINE
  8
_1-2_
  6
CONTINUOUS
 62
    3
 10
181.56403000290331
 20
205.16439489416175
 11
181.65972735430745
 21
205.14046746331294
  0
LINE
  8
_1-2_
  6
CONTINUOUS
 62
    3
 10
181.65972735430745
 20
205.14046746331294
 11
181.77935213656039
 21
205.11654003246412
  0
LINE
  8
_1-2_
  6
CONTINUOUS
 62
    3
 10
181.77935213656039
 20
205.11654003246412
 11
181.87504948796453
 21
205.11654003246412
  0
LINE
  8
_1-2_
  6
CONTINUOUS
 62
    3
 10
181.87504948796453
 20
205.11654003246412
 11
181.99466189822635
 21
205.09262497360643
  0
LINE
  8
_1-2_
  6
CONTINUOUS
 62
    3
 10
181.99466189822635
 20
205.09262497360643
 11
181.99291744747677
 21
205.06299405484586
  0
CIRCLE
  8
_1-3_
  6
CONTINUOUS
 62
    7
 10
187.64790715398016
 20
170.00182280669341
 40
0.3036581503378378
  0
CIRCLE
  8
_1-3_
  6
CONTINUOUS
 62
    7
 10
176.26055330843539
 20
170.00182280669341
 40
0.3036581503378378
  0
CIRCLE
  8
_1-3_
  6
CONTINUOUS
 62
    7
 10
186.43324980864654
 20
169.24267743084883
 40
0.3036581503378378
  0
CIRCLE
  8
_1-3_
  6
CONTINUOUS
 62
    7
 10
178.38619747677365
 20
170.60915147936024
 40
0.3036581503378378
  0
CIRCLE
  8
_1-3_
  6
CONTINUOUS
 62
    7
 10
177.93069787927578
 20
169.54633558118667
 40
0.3036581503378378
  0
CIRCLE
  8
_1-3_
  6
CONTINUOUS
 62
    7
 10
200.86505374392948
 20
170.74299167942357
 40
0.3036581503378378
  0
CIRCLE
  8
_1-3_
  6
CONTINUOUS
 62
    7
 10
160.10538049646328
 20
170.0151350691512
 40
0.3036581503378378
  0
CIRCLE
  8
_1-3_
  6
CONTINUOUS
 62
    7
 10
159.62015100427578
 20
169.04466371278505
 40
0.3036581503378378
  0
CIRCLE
  8
_1-3_
  6
CONTINUOUS
 62
    7
 10
162.28893795528927
 20
170.50037693332982
 40
0.3036581503378378
  0
ARC
  8
_1-0_
  6
CONTINUOUS
 62
    3
 10
180.39290969436234
 20
137.92241276921453
 40
0.9999999162313101
 50
0
 51
90
  0
ARC
  8
_1-0_
  6
CONTINUOUS
 62
    3
 10
183.59290045660896
 20
137.92241276921453
 40
0.9999999162313101
 50
90
 51
180
  0
ARC
  8
_1-0_
  6
CONTINUOUS
 62
    3
 10
183.59290045660896
 20
103.12241425385346
 40
0.9999999162313101
 50
180
 51
270
  0
ARC
  8
_1-0_
  6
CONTINUOUS
 62
    3
 10
180.39290969436234
 20
103.12241425385346
 40
0.9999999162313101
 50
270
 51
0
  0
ARC
  8
_1-6_
  6
CONTINUOUS
 62
    3
 10
210.72170773067992
 20
170.09946256070523
 40
1.0402513194728542
 50
284.693115234375
 51
337.22573852539062
  0
ARC
  8
_1-6_
  6
CONTINUOUS
 62
    3
 10
212.68063931851773
 20
169.71998884871201
 40
3.0627306731971538
 50
18.301818847656239
 51
102.53201293945312
  0
ARC
  8
_1-6_
  6
CONTINUOUS
 62
    3
 10
258.99229307432432
 20
148.21453609982052
 40
1.0402513194728542
 50
284.693115234375
 51
337.22573852539062
  0
ARC
  8
_1-6_
  6
CONTINUOUS
 62
    3
 10
255.92302477037586
 20
193.36217106999578
 40
46.274049088761615
 50
209.34938049316403
 51
274.13064575195312
  0
ARC
  8
_1-6_
  6
CONTINUOUS
 62
    3
 10
210.47634640255492
 20
165.31026479360222
 40
4.6263270764737516
 50
22.734313964843739
 51
102.11843872070312
  0
ARC
  8
_1-6_
  6
CONTINUOUS
 62
    3
 10
255.97105283994935
 20
192.72482794684333
 40
48.543530025997683
 50
211.86442565917969
 51
274.64628601074219
  0
ARC
  8
_1-6_
  6
CONTINUOUS
 62
    3
 10
260.95117517419766
 20
147.83495103990711
 40
3.0627306731971538
 50
18.301818847656239
 51
102.53201293945312
  0
ARC
  8
_1-6_
  6
CONTINUOUS
 62
    3
 10
307.26285367398651
 20
126.32951066300676
 40
1.0402513194728542
 50
284.693115234375
 51
337.22573852539062
  0
ARC
  8
_1-6_
  6
CONTINUOUS
 62
    3
 10
304.19358537003802
 20
171.47712088919977
 40
46.274049088761615
 50
209.34938049316403
 51
274.13064575195312
  0
ARC
  8
_1-6_
  6
CONTINUOUS
 62
    3
 10
258.74688225823479
 20
143.42523935678844
 40
4.6263270764737516
 50
22.734313964843739
 51
102.11843872070312
  0
ARC
  8
_1-6_
  6
CONTINUOUS
 62
    3
 10
304.24161343961151
 20
170.83980251002956
 40
48.543530025997683
 50
211.86442565917969
 51
274.64628601074219
  0
ARC
  8
_1-6_
  6
CONTINUOUS
 62
    3
 10
309.22173577385979
 20
125.94992560309333
 40
3.0627306731971538
 50
18.301818847656239
 51
102.53201293945312
  0
ARC
  8
_1-6_
  6
CONTINUOUS
 62
    3
 10
307.01741811391469
 20
121.54018917599241
 40
4.6263270764737516
 50
22.734313964843739
 51
102.11843872070312
  0
ARC
  8
_1-6_
  6
CONTINUOUS
 62
    3
 10
209.79833654455237
 20
226.80591480152029
 40
57.724895992794558
 50
249.2133483886719
 51
271.178466796875
  0
ARC
  8
_1-6_
  6
CONTINUOUS
 62
    3
 10
211.85614508551521
 20
234.21673748944258
 40
67.991378371779987
 50
249.66087341308594
 51
269.81178283691406
  0
ARC
  8
_1-6_
  6
CONTINUOUS
 62
    3
 10
56.851056073163022
 20
127.52788646801099
 40
1.0402513194728542
 50
333.03787231445312
 51
25.570495605468768
  0
ARC
  8
_1-6_
  6
CONTINUOUS
 62
    3
 10
58.436631898622267
 20
128.73919100374789
 40
3.0627306731971538
 50
66.646575927734375
 51
150.87677001953125
  0
ARC
  8
_1-6_
  6
CONTINUOUS
 62
    3
 10
105.28549606735642
 20
149.04776495856208
 40
1.0402513194728542
 50
333.03787231445312
 51
25.570495605468768
  0
ARC
  8
_1-6_
  6
CONTINUOUS
 62
    3
 10
69.513139466981613
 20
176.76177978515625
 40
46.274049088761615
 50
257.69413757324219
 51
322.47540283203125
  0
ARC
  8
_1-6_
  6
CONTINUOUS
 62
    3
 10
60.266300923115494
 20
124.16131921716639
 40
4.6263270764737516
 50
71.079071044921889
 51
150.46319580078128
  0
ARC
  8
_1-6_
  6
CONTINUOUS
 62
    3
 10
70.021238584776199
 20
176.37405395507812
 40
48.543530025997683
 50
260.20918273925781
 51
322.99104309082031
  0
ARC
  8
_1-6_
  6
CONTINUOUS
 62
    3
 10
106.87107807881124
 20
150.25906949429898
 40
3.0627306731971538
 50
66.646575927734375
 51
150.87677001953125
  0
ARC
  8
_1-6_
  6
CONTINUOUS
 62
    3
 10
153.71994843354096
 20
170.56763107712206
 40
1.0402513194728542
 50
333.03787231445312
 51
25.570495605468768
  0
ARC
  8
_1-6_
  6
CONTINUOUS
 62
    3
 10
117.94756090318835
 20
198.28164590371622
 40
46.274049088761615
 50
257.69413757324219
 51
322.47540283203125
  0
ARC
  8
_1-6_
  6
CONTINUOUS
 62
    3
 10
108.70074710330448
 20
145.68118533572635
 40
4.6263270764737516
 50
71.079071044921889
 51
150.46319580078128
  0
ARC
  8
_1-6_
  6
CONTINUOUS
 62
    3
 10
118.4556785789696
 20
197.89393244562925
 40
48.543530025997683
 50
260.20918273925781
 51
322.99104309082031
  0
ARC
  8
_1-6_
  6
CONTINUOUS
 62
    3
 10
155.3054933290224
 20
171.77893561285896
 40
3.0627306731971538
 50
66.646575927734375
 51
150.87677001953125
  0
ARC
  8
_1-6_
  6
CONTINUOUS
 62
    3
 10
157.13516235351562
 20
167.20106382627745
 40
4.6263270764737516
 50
71.079071044921889
 51
150.46319580078128
  0
ARC
  8
_1-6_
  6
CONTINUOUS
 62
    3
 10
166.89009382918076
 20
219.41379856418919
 40
48.543530025997683
 50
260.20918273925781
 51
276.66558837890625
  0
ARC
  8
_1-6_
  6
CONTINUOUS
 62
    3
 10
166.35099668760557
 20
220.26434821051521
 40
46.719762441274284
 50
257.85218811035156
 51
276.15785217285156
  0
ARC
  8
_1-6_
  6
CONTINUOUS
 62
    3
 10
352.51214929529141
 20
148.95476470122466
 40
48.543530025997683
 50
211.86442565917969
 51
232.352783203125
  0
ARC
  8
_1-6_
  6
CONTINUOUS
 62
    3
 10
352.46412122571792
 20
149.59210782437711
 40
46.274049088761615
 50
209.34938049316403
 51
230.22937011718747
  0
ARC
  8
_1-6_
  6
CONTINUOUS
 62
    3
 10
21.586795497585001
 20
154.85417546452703
 40
48.543530025997683
 50
295.68794250488281
 51
322.99104309082031
  0
ARC
  8
_1-6_
  6
CONTINUOUS
 62
    3
 10
21.078676275304844
 20
155.24188892261404
 40
46.274049088761615
 50
297.75613403320312
 51
322.47540283203131
  0
ARC
  8
_1-2_
  6
CONTINUOUS
 62
    3
 10
179.15597039300044
 20
146.49484170449747
 40
41.612016832506335
 50
95
 51
124.5146484375
  0
ARC
  8
_1-2_
  6
CONTINUOUS
 62
    3
 10
180.4594710066512
 20
131.59574766416807
 40
60.168024011560391
 50
95
 51
114.92028808593749
  0
ARC
  8
_1-2_
  6
CONTINUOUS
 62
    3
 10
178.22336970148862
 20
140.37983662373313
 40
41.612016832506335
 50
95
 51
124.5146484375
  0
ARC
  8
_1-2_
  6
CONTINUOUS
 62
    3
 10
179.52687031513938
 20
125.48074258340372
 40
60.168024011560391
 50
95
 51
114.92028808593749
  0
CIRCLE
  8
_1-3_
  6
CONTINUOUS
 62
    7
 10
189.55594037030195
 20
186.84720425992398
 40
0.3036581503378378
  0
CIRCLE
  8
_1-3_
  6
CONTINUOUS
 62
    7
 10
191.37791401631125
 20
186.54353373759503
 40
0.3036581503378378
  0
CIRCLE
  8
_1-3_
  6
CONTINUOUS
 62
    7
 10
191.83341361380914
 20
186.54353373759503
 40
0.3036581503378378
  0
CIRCLE
  8
_1-3_
  6
CONTINUOUS
 62
    7
 10
194.26271593248524
 20
186.23987558725719
 40
0.3036581503378378
  0
CIRCLE
  8
_1-3_
  6
CONTINUOUS
 62
    7
 10
195.47737327781886
 20
186.08804651208828
 40
0.3036581503378378
  0
CIRCLE
  8
_1-3_
  6
CONTINUOUS
 62
    7
 10
197.14751784865922
 20
185.63254691459039
 40
0.3036581503378378
  0
CIRCLE
  8
_1-3_
  6
CONTINUOUS
 62
    7
 10
174.53426464183912
 20
186.99903333509292
 40
0.3036581503378378
  0
CIRCLE
  8
_1-3_
  6
CONTINUOUS
 62
    7
 10
173.3196072965055
 20
186.54353373759503
 40
0.3036581503378378
  0
CIRCLE
  8
_1-3_
  6
CONTINUOUS
 62
    7
 10
170.89031734982052
 20
186.23987558725719
 40
0.3036581503378378
  0
CIRCLE
  8
_1-3_
  6
CONTINUOUS
 62
    7
 10
168.76467318148227
 20
186.08804651208828
 40
0.3036581503378378
  0
CIRCLE
  8
_1-3_
  6
CONTINUOUS
 62
    7
 10
166.94269953547297
 20
185.63254691459039
 40
0.3036581503378378
  0
CIRCLE
  8
_1-3_
  6
CONTINUOUS
 62
    7
 10
165.87988363729943
 20
185.17705968908362
 40
0.3036581503378378
  0
CIRCLE
  8
_1-3_
  6
CONTINUOUS
 62
    7
 10
164.36156814162797
 20
184.87338916675466
 40
0.3036581503378378
  0
CIRCLE
  8
_1-3_
  6
CONTINUOUS
 62
    7
 10
171.64946272566513
 20
178.04098180822425
 40
0.3036581503378378
  0
CIRCLE
  8
_1-3_
  6
CONTINUOUS
 62
    7
 10
172.25679139833193
 20
175.45985041437925
 40
0.3036581503378378
  0
CIRCLE
  8
_1-3_
  6
CONTINUOUS
 62
    7
 10
173.16777822133659
 20
176.97816591005068
 40
0.3036581503378378
  0
CIRCLE
  8
_1-3_
  6
CONTINUOUS
 62
    7
 10
173.77510689400339
 20
178.04098180822425
 40
0.3036581503378378
  0
CIRCLE
  8
_1-3_
  6
CONTINUOUS
 62
    7
 10
169.67566000448693
 20
178.04098180822425
 40
0.3036581503378378
  0
CIRCLE
  8
_1-3_
  6
CONTINUOUS
 62
    7
 10
169.06834370381125
 20
178.49648140572214
 40
0.3036581503378378
  0
CIRCLE
  8
_1-3_
  6
CONTINUOUS
 62
    7
 10
164.20973906645904
 20
174.24519306904563
 40
0.3036581503378378
  0
CIRCLE
  8
_1-3_
  6
CONTINUOUS
 62
    7
 10
166.69517310889992
 20
174.04422244510135
 40
0.3036581503378378
  0
CIRCLE
  8
_1-3_
  6
CONTINUOUS
 62
    7
 10
169.73180410024284
 20
174.04422244510135
 40
0.3036581503378378
  0
CIRCLE
  8
_1-3_
  6
CONTINUOUS
 62
    7
 10
169.523830929318
 20
177.12999498521961
 40
0.3036581503378378
  0
CIRCLE
  8
_1-3_
  6
CONTINUOUS
 62
    7
 10
177.47521065376901
 20
174.34788059543919
 40
0.3036581503378378
  0
CIRCLE
  8
_1-3_
  6
CONTINUOUS
 62
    7
 10
177.01971105627112
 20
173.13323562209672
 40
0.3036581503378378
  0
CIRCLE
  8
_1-3_
  6
CONTINUOUS
 62
    7
 10
180.36000019795188
 20
173.58872284760346
 40
0.3036581503378378
  0
CIRCLE
  8
_1-3_
  6
CONTINUOUS
 62
    7
 10
183.24480211412586
 20
174.49970967060813
 40
0.3036581503378378
  0
CIRCLE
  8
_1-3_
  6
CONTINUOUS
 62
    7
 10
188.10340675147805
 20
172.67773602459883
 40
0.3036581503378378
  0
CIRCLE
  8
_1-3_
  6
CONTINUOUS
 62
    7
 10
186.58509125580659
 20
175.71436701594175
 40
0.3036581503378378
  0
CIRCLE
  8
_1-3_
  6
CONTINUOUS
 62
    7
 10
189.55594037030195
 20
177.28182406038852
 40
0.3036581503378378
  0
CIRCLE
  8
_1-3_
  6
CONTINUOUS
 62
    7
 10
188.94862406962628
 20
177.88915273305534
 40
0.3036581503378378
  0
CIRCLE
  8
_1-3_
  6
CONTINUOUS
 62
    7
 10
189.25228221996412
 20
179.71112637906461
 40
0.3036581503378378
  0
CIRCLE
  8
_1-3_
  6
CONTINUOUS
 62
    7
 10
191.68158453864021
 20
178.80013955605997
 40
0.3036581503378378
  0
CIRCLE
  8
_1-3_
  6
CONTINUOUS
 62
    7
 10
193.35172910948057
 20
178.49648140572214
 40
0.3036581503378378
  0
CIRCLE
  8
_1-3_
  6
CONTINUOUS
 62
    7
 10
195.47737327781886
 20
179.5592973038957
 40
0.3036581503378378
  0
CIRCLE
  8
_1-3_
  6
CONTINUOUS
 62
    7
 10
196.69201825116133
 20
179.71112637906461
 40
0.3036581503378378
  0
CIRCLE
  8
_1-3_
  6
CONTINUOUS
 62
    7
 10
197.29934692382812
 20
179.71112637906461
 40
0.3036581503378378
  0
CIRCLE
  8
_1-3_
  6
CONTINUOUS
 62
    7
 10
197.51694550385346
 20
175.86619609111065
 40
0.3036581503378378
  0
CIRCLE
  8
_1-3_
  6
CONTINUOUS
 62
    7
 10
198.12427417652029
 20
174.34788059543919
 40
0.3036581503378378
  0
CIRCLE
  8
_1-3_
  6
CONTINUOUS
 62
    7
 10
194.32848543734164
 20
175.41070886560391
 40
0.3036581503378378
  0
CIRCLE
  8
_1-3_
  6
CONTINUOUS
 62
    7
 10
194.48031451251057
 20
174.49970967060813
 40
0.3036581503378378
  0
CIRCLE
  8
_1-3_
  6
CONTINUOUS
 62
    7
 10
195.2394722603463
 20
174.19605152027029
 40
0.3036581503378378
  0
CIRCLE
  8
_1-3_
  6
CONTINUOUS
 62
    7
 10
197.6687745790224
 20
172.98139417493667
 40
0.3036581503378378
  0
CIRCLE
  8
_1-3_
  6
CONTINUOUS
 62
    7
 10
198.12427417652029
 20
172.98139417493667
 40
0.3036581503378378
  0
CIRCLE
  8
_1-3_
  6
CONTINUOUS
 62
    7
 10
198.88343192435602
 20
172.22224879909206
 40
0.3036581503378378
  0
CIRCLE
  8
_1-3_
  6
CONTINUOUS
 62
    7
 10
195.2394722603463
 20
173.74056429476352
 40
0.3036581503378378
  0
CIRCLE
  8
_1-3_
  6
CONTINUOUS
 62
    7
 10
195.62920235298776
 20
175.91533763988599
 40
0.3036581503378378
  0
CIRCLE
  8
_1-3_
  6
CONTINUOUS
 62
    7
 10
185.82593350797086
 20
173.74056429476352
 40
0.3036581503378378
  0
CIRCLE
  8
_1-3_
  6
CONTINUOUS
 62
    7
 10
184.76310523780617
 20
172.82956509976773
 40
0.3036581503378378
  0
CIRCLE
  8
_1-3_
  6
CONTINUOUS
 62
    7
 10
183.24480211412586
 20
172.37407787426099
 40
0.3036581503378378
  0
CIRCLE
  8
_1-3_
  6
CONTINUOUS
 62
    7
 10
178.38619747677365
 20
172.82956509976773
 40
0.3036581503378378
  0
CIRCLE
  8
_1-3_
  6
CONTINUOUS
 62
    7
 10
175.95689515809755
 20
175.10703834327492
 40
0.3036581503378378
  0
CIRCLE
  8
_1-3_
  6
CONTINUOUS
 62
    7
 10
164.72137038772172
 20
173.89239336993245
 40
0.3036581503378378
  0
CIRCLE
  8
_1-3_
  6
CONTINUOUS
 62
    7
 10
165.42438403980154
 20
178.80013955605997
 40
0.3036581503378378
  0
CIRCLE
  8
_1-3_
  6
CONTINUOUS
 62
    7
 10
172.86412007099875
 20
179.86295545423354
 40
0.3036581503378378
  0
CIRCLE
  8
_1-3_
  6
CONTINUOUS
 62
    7
 10
175.74892198717274
 20
180.62211320206927
 40
0.3036581503378378
  0
CIRCLE
  8
_1-3_
  6
CONTINUOUS
 62
    7
 10
188.49312447212839
 20
182.74775737040753
 40
0.3036581503378378
  0
CIRCLE
  8
_1-3_
  6
CONTINUOUS
 62
    7
 10
188.64495354729732
 20
184.87338916675466
 40
0.3036581503378378
  0
CIRCLE
  8
_1-3_
  6
CONTINUOUS
 62
    7
 10
175.74892198717274
 20
183.96240234375
 40
0.3036581503378378
  0
CIRCLE
  8
_1-3_
  6
CONTINUOUS
 62
    7
 10
189.55594037030195
 20
180.1666259765625
 40
0.3036581503378378
  0
CIRCLE
  8
_1-3_
  6
CONTINUOUS
 62
    7
 10
189.10045314479521
 20
176.67449538772172
 40
0.3036581503378378
  0
CIRCLE
  8
_1-3_
  6
CONTINUOUS
 62
    7
 10
192.59257136164487
 20
177.58548221072635
 40
0.3036581503378378
  0
CIRCLE
  8
_1-3_
  6
CONTINUOUS
 62
    7
 10
192.89622951198271
 20
176.67449538772172
 40
0.3036581503378378
  0
CIRCLE
  8
_1-3_
  6
CONTINUOUS
 62
    7
 10
192.89622951198271
 20
176.67449538772172
 40
0.3036581503378378
  0
CIRCLE
  8
_1-3_
  6
CONTINUOUS
 62
    7
 10
188.10340675147805
 20
175.86619609111065
 40
0.3036581503378378
  0
CIRCLE
  8
_1-3_
  6
CONTINUOUS
 62
    7
 10
185.06677576013516
 20
172.22224879909206
 40
0.3036581503378378
  0
CIRCLE
  8
_1-3_
  6
CONTINUOUS
 62
    7
 10
178.84168470228042
 20
175.10703834327492
 40
0.3036581503378378
  0
CIRCLE
  8
_1-3_
  6
CONTINUOUS
 62
    7
 10
169.67566000448693
 20
175.15619226404141
 40
0.3036581503378378
  0
CIRCLE
  8
_1-3_
  6
CONTINUOUS
 62
    7
 10
172.86412007099875
 20
176.82633683488177
 40
0.3036581503378378
  0
CIRCLE
  8
_1-3_
  6
CONTINUOUS
 62
    7
 10
169.22017277898016
 20
180.01478452940245
 40
0.3036581503378378
  0
CIRCLE
  8
_1-3_
  6
CONTINUOUS
 62
    7
 10
186.43324980864654
 20
172.82956509976773
 40
0.3036581503378378
  0
CIRCLE
  8
_1-3_
  6
CONTINUOUS
 62
    7
 10
187.49607807881125
 20
174.95520926810602
 40
0.3036581503378378
  0
CIRCLE
  8
_1-3_
  6
CONTINUOUS
 62
    7
 10
194.56637408282307
 20
177.88915273305534
 40
0.3036581503378378
  0
CIRCLE
  8
_1-3_
  6
CONTINUOUS
 62
    7
 10
174.07877741633237
 20
176.37083723738388
 40
0.3036581503378378
  0
CIRCLE
  8
_1-3_
  6
CONTINUOUS
 62
    7
 10
173.92693596917232
 20
178.95196863122891
 40
0.3036581503378378
  0
CIRCLE
  8
_1-3_
  6
CONTINUOUS
 62
    7
 10
171.64946272566513
 20
178.95196863122891
 40
0.3036581503378378
  0
CIRCLE
  8
_1-3_
  6
CONTINUOUS
 62
    7
 10
178.53802655194258
 20
174.49970967060813
 40
0.3036581503378378
  0
CIRCLE
  8
_1-3_
  6
CONTINUOUS
 62
    7
 10
167.0945286106419
 20
175.76350856471706
 40
0.3036581503378378
  0
CIRCLE
  8
_1-3_
  6
CONTINUOUS
 62
    7
 10
167.39819913297086
 20
176.82633683488177
 40
0.3036581503378378
  0
CIRCLE
  8
_1-3_
  6
CONTINUOUS
 62
    7
 10
191.52974309148016
 20
177.12999498521961
 40
0.3036581503378378
  0
CIRCLE
  8
_1-3_
  6
CONTINUOUS
 62
    7
 10
191.83341361380914
 20
180.1666259765625
 40
0.3036581503378378
  0
CIRCLE
  8
_1-3_
  6
CONTINUOUS
 62
    7
 10
185.42052810256547
 20
185.99036964210305
 40
0.3036581503378378
  0
CIRCLE
  8
_1-3_
  6
CONTINUOUS
 62
    7
 10
185.83375260636615
 20
183.23549837679477
 40
0.3036581503378378
  0
CIRCLE
  8
_1-3_
  6
CONTINUOUS
 62
    7
 10
183.90534272065034
 20
180.06739023569469
 40
0.3036581503378378
  0
CIRCLE
  8
_1-3_
  6
CONTINUOUS
 62
    7
 10
186.52247660868878
 20
178.00123060071792
 40
0.3036581503378378
  0
CIRCLE
  8
_1-3_
  6
CONTINUOUS
 62
    7
 10
186.24698948215794
 20
178.82769198031039
 40
0.3036581503378378
  0
CIRCLE
  8
_1-3_
  6
CONTINUOUS
 62
    7
 10
185.00729122677365
 20
185.16390826251057
 40
0.3036581503378378
  0
CIRCLE
  8
_1-3_
  6
CONTINUOUS
 62
    7
 10
185.97150235562711
 20
190.39817603858742
 40
0.3036581503378378
  0
CIRCLE
  8
_1-3_
  6
CONTINUOUS
 62
    7
 10
181.97692046294341
 20
190.67366316511826
 40
0.3036581503378378
  0
CIRCLE
  8
_1-3_
  6
CONTINUOUS
 62
    7
 10
179.22204919763516
 20
191.63787429397172
 40
0.3036581503378378
  0
CIRCLE
  8
_1-3_
  6
CONTINUOUS
 62
    7
 10
177.84461356498102
 20
191.08690004091005
 40
0.3036581503378378
  0
CIRCLE
  8
_1-3_
  6
CONTINUOUS
 62
    7
 10
177.0181398133974
 20
188.60750353014149
 40
0.3036581503378378
  0
CIRCLE
  8
_1-3_
  6
CONTINUOUS
 62
    7
 10
177.84461356498102
 20
186.54134389516472
 40
0.3036581503378378
  0
CIRCLE
  8
_1-3_
  6
CONTINUOUS
 62
    7
 10
177.84461356498102
 20
182.96001125026393
 40
0.3036581503378378
  0
CIRCLE
  8
_1-3_
  6
CONTINUOUS
 62
    7
 10
179.22204919763516
 20
181.169338741818
 40
0.3036581503378378
  0
CIRCLE
  8
_1-3_
  6
CONTINUOUS
 62
    7
 10
178.5333251953125
 20
179.65415335990289
 40
0.3036581503378378
  0
CIRCLE
  8
_1-3_
  6
CONTINUOUS
 62
    7
 10
176.74265268686656
 20
177.86348085145693
 40
0.3036581503378378
  0
CIRCLE
  8
_1-3_
  6
CONTINUOUS
 62
    7
 10
180.04851057722763
 20
182.13353749868034
 40
0.3036581503378378
  0
CIRCLE
  8
_1-3_
  6
CONTINUOUS
 62
    7
 10
179.22204919763516
 20
185.16390826251057
 40
0.3036581503378378
  0
CIRCLE
  8
_1-3_
  6
CONTINUOUS
 62
    7
 10
184.31856722445102
 20
183.92421000712628
 40
0.3036581503378378
  0
CIRCLE
  8
_1-3_
  6
CONTINUOUS
 62
    7
 10
185.14504097603464
 20
179.37866623337206
 40
0.3036581503378378
  0
CIRCLE
  8
_1-3_
  6
CONTINUOUS
 62
    7
 10
177.29362693992823
 20
178.41445510451859
 40
0.3036581503378378
  0
CIRCLE
  8
_1-3_
  6
CONTINUOUS
 62
    7
 10
201.83553747228675
 20
177.14737763275971
 40
0.3036581503378378
  0
CIRCLE
  8
_1-3_
  6
CONTINUOUS
 62
    7
 10
198.68150865709461
 20
177.63260712494721
 40
0.3036581503378378
  0
CIRCLE
  8
_1-3_
  6
CONTINUOUS
 62
    7
 10
198.92412340318836
 20
175.69166441221495
 40
0.3036581503378378
  0
CIRCLE
  8
_1-3_
  6
CONTINUOUS
 62
    7
 10
199.40936526736698
 20
172.53764796901393
 40
0.3036581503378378
  0
CIRCLE
  8
_1-3_
  6
CONTINUOUS
 62
    7
 10
201.35029560810813
 20
174.9638201739337
 40
0.3036581503378378
  0
CIRCLE
  8
_1-3_
  6
CONTINUOUS
 62
    7
 10
200.86505374392948
 20
174.4785906817462
 40
0.3036581503378378
  0
CIRCLE
  8
_1-3_
  6
CONTINUOUS
 62
    7
 10
162.53155270138302
 20
176.41953339447846
 40
0.3036581503378378
  0
CIRCLE
  8
_1-3_
  6
CONTINUOUS
 62
    7
 10
163.01678219357052
 20
174.9638201739337
 40
0.3036581503378378
  0
ARC
  8
_1-0_
  6
CONTINUOUS
 62
    3
 10
182.05503721494932
 20
149.48763873126057
 40
42.776932587494727
 50
77.950653076171875
 51
102.15516662597658
  0
ARC
  8
_1-0_
  6
CONTINUOUS
 62
    3
 10
181.96448661185602
 20
234.77468954550255
 40
47.954805734995254
 50
259.28425598144531
 51
280.84205627441406
  0
ARC
  8
_1-0_
  6
CONTINUOUS
 62
    3
 10
182.06879486908784
 20
122.90060094884925
 40
63.085036406645905
 50
80.891220092773438
 51
99.205169677734375
  0
ARC
  8
_1-0_
  6
CONTINUOUS
 62
    3
 10
181.92843462969807
 20
268.79410202438771
 40
87.839268864812084
 50
263.49494934082031
 51
276.62057495117187
  0
ARC
  8
_1-2_
  6
CONTINUOUS
 62
    3
 10
179.78544492979307
 20
152.33703200881547
 40
41.612016832506335
 50
95
 51
124.5146484375
  0
ARC
  8
_1-2_
  6
CONTINUOUS
 62
    3
 10
181.08894554344386
 20
137.43793796848607
 40
60.168024011560391
 50
95
 51
114.92028808593749
  0
ARC
  8
_1-2_
  6
CONTINUOUS
 62
    3
 10
184.82983975797086
 20
146.49484170449747
 40
41.612016832506335
 50
55.485351562500036
 51
85.000000000000028
  0
ARC
  8
_1-2_
  6
CONTINUOUS
 62
    3
 10
183.5263391443201
 20
131.59574766416807
 40
60.168024011560391
 50
65.079711914062472
 51
84.999999999999972
  0
ARC
  8
_1-2_
  6
CONTINUOUS
 62
    3
 10
185.76244044948268
 20
140.37983662373313
 40
41.612016832506335
 50
55.485351562500036
 51
85.000000000000028
  0
ARC
  8
_1-2_
  6
CONTINUOUS
 62
    3
 10
184.45893983583193
 20
125.48074258340372
 40
60.168024011560391
 50
65.079711914062472
 51
84.999999999999972
  0
ARC
  8
_1-2_
  6
CONTINUOUS
 62
    3
 10
184.20036522117823
 20
152.33703200881547
 40
41.612016832506335
 50
55.485351562500036
 51
85.000000000000028
  0
ARC
  8
_1-2_
  6
CONTINUOUS
 62
    3
 10
182.89686460752745
 20
137.43793796848607
 40
60.168024011560391
 50
65.079711914062472
 51
84.999999999999972
  0
CIRCLE
  8
_1-3_
  6
CONTINUOUS
 62
    7
 10
185.28277835330448
 20
196.29052239495357
 40
0.3036581503378378
  0
CIRCLE
  8
_1-0_
  6
CONTINUOUS
 62
    7
 10
183.77230670001057
 20
196.0048531197213
 40
0.899999914942561
  0
ARC
  8
_1-0_
  6
CONTINUOUS
 62
    5
 10
224.49856319942992
 20
171.01145151499156
 40
19.557004877038906
 50
162.67877197265625
 51
185.08143615722656
  0
ARC
  8
_1-7_
  6
CONTINUOUS
 62
    3
 10
284.64074212151604
 20
120.60962986301732
 40
0.6000000077324945
 50
67.098953247070327
 51
157.09895324707034
  0
ARC
  8
_1-7_
  6
CONTINUOUS
 62
    3
 10
284.64074212151604
 20
120.60962986301732
 40
1.0000000128874909
 50
67.098953247070327
 51
157.09895324707034
  0
ARC
  8
_1-7_
  6
CONTINUOUS
 62
    3
 10
292.01016812711151
 20
117.49650285050676
 40
0.6000000077324945
 50
337.09895324707031
 51
67.098953247070327
  0
ARC
  8
_1-7_
  6
CONTINUOUS
 62
    3
 10
292.01016812711151
 20
117.49650285050676
 40
1.0000000128874909
 50
337.09895324707031
 51
67.098953247070327
  0
ARC
  8
_1-7_
  6
CONTINUOUS
 62
    3
 10
277.63621562236068
 20
104.02841516443202
 40
0.6000000077324945
 50
157.09895324707034
 51
247.09895324707034
  0
ARC
  8
_1-7_
  6
CONTINUOUS
 62
    3
 10
277.63621562236068
 20
104.02841516443202
 40
1.0000000128874909
 50
157.09895324707034
 51
247.09895324707034
  0
ARC
  8
_1-7_
  6
CONTINUOUS
 62
    3
 10
285.00564162795609
 20
100.91529433791702
 40
0.6000000077324945
 50
247.09895324707031
 51
337.09895324707031
  0
ARC
  8
_1-7_
  6
CONTINUOUS
 62
    3
 10
285.00564162795609
 20
100.91529433791702
 40
1.0000000128874909
 50
247.09895324707031
 51
337.09895324707031
  0
ARC
  8
_1-7_
  6
CONTINUOUS
 62
    3
 10
79.345074215450808
 20
120.60962986301732
 40
0.6000000077324945
 50
22.901031494140664
 51
112.90103149414067
  0
ARC
  8
_1-7_
  6
CONTINUOUS
 62
    3
 10
79.345074215450808
 20
120.60962986301732
 40
1.0000000128874909
 50
22.901031494140664
 51
112.90103149414067
  0
ARC
  8
_1-7_
  6
CONTINUOUS
 62
    3
 10
71.975648209855365
 20
117.49650285050676
 40
0.6000000077324945
 50
112.90103149414064
 51
202.90103149414062
  0
ARC
  8
_1-7_
  6
CONTINUOUS
 62
    3
 10
71.975648209855365
 20
117.49650285050676
 40
1.0000000128874909
 50
112.90103149414064
 51
202.90103149414062
  0
ARC
  8
_1-7_
  6
CONTINUOUS
 62
    3
 10
86.349600714606211
 20
104.02841516443202
 40
0.6000000077324945
 50
292.90103149414068
 51
22.901031494140664
  0
ARC
  8
_1-7_
  6
CONTINUOUS
 62
    3
 10
86.349600714606211
 20
104.02841516443202
 40
1.0000000128874909
 50
292.90103149414068
 51
22.901031494140664
  0
ARC
  8
_1-7_
  6
CONTINUOUS
 62
    3
 10
78.980174709010782
 20
100.91529433791702
 40
0.6000000077324945
 50
202.90103149414065
 51
292.90103149414068
  0
ARC
  8
_1-7_
  6
CONTINUOUS
 62
    3
 10
78.980174709010782
 20
100.91529433791702
 40
1.0000000128874909
 50
202.90103149414065
 51
292.90103149414068
  0
TEXT
  8
_0-0_
 62
    7
 10
141.89189395389042
 20
14.594594594594582
 40
2.5
 41
1
 50
0
  1
縮尺
  0
TEXT
  8
_0-0_
 62
    7
 10
377.10214563318203
 20
22.865493362014362
 40
2.5
 41
1
 50
0
  1
ＮＯ
  0
TEXT
  8
_0-0_
 62
    7
 10
14.594594336844779
 20
24.324324324324323
 40
2.5
 41
1
 50
0
  1
和形
  0
TEXT
  8
_0-0_
 62
    7
 10
383.23801896378802
 20
18.523427086907475
 40
3
 41
1
 50
0
  1
Ｊ
  0
TEXT
  8
_1-0_
 62
    7
 10
169.90681828679266
 20
13.3181144095756
 40
2.5
 41
1
 50
0
  1
1/5
  0
TEXT
  8
_1-3_
 62
    7
 10
39.721903414339636
 20
15.395235628695104
 40
2.5
 41
1
 50
0
  1
棟　　2
  0
TEXT
  8
_1-0_
 62
    7
 10
25.556194717819636
 20
20.211577544341225
 40
2.5
 41
1
 50
0
  1
鉄骨
  0
TEXT
  8
_1-3_
 62
    7
 10
169.94357477938073
 20
129.95058183154413
 40
2.5
 41
1
 50
24.227719460851677
  1
250
  0
TEXT
  8
_1-3_
 62
    7
 10
190.57766819286257
 20
131.60713020788791
 40
2.5
 41
1
 50
-24.227719460851677
  1
250
  0
TEXT
  8
_1-3_
 62
    7
 10
126.22015669539169
 20
60.302853970914271
 40
2.5
 41
1
 50
0
  1
棟部分の下葺き材（ゴムアス系ルーフィング）は、両方向へそれぞれ250ｍｍ以上重ね合わせること。
  0
TEXT
  8
_1-3_
 62
    7
 10
126.30794834446263
 20
56.191529969911329
 40
2.5
 41
1
 50
0
  1
隅棟部分の下葺き材（ゴムアス系ルーフィング）は、重ね貼りの上に両方向へそれぞれ250ｍｍ以上増し貼りをすること。
  0
TEXT
  8
_1-3_
 62
    7
 10
215.05531929634714
 20
204.03208552180112
 40
2.5
 41
1
 50
0
  1
のし瓦
  0
TEXT
  8
_1-3_
 62
    7
 10
120.60106844515414
 20
210.38120579075169
 40
2.5
 41
1
 50
0
  1
葺き土
  0
TEXT
  8
_1-0_
 62
    7
 10
134.33475803684544
 20
238.16481306746201
 40
2.5
 41
1
 50
0
  1
鉄筋　９Φ　＠1000
  0
TEXT
  8
_1-0_
 62
    7
 10
135.88437260808172
 20
234.46608259871201
 40
2.5
 41
1
 50
0
  1
鉄骨下地に溶接
  0
TEXT
  8
_1-0_
 62
    7
 10
214.59876807960305
 20
233.99178994668497
 40
2.5
 41
1
 50
0
  1
横鉄筋　９φ
  0
TEXT
  8
_1-0_
 62
    7
 10
215.04332258894635
 20
239.54849655563768
 40
2.5
 41
1
 50
0
  1
被膜銅線　１.２φ
  0
TEXT
  8
_1-0_
 62
    7
 10
148.05592511151289
 20
223.81986050992401
 40
2.5
 41
1
 50
0
  1
銅線緊結
  0
TEXT
  8
_1-5_
 62
    7
 10
85.401233982395496
 20
176.34678608662375
 40
2.5
 41
1
 50
0
  1
桟瓦
  0
TEXT
  8
_1-7_
 62
    7
 10
303.63855310388516
 20
184.64751372466216
 40
2.5
 41
1
 50
0
  1
瓦桟　
  0
TEXT
  8
_1-7_
 62
    7
 10
302.96782622466219
 20
191.07428060995568
 40
2.5
 41
1
 50
0
  1
桟瓦
  0
TEXT
  8
_1-7_
 62
    7
 10
318.70675164300042
 20
184.72310659047722
 40
2.5
 41
1
 50
0
  1
15×30　（樹脂桟木）
  0
TEXT
  8
_1-7_
 62
    7
 10
319.12093703811234
 20
181.53902620882602
 40
2.5
 41
1
 50
0
  1
※　地域により瓦桟木の大きさは、異なります
  0
TEXT
  8
_1-7_
 62
    7
 10
303.64011197476776
 20
174.4402127652555
 40
2.5
 41
1
 50
0
  1
流し桟
  0
TEXT
  8
_1-7_
 62
    7
 10
303.64012847075594
 20
167.44021441485432
 40
2.5
 41
1
 50
0
  1
下葺き材
  0
TEXT
  8
_1-7_
 62
    7
 10
303.64011197476776
 20
160.44021606445312
 40
2.5
 41
1
 50
0
  1
野地板
  0
TEXT
  8
_1-7_
 62
    7
 10
317.64461208034209
 20
160.44021606445312
 40
2.5
 41
1
 50
0
  1
ｔ＝12
  0
TEXT
  8
_1-7_
 62
    7
 10
317.64462032833615
 20
167.44021441485432
 40
2.5
 41
1
 50
0
  1
ゴムアス系ルーフィング
  0
TEXT
  8
_1-0_
 62
    7
 10
303.52532051705026
 20
154.65580295872044
 40
2.5
 41
1
 50
0
  1
垂木  Ｃ-100x50x20x2.3
  0
TEXT
  8
_1-0_
 62
    7
 10
394.3483383591111
 20
15.776374919994453
 40
2.5
 41
1
 50
0
  1
44
  0
POINT
  8
_1-3_
 62
    7
 10
149.14337570602831
 20
120.04220086175043
  0
POINT
  8
_1-3_
 62
    7
 10
194.57384676546664
 20
140.4859140756968
  0
POINT
  8
_1-3_
 62
    7
 10
169.28430918100719
 20
140.64086089263091
  0
POINT
  8
_1-3_
 62
    7
 10
214.88037934174409
 20
120.12261880410685
  0
LINE
  8
_1-2_
  6
CONTINUOUS
 62
    7
 10
212.85169446790542
 20
240.79108426657945
 11
217.95697186444258
 21
240.79108426657945
  0
LINE
  8
ADD_LINE
  6
DOT
 62
    4
 10
181.99290507548565
 20
218.71982324725934
 11
181.99290507548565
 21
242.69565332538434
  0
LINE
  8
_1-2_
  6
CONTINUOUS
 62
    3
 10
203.49290177628802
 20
205.0614738587274
 11
203.49290177628802
 21
194.06148705551792
  0
LINE
  8
_1-2_
  6
CONTINUOUS
 62
    3
 10
160.49290837468328
 20
199.06147880752383
 11
160.49290837468328
 21
205.0614738587274
  0
LINE
  8
_1-2_
  6
CONTINUOUS
 62
    3
 10
160.49290837468328
 20
199.06147880752383
 11
160.49290837468328
 21
194.06148705551792
  0
ARC
  8
_1-2_
  6
CONTINUOUS
 62
    3
 10
181.99290507548565
 20
150.33668055345922
 40
48.724841556033574
 50
63.816116333007827
 51
116.1838836669922
  0
ARC
  8
_1-2_
  6
CONTINUOUS
 62
    3
 10
181.99290507548565
 20
163.54063860086211
 40
41.520850722854213
 50
58.814392089843743
 51
121.18560791015624
  0
ARC
  8
_1-2_
  6
CONTINUOUS
 62
    3
 10
181.99290507548565
 20
149.28026097470078
 40
59.781219894821589
 50
68.921615600585909
 51
111.07835388183591
  0
LINE
  8
_1-3_
  6
CONTINUOUS
 62
    7
 10
196.64138723254166
 20
199.75006888589877
 11
212.40439750052789
 21
227.05238960884714
  0
TEXT
  8
_1-0_
 62
    7
 10
216.59919120169974
 20
225.99010570629224
 40
2.5
 41
1
 50
0
  1
紐伏間
  0
ENDSEC
  0
EOF
