  0
SECTION
  2
HEADER
  9
$ACADVER
  1
AC1009
  9
$INSBASE
 10
0
 20
0
 30
0
  9
$EXTMIN
 10
0
 20
0
  9
$EXTMAX
 10
2100
 20
1485
  9
$LIMMIN
 10
0
 20
0
  9
$LIMMAX
 10
2100
 20
1485
  9
$LTSCALE
 40
5
  0
ENDSEC
  0
SECTION
  2
TABLES
  0
TABLE
  2
LTYPE
 70
     9
  0
LTYPE
  2
CONTINUOUS
 70
    64
  3
実線
 72
    65
 73
     0
 40
0.0
  0
LTYPE
  2
DASHED1
 70
    64
  3
--  --  --  --  --  --  --  --  
 72
    65
 73
     2
 40
2.5
 49
1.25
 49
-1.25
  0
LTYPE
  2
DASHED2
 70
    64
  3
----    ----    ----    ----    
 72
    65
 73
     2
 40
5.0
 49
2.5
 49
-2.5
  0
LTYPE
  2
DASHED3
 70
    64
  3
------  ------  ------  ------  
 72
    65
 73
     2
 40
5.0
 49
3.75
 49
-1.25
  0
LTYPE
  2
CENTER1
 70
    64
  3
----- - ----- - ----- - ----- - 
 72
    65
 73
     4
 40
10.0
 49
6.25
 49
-1.25
 49
1.25
 49
-1.25
  0
LTYPE
  2
CENTER2
 70
    64
  3
----------  --  ----------  --  
 72
    65
 73
     4
 40
20.0
 49
12.5
 49
-2.5
 49
2.5
 49
-2.5
  0
LTYPE
  2
PHANTOM1
 70
    64
  3
--- - - --- - - --- - - --- - - 
 72
    65
 73
     6
 40
10.0
 49
3.25
 49
-1.25
 49
1.25
 49
-1.25
 49
1.25
 49
-1.25
  0
LTYPE
  2
PHANTOM2
 70
    64
  3
--------  -  -  --------  -  -  
 72
    65
 73
     6
 40
20.0
 49
10.0
 49
-2.5
 49
1.25
 49
-2.5
 49
1.25
 49
-2.5
  0
LTYPE
  2
DOT
 70
    64
  3
-   -   -   -   -   -   -   -   
 72
    65
 73
     2
 40
2.5
 49
0.625
 49
-1.875
  0
LTYPE
  2
DUMMY
 70
    64
  3
ダミー
 72
    65
 73
     0
 40
0.0
  0
LTYPE
  2
RAND1
 70
    64
  3
ランダム線1
 72
    65
 73
     4
 40
10.0
 49
1.0
 49
-2.0
 49
3.0
 49
-4.0
  0
LTYPE
  2
RAND2
 70
    64
  3
ランダム線2
 72
    65
 73
     4
 40
14.0
 49
2.0
 49
-3.0
 49
4.0
 49
-5.0
  0
LTYPE
  2
RAND3
 70
    64
  3
ランダム線3
 72
    65
 73
     4
 40
18.0
 49
3.0
 49
-4.0
 49
5.0
 49
-6.0
  0
LTYPE
  2
RAND4
 70
    64
  3
ランダム線4
 72
    65
 73
     4
 40
22.0
 49
4.0
 49
-5.0
 49
6.0
 49
-7.0
  0
LTYPE
  2
RAND5
 70
    64
  3
ランダム線5
 72
    65
 73
     4
 40
26.0
 49
5.0
 49
-6.0
 49
7.0
 49
-8.0
  0
LTYPE
  2
LONG1
 70
    64
  3
----------  --  ----------  --  
 72
    65
 73
     4
 40
40.0
 49
32.5
 49
-2.5
 49
2.5
 49
-2.5
  0
LTYPE
  2
LONG2
 70
    64
  3
--------  -  -  --------  -  -  
 72
    65
 73
     6
 40
40.0
 49
30.0
 49
-2.5
 49
1.25
 49
-2.5
 49
1.25
 49
-2.5
  0
LTYPE
  2
LONG3
 70
    64
  3
+++++++++++++++..+++++++++++++++
 72
    65
 73
     2
 40
40.0
 49
37.5
 49
-2.5
  0
LTYPE
  2
LONG4
 70
    64
  3
+++++++++++++++..+++++++++++++++
 72
    65
 73
     2
 40
80.0
 49
75.0
 49
-5.0
  0
LTYPE
  2
LONG5
 70
    64
  3
----------  --  ----------  --  
 72
    65
 73
     4
 40
60.0
 49
37.5
 49
-7.5
 49
7.5
 49
-7.5
  0
LTYPE
  2
dashed
 70
   64
  3
-------   -------------   ------
 72
   65
 73
    2
 40
7.5
 49
6
 49
-1.5
  0
LTYPE
  2
dashed_spaced
 70
   64
  3
----        --------        ----
 72
   65
 73
    2
 40
12
 49
6
 49
-6
  0
LTYPE
  2
long_dashed_dotted
 70
   64
  3
------------- --- --------------
 72
   65
 73
    4
 40
15.25
 49
12
 49
-1.5
 49
0.25
 49
-1.5
  0
LTYPE
  2
long_dashed_double-dotted
 70
   64
  3
----------- --- --- ------------
 72
   65
 73
    6
 40
17
 49
12
 49
-1.5
 49
0.25
 49
-1.5
 49
0.25
 49
-1.5
  0
LTYPE
  2
long_dashed_triplicate-dotted
 70
   64
  3
--------- --- --- --- ----------
 72
   65
 73
    8
 40
18.75
 49
12
 49
-1.5
 49
0.25
 49
-1.5
 49
0.25
 49
-1.5
 49
0.25
 49
-1.5
  0
LTYPE
  2
dotted
 70
   64
  3
   -       -       -       -    
 72
   65
 73
    2
 40
1.75
 49
0.25
 49
-1.5
  0
LTYPE
  2
chain
 70
   64
  3
-------------- -- --------------
 72
   65
 73
    4
 40
18.5
 49
12
 49
-1.5
 49
3.5
 49
-1.5
  0
LTYPE
  2
chain_double_dash
 70
   64
  3
------------ -- -- -------------
 72
   65
 73
    6
 40
23.5
 49
12
 49
-1.5
 49
3.5
 49
-1.5
 49
3.5
 49
-1.5
  0
LTYPE
  2
dashed_dotted
 70
   64
  3
-----------     -     ----------
 72
   65
 73
    4
 40
9.25
 49
6
 49
-1.5
 49
0.25
 49
-1.5
  0
LTYPE
  2
double-dashed_dotted
 70
   64
  3
------   -----------   -   -----
 72
   65
 73
    6
 40
16.75
 49
6
 49
-1.5
 49
6
 49
-1.5
 49
0.25
 49
-1.5
  0
LTYPE
  2
dashed_double-dotted
 70
   64
  3
---------    -    -    ---------
 72
   65
 73
    6
 40
11
 49
6
 49
-1.5
 49
0.25
 49
-1.5
 49
0.25
 49
-1.5
  0
LTYPE
  2
double-dashed_double-dotted
 70
   64
  3
-----   ---------   -   -   ----
 72
   65
 73
    8
 40
18.5
 49
6
 49
-1.5
 49
6
 49
-1.5
 49
0.25
 49
-1.5
 49
0.25
 49
-1.5
  0
LTYPE
  2
dashed_triplicate-dotted
 70
   64
  3
-------    -    -    -    ------
 72
   65
 73
    8
 40
12.75
 49
6
 49
-1.5
 49
0.25
 49
-1.5
 49
0.25
 49
-1.5
 49
0.25
 49
-1.5
  0
LTYPE
  2
double-dashed_triplicate-dotted
 70
   64
  3
-----  ---------  -  -  -  -----
 72
   65
 73
   10
 40
20.25
 49
6
 49
-1.5
 49
6
 49
-1.5
 49
0.25
 49
-1.5
 49
0.25
 49
-1.5
 49
0.25
 49
-1.5
  0
LTYPE
  2
undefined
 70
   64
  3
--------------------------------
 72
   65
 73
    0
 40
0
  0
LTYPE
  2
DOT_17
 70
   64
  3
--             ---             -
 72
   65
 73
    2
 40
5
 49
1
 49
-4
  0
LTYPE
  2
DASHED
 70
   64
  3
---          ------          ---
 72
   65
 73
    2
 40
5
 49
2
 49
-3
  0
LTYPE
  2
DASHED2_19
 70
   64
  3
---          ------          ---
 72
   65
 73
    2
 40
10
 49
4
 49
-6
  0
LTYPE
  2
CENTER
 70
   64
  3
----------    ----    ----------
 72
   65
 73
    4
 40
9
 49
6
 49
-1
 49
1
 49
-1
  0
LTYPE
  2
CENTER2_21
 70
   64
  3
----------    ----    ----------
 72
   65
 73
    4
 40
18
 49
12
 49
-2
 49
2
 49
-2
  0
LTYPE
  2
PHANTOM
 70
   64
  3
---------   ---   ---   --------
 72
   65
 73
    6
 40
10
 49
5
 49
-1
 49
1
 49
-1
 49
1
 49
-1
  0
LTYPE
  2
PHANTOM2_23
 70
   64
  3
------    ----    ----    ------
 72
   65
 73
    6
 40
16
 49
6
 49
-2
 49
2
 49
-2
 49
2
 49
-2
  0
LTYPE
  2
HIDDEN
 70
   64
  3
--             ---             -
 72
   65
 73
    2
 40
2.5
 49
0.5
 49
-2
  0
ENDTAB
  0
TABLE
  2
STYLE
  5
3
100
AcDbSymbolTable
 70
     1
  0
STYLE
  5
10
100
AcDbSymbolTableRecord
100
AcDbTextStyleTableRecord
  2
STANDARD
 70
     0
 40
0.0
 41
1.0
 50
0.0
 71
     0
 42
0.2
  3
txt
  4
bigfont.shx
  0
STYLE
  5
26
100
AcDbSymbolTableRecord
100
AcDbTextStyleTableRecord
  2
TATEGAKI
 70
    68
 40
0.0
 41
1.0
 50
0.0
 71
     0
 42
1.0
  3
txt
  4
bigfont.shx
  0
ENDTAB
  0
TABLE
  2
LAYER
 70
    8
  0
LAYER
  2
_0-1_0-0
 70
   64
 62
    7
  6
CONTINUOUS
  0
LAYER
  2
_0-2_1-0
 70
   64
 62
    7
  6
CONTINUOUS
  0
LAYER
  2
_0-3_1-1
 70
   64
 62
    7
  6
CONTINUOUS
  0
LAYER
  2
_0-4_1-2
 70
   64
 62
    7
  6
CONTINUOUS
  0
LAYER
  2
_0-5_1-3
 70
   64
 62
    7
  6
CONTINUOUS
  0
LAYER
  2
_0-6_ADD_LINE
 70
   64
 62
    7
  6
CONTINUOUS
  0
LAYER
  2
_1-4_
 70
   64
 62
    7
  6
CONTINUOUS
  0
LAYER
  2
ADD_LINE
 70
   64
 62
    7
  6
CONTINUOUS
  0
ENDTAB
  0
ENDSEC
  0
SECTION
  2
BLOCKS
  0
ENDSEC
  0
SECTION
  2
ENTITIES
  0
LINE
  8
_0-1_0-0
  6
CONTINUOUS
 62
    5
 10
2015.54
 20
141.0915
 11
1952.703
 21
78.253500000000003
  0
LINE
  8
_0-3_1-1
  6
CONTINUOUS
 62
    7
 10
846.32399999999984
 20
775.79349999999999
 11
846.32399999999984
 21
778.79349999999999
  0
LINE
  8
_0-3_1-1
  6
CONTINUOUS
 62
    7
 10
846.32399999999984
 20
778.79349999999999
 11
870.32399999999996
 21
778.79349999999999
  0
LINE
  8
_0-3_1-1
  6
CONTINUOUS
 62
    7
 10
870.32399999999996
 20
778.79349999999999
 11
870.32399999999996
 21
775.79349999999999
  0
LINE
  8
_0-3_1-1
  6
CONTINUOUS
 62
    7
 10
870.32399999999996
 20
775.79349999999999
 11
846.32399999999984
 21
775.79349999999999
  0
LINE
  8
_0-3_1-1
  6
CONTINUOUS
 62
    7
 10
846.32399999999984
 20
778.79349999999999
 11
870.32399999999996
 21
775.79349999999999
  0
LINE
  8
_0-3_1-1
  6
CONTINUOUS
 62
    7
 10
1149.3239999999998
 20
775.79349999999999
 11
1149.3239999999998
 21
778.79349999999999
  0
LINE
  8
_0-3_1-1
  6
CONTINUOUS
 62
    7
 10
1149.3239999999998
 20
778.79349999999999
 11
1173.3239999999998
 21
778.79349999999999
  0
LINE
  8
_0-3_1-1
  6
CONTINUOUS
 62
    7
 10
1173.3239999999998
 20
778.79349999999999
 11
1173.3239999999998
 21
775.79349999999999
  0
LINE
  8
_0-3_1-1
  6
CONTINUOUS
 62
    7
 10
1173.3239999999998
 20
775.79349999999999
 11
1149.3239999999998
 21
775.79349999999999
  0
LINE
  8
_0-3_1-1
  6
CONTINUOUS
 62
    7
 10
1149.3239999999998
 20
778.79349999999999
 11
1173.3239999999998
 21
775.79349999999999
  0
LINE
  8
_0-3_1-1
  6
CONTINUOUS
 62
    7
 10
1452.3239999999998
 20
775.79349999999999
 11
1452.3239999999998
 21
778.79349999999999
  0
LINE
  8
_0-3_1-1
  6
CONTINUOUS
 62
    7
 10
1452.3239999999998
 20
778.79349999999999
 11
1476.3239999999998
 21
778.79349999999999
  0
LINE
  8
_0-3_1-1
  6
CONTINUOUS
 62
    7
 10
1476.3239999999998
 20
778.79349999999999
 11
1476.3239999999998
 21
775.79349999999999
  0
LINE
  8
_0-3_1-1
  6
CONTINUOUS
 62
    7
 10
1476.3239999999998
 20
775.79349999999999
 11
1452.3239999999998
 21
775.79349999999999
  0
LINE
  8
_0-3_1-1
  6
CONTINUOUS
 62
    7
 10
1452.3239999999998
 20
778.79349999999999
 11
1476.3239999999998
 21
775.79349999999999
  0
LINE
  8
_0-4_1-2
  6
CONTINUOUS
 62
    7
 10
1336.357
 20
380.96949999999998
 11
1294.0909999999999
 21
380.96949999999998
  0
LINE
  8
_0-4_1-2
  6
CONTINUOUS
 62
    7
 10
1336.357
 20
419.47449999999998
 11
1280.076
 21
419.47449999999998
  0
LINE
  8
_0-4_1-2
  6
CONTINUOUS
 62
    7
 10
1336.357
 20
461.73749999999995
 11
1264.694
 21
461.73749999999995
  0
LINE
  8
_0-4_1-2
  6
CONTINUOUS
 62
    7
 10
1336.357
 20
500.24249999999995
 11
1250.6789999999999
 21
500.24249999999995
  0
LINE
  8
_0-4_1-2
  6
CONTINUOUS
 62
    7
 10
1336.357
 20
540.62649999999996
 11
1235.98
 21
540.62649999999996
  0
LINE
  8
_0-3_1-1
  6
CONTINUOUS
 62
    4
 10
1623.9879999999998
 20
755.31449999999995
 11
1634.383
 21
765.70949999999993
  0
LINE
  8
_0-3_1-1
  6
CONTINUOUS
 62
    4
 10
1612.674
 20
755.31449999999995
 11
1630.675
 21
773.31449999999995
  0
LINE
  8
_0-3_1-1
  6
CONTINUOUS
 62
    4
 10
1601.3609999999999
 20
755.31449999999995
 11
1619.3609999999999
 21
773.31449999999995
  0
LINE
  8
_0-3_1-1
  6
CONTINUOUS
 62
    4
 10
1590.047
 20
755.31449999999995
 11
1608.047
 21
773.31449999999995
  0
LINE
  8
_0-3_1-1
  6
CONTINUOUS
 62
    4
 10
1578.7329999999999
 20
755.31449999999995
 11
1596.7329999999997
 21
773.31449999999995
  0
LINE
  8
_0-3_1-1
  6
CONTINUOUS
 62
    4
 10
1567.4199999999998
 20
755.31449999999995
 11
1585.4199999999996
 21
773.31449999999995
  0
LINE
  8
_0-3_1-1
  6
CONTINUOUS
 62
    4
 10
1556.106
 20
755.31449999999995
 11
1574.1059999999998
 21
773.31449999999995
  0
LINE
  8
_0-3_1-1
  6
CONTINUOUS
 62
    4
 10
1544.7919999999999
 20
755.31449999999995
 11
1562.7919999999999
 21
773.31449999999995
  0
LINE
  8
_0-3_1-1
  6
CONTINUOUS
 62
    4
 10
1533.479
 20
755.31449999999995
 11
1551.4789999999998
 21
773.31449999999995
  0
LINE
  8
_0-3_1-1
  6
CONTINUOUS
 62
    4
 10
1522.165
 20
755.31449999999995
 11
1540.165
 21
773.31449999999995
  0
LINE
  8
_0-3_1-1
  6
CONTINUOUS
 62
    4
 10
1510.8509999999999
 20
755.31449999999995
 11
1528.8509999999999
 21
773.31449999999995
  0
LINE
  8
_0-3_1-1
  6
CONTINUOUS
 62
    4
 10
1499.538
 20
755.31449999999995
 11
1517.538
 21
773.31449999999995
  0
LINE
  8
_0-3_1-1
  6
CONTINUOUS
 62
    4
 10
1488.2239999999999
 20
755.31449999999995
 11
1506.2239999999999
 21
773.31449999999995
  0
LINE
  8
_0-3_1-1
  6
CONTINUOUS
 62
    4
 10
1476.9099999999999
 20
755.31449999999995
 11
1494.9099999999999
 21
773.31449999999995
  0
LINE
  8
_0-3_1-1
  6
CONTINUOUS
 62
    4
 10
1465.597
 20
755.31449999999995
 11
1483.597
 21
773.31449999999995
  0
LINE
  8
_0-3_1-1
  6
CONTINUOUS
 62
    4
 10
1454.2829999999999
 20
755.31449999999995
 11
1472.2829999999999
 21
773.31449999999995
  0
LINE
  8
_0-3_1-1
  6
CONTINUOUS
 62
    4
 10
1442.9690000000001
 20
755.31449999999995
 11
1460.9690000000001
 21
773.31449999999995
  0
LINE
  8
_0-3_1-1
  6
CONTINUOUS
 62
    4
 10
1431.6550000000002
 20
755.31449999999995
 11
1449.655
 21
773.31449999999995
  0
LINE
  8
_0-3_1-1
  6
CONTINUOUS
 62
    4
 10
1420.3420000000001
 20
755.31449999999995
 11
1438.3419999999999
 21
773.31449999999995
  0
LINE
  8
_0-3_1-1
  6
CONTINUOUS
 62
    4
 10
1409.0280000000002
 20
755.31449999999995
 11
1427.028
 21
773.31449999999995
  0
LINE
  8
_0-3_1-1
  6
CONTINUOUS
 62
    4
 10
1397.7139999999999
 20
755.31449999999995
 11
1415.7139999999999
 21
773.31449999999995
  0
LINE
  8
_0-3_1-1
  6
CONTINUOUS
 62
    4
 10
1386.4009999999998
 20
755.31449999999995
 11
1404.4009999999998
 21
773.31449999999995
  0
LINE
  8
_0-3_1-1
  6
CONTINUOUS
 62
    4
 10
1375.087
 20
755.31449999999995
 11
1393.087
 21
773.31449999999995
  0
LINE
  8
_0-3_1-1
  6
CONTINUOUS
 62
    4
 10
1363.7739999999999
 20
755.31449999999995
 11
1381.7739999999999
 21
773.31449999999995
  0
LINE
  8
_0-3_1-1
  6
CONTINUOUS
 62
    4
 10
1352.46
 20
755.31449999999995
 11
1370.46
 21
773.31449999999995
  0
LINE
  8
_0-3_1-1
  6
CONTINUOUS
 62
    4
 10
1341.146
 20
755.31449999999995
 11
1359.1460000000002
 21
773.31449999999995
  0
LINE
  8
_0-3_1-1
  6
CONTINUOUS
 62
    4
 10
1329.8319999999999
 20
755.31449999999995
 11
1347.8330000000001
 21
773.31449999999995
  0
LINE
  8
_0-3_1-1
  6
CONTINUOUS
 62
    4
 10
1318.519
 20
755.31449999999995
 11
1336.5190000000002
 21
773.31449999999995
  0
LINE
  8
_0-3_1-1
  6
CONTINUOUS
 62
    4
 10
1307.2049999999999
 20
755.31449999999995
 11
1325.2049999999999
 21
773.31449999999995
  0
LINE
  8
_0-3_1-1
  6
CONTINUOUS
 62
    4
 10
1295.8909999999996
 20
755.31449999999995
 11
1313.8909999999998
 21
773.31449999999995
  0
LINE
  8
_0-3_1-1
  6
CONTINUOUS
 62
    4
 10
1284.578
 20
755.31449999999995
 11
1302.578
 21
773.31449999999995
  0
LINE
  8
_0-3_1-1
  6
CONTINUOUS
 62
    4
 10
1273.2639999999999
 20
755.31449999999995
 11
1291.2639999999999
 21
773.31449999999995
  0
LINE
  8
_0-3_1-1
  6
CONTINUOUS
 62
    4
 10
1261.95
 20
755.31449999999995
 11
1279.95
 21
773.31449999999995
  0
LINE
  8
_0-3_1-1
  6
CONTINUOUS
 62
    4
 10
1250.6369999999999
 20
755.31449999999995
 11
1268.6369999999999
 21
773.31449999999995
  0
LINE
  8
_0-3_1-1
  6
CONTINUOUS
 62
    4
 10
1239.3229999999999
 20
755.31449999999995
 11
1257.3229999999999
 21
773.31449999999995
  0
LINE
  8
_0-3_1-1
  6
CONTINUOUS
 62
    4
 10
1228.009
 20
755.31449999999995
 11
1246.009
 21
773.31449999999995
  0
LINE
  8
_0-3_1-1
  6
CONTINUOUS
 62
    4
 10
1216.6949999999999
 20
755.31449999999995
 11
1234.6959999999999
 21
773.31449999999995
  0
LINE
  8
_0-3_1-1
  6
CONTINUOUS
 62
    4
 10
1205.3819999999998
 20
755.31449999999995
 11
1223.3819999999998
 21
773.31449999999995
  0
LINE
  8
_0-3_1-1
  6
CONTINUOUS
 62
    4
 10
1194.068
 20
755.31449999999995
 11
1212.068
 21
773.31449999999995
  0
LINE
  8
_0-3_1-1
  6
CONTINUOUS
 62
    4
 10
1182.7539999999999
 20
755.31449999999995
 11
1200.7539999999999
 21
773.31449999999995
  0
LINE
  8
_0-3_1-1
  6
CONTINUOUS
 62
    4
 10
1171.441
 20
755.31449999999995
 11
1189.441
 21
773.31449999999995
  0
LINE
  8
_0-3_1-1
  6
CONTINUOUS
 62
    4
 10
1160.127
 20
755.31449999999995
 11
1178.127
 21
773.31449999999995
  0
LINE
  8
_0-3_1-1
  6
CONTINUOUS
 62
    4
 10
1148.8129999999999
 20
755.31449999999995
 11
1166.8129999999999
 21
773.31449999999995
  0
LINE
  8
_0-3_1-1
  6
CONTINUOUS
 62
    4
 10
1137.499
 20
755.31449999999995
 11
1155.499
 21
773.31449999999995
  0
LINE
  8
_0-3_1-1
  6
CONTINUOUS
 62
    4
 10
1126.1859999999999
 20
755.31449999999995
 11
1144.1859999999999
 21
773.31449999999995
  0
LINE
  8
_0-3_1-1
  6
CONTINUOUS
 62
    4
 10
1114.8719999999998
 20
755.31449999999995
 11
1132.8719999999998
 21
773.31449999999995
  0
LINE
  8
_0-3_1-1
  6
CONTINUOUS
 62
    4
 10
1103.558
 20
755.31449999999995
 11
1121.558
 21
773.31449999999995
  0
LINE
  8
_0-3_1-1
  6
CONTINUOUS
 62
    4
 10
1092.2439999999999
 20
755.31449999999995
 11
1110.2439999999999
 21
773.31449999999995
  0
LINE
  8
_0-3_1-1
  6
CONTINUOUS
 62
    4
 10
1080.931
 20
755.31449999999995
 11
1098.931
 21
773.31449999999995
  0
LINE
  8
_0-3_1-1
  6
CONTINUOUS
 62
    4
 10
1069.617
 20
755.31449999999995
 11
1087.617
 21
773.31449999999995
  0
LINE
  8
_0-3_1-1
  6
CONTINUOUS
 62
    4
 10
1058.3029999999999
 20
755.31449999999995
 11
1076.3029999999999
 21
773.31449999999995
  0
LINE
  8
_0-3_1-1
  6
CONTINUOUS
 62
    4
 10
1046.9899999999998
 20
755.31449999999995
 11
1064.99
 21
773.31449999999995
  0
LINE
  8
_0-3_1-1
  6
CONTINUOUS
 62
    4
 10
1035.6759999999999
 20
755.31449999999995
 11
1053.6759999999999
 21
773.31449999999995
  0
LINE
  8
_0-3_1-1
  6
CONTINUOUS
 62
    4
 10
1024.3620000000001
 20
755.31449999999995
 11
1042.3620000000001
 21
773.31449999999995
  0
LINE
  8
_0-3_1-1
  6
CONTINUOUS
 62
    4
 10
1013.048
 20
755.31449999999995
 11
1031.049
 21
773.31449999999995
  0
LINE
  8
_0-3_1-1
  6
CONTINUOUS
 62
    4
 10
1001.7349999999999
 20
755.31449999999995
 11
1019.7349999999999
 21
773.31449999999995
  0
LINE
  8
_0-3_1-1
  6
CONTINUOUS
 62
    4
 10
990.42099999999994
 20
755.31449999999995
 11
1008.4209999999998
 21
773.31449999999995
  0
LINE
  8
_0-3_1-1
  6
CONTINUOUS
 62
    4
 10
979.10699999999997
 20
755.31449999999995
 11
997.10699999999997
 21
773.31449999999995
  0
LINE
  8
_0-3_1-1
  6
CONTINUOUS
 62
    4
 10
967.79399999999998
 20
755.31449999999995
 11
985.79399999999987
 21
773.31449999999995
  0
LINE
  8
_0-3_1-1
  6
CONTINUOUS
 62
    4
 10
956.48000000000002
 20
755.31449999999995
 11
974.4799999999999
 21
773.31449999999995
  0
LINE
  8
_0-3_1-1
  6
CONTINUOUS
 62
    4
 10
945.16599999999994
 20
755.31449999999995
 11
963.16599999999994
 21
773.31449999999995
  0
LINE
  8
_0-3_1-1
  6
CONTINUOUS
 62
    4
 10
933.85199999999998
 20
755.31449999999995
 11
951.85299999999995
 21
773.31449999999995
  0
LINE
  8
_0-3_1-1
  6
CONTINUOUS
 62
    4
 10
922.53899999999999
 20
755.31449999999995
 11
940.53899999999999
 21
773.31449999999995
  0
LINE
  8
_0-3_1-1
  6
CONTINUOUS
 62
    4
 10
911.22499999999991
 20
755.31449999999995
 11
929.22499999999991
 21
773.31449999999995
  0
LINE
  8
_0-3_1-1
  6
CONTINUOUS
 62
    4
 10
899.91099999999983
 20
755.31449999999995
 11
917.91100000000006
 21
773.31449999999995
  0
LINE
  8
_0-3_1-1
  6
CONTINUOUS
 62
    4
 10
888.59799999999996
 20
755.31449999999995
 11
906.59799999999996
 21
773.31449999999995
  0
LINE
  8
_0-3_1-1
  6
CONTINUOUS
 62
    4
 10
877.28399999999988
 20
755.31449999999995
 11
895.28400000000011
 21
773.31449999999995
  0
LINE
  8
_0-3_1-1
  6
CONTINUOUS
 62
    4
 10
865.96999999999991
 20
755.31449999999995
 11
883.96999999999991
 21
773.31449999999995
  0
LINE
  8
_0-3_1-1
  6
CONTINUOUS
 62
    4
 10
854.65699999999993
 20
755.31449999999995
 11
872.65699999999993
 21
773.31449999999995
  0
LINE
  8
_0-3_1-1
  6
CONTINUOUS
 62
    4
 10
843.34299999999996
 20
755.31449999999995
 11
861.34299999999996
 21
773.31449999999995
  0
LINE
  8
_0-3_1-1
  6
CONTINUOUS
 62
    4
 10
832.029
 20
755.31449999999995
 11
850.029
 21
773.31449999999995
  0
LINE
  8
_0-3_1-1
  6
CONTINUOUS
 62
    4
 10
820.71499999999992
 20
755.31449999999995
 11
838.71499999999992
 21
773.31449999999995
  0
LINE
  8
_0-3_1-1
  6
CONTINUOUS
 62
    4
 10
809.40199999999993
 20
755.31449999999995
 11
827.40199999999982
 21
773.31449999999995
  0
LINE
  8
_0-3_1-1
  6
CONTINUOUS
 62
    4
 10
798.08799999999997
 20
755.31449999999995
 11
816.08799999999997
 21
773.31449999999995
  0
LINE
  8
_0-3_1-1
  6
CONTINUOUS
 62
    4
 10
786.77400000000011
 20
755.31449999999995
 11
804.774
 21
773.31449999999995
  0
LINE
  8
_0-3_1-1
  6
CONTINUOUS
 62
    4
 10
775.46100000000001
 20
755.31449999999995
 11
793.4609999999999
 21
773.31449999999995
  0
LINE
  8
_0-3_1-1
  6
CONTINUOUS
 62
    4
 10
764.14699999999993
 20
755.31449999999995
 11
782.14699999999993
 21
773.31449999999995
  0
LINE
  8
_0-3_1-1
  6
CONTINUOUS
 62
    4
 10
752.83299999999997
 20
755.31449999999995
 11
770.83299999999997
 21
773.31449999999995
  0
LINE
  8
_0-3_1-1
  6
CONTINUOUS
 62
    4
 10
741.51899999999978
 20
755.31449999999995
 11
759.51999999999998
 21
773.31449999999995
  0
LINE
  8
_0-3_1-1
  6
CONTINUOUS
 62
    4
 10
730.2059999999999
 20
755.31449999999995
 11
748.2059999999999
 21
773.31449999999995
  0
LINE
  8
_0-3_1-1
  6
CONTINUOUS
 62
    4
 10
718.89199999999983
 20
755.31449999999995
 11
736.89200000000005
 21
773.31449999999995
  0
LINE
  8
_0-3_1-1
  6
CONTINUOUS
 62
    4
 10
707.57799999999997
 20
755.31449999999995
 11
725.57799999999997
 21
773.31449999999995
  0
LINE
  8
_0-3_1-1
  6
CONTINUOUS
 62
    4
 10
696.26499999999987
 20
755.31449999999995
 11
714.2650000000001
 21
773.31449999999995
  0
LINE
  8
_0-3_1-1
  6
CONTINUOUS
 62
    4
 10
684.95099999999991
 20
755.31449999999995
 11
702.95099999999991
 21
773.31449999999995
  0
LINE
  8
_0-3_1-1
  6
CONTINUOUS
 62
    4
 10
673.63699999999994
 20
755.31449999999995
 11
691.63699999999994
 21
773.31449999999995
  0
LINE
  8
_0-3_1-1
  6
CONTINUOUS
 62
    4
 10
662.32399999999996
 20
755.31449999999995
 11
680.32399999999996
 21
773.31449999999995
  0
LINE
  8
_0-3_1-1
  6
CONTINUOUS
 62
    4
 10
651.00999999999999
 20
755.31449999999995
 11
669.00999999999999
 21
773.31449999999995
  0
LINE
  8
_0-3_1-1
  6
CONTINUOUS
 62
    4
 10
639.69599999999991
 20
755.31449999999995
 11
657.69599999999991
 21
773.31449999999995
  0
LINE
  8
_0-3_1-1
  6
CONTINUOUS
 62
    4
 10
628.38199999999995
 20
755.31449999999995
 11
646.38199999999995
 21
773.31449999999995
  0
LINE
  8
_0-3_1-1
  6
CONTINUOUS
 62
    4
 10
617.06899999999996
 20
755.31449999999995
 11
635.06899999999996
 21
773.31449999999995
  0
LINE
  8
_0-3_1-1
  6
CONTINUOUS
 62
    4
 10
605.755
 20
755.31449999999995
 11
623.755
 21
773.31449999999995
  0
LINE
  8
_0-3_1-1
  6
CONTINUOUS
 62
    4
 10
594.44099999999992
 20
755.31449999999995
 11
612.44099999999992
 21
773.31449999999995
  0
LINE
  8
_0-3_1-1
  6
CONTINUOUS
 62
    4
 10
583.12799999999993
 20
755.31449999999995
 11
601.12799999999993
 21
773.31449999999995
  0
LINE
  8
_0-3_1-1
  6
CONTINUOUS
 62
    4
 10
571.81399999999996
 20
755.31449999999995
 11
589.81399999999996
 21
773.31449999999995
  0
LINE
  8
_0-3_1-1
  6
CONTINUOUS
 62
    4
 10
569.32399999999996
 20
757.62649999999996
 11
571.63699999999994
 21
755.31449999999995
  0
LINE
  8
_0-3_1-1
  6
CONTINUOUS
 62
    4
 10
572.89099999999996
 20
773.31449999999995
 11
590.89099999999996
 21
755.31449999999995
  0
LINE
  8
_0-3_1-1
  6
CONTINUOUS
 62
    4
 10
584.20499999999993
 20
773.31449999999995
 11
602.20499999999993
 21
755.31449999999995
  0
LINE
  8
_0-3_1-1
  6
CONTINUOUS
 62
    4
 10
595.51899999999989
 20
773.31449999999995
 11
613.51899999999989
 21
755.31449999999995
  0
LINE
  8
_0-3_1-1
  6
CONTINUOUS
 62
    4
 10
606.83199999999999
 20
773.31449999999995
 11
624.83199999999999
 21
755.31449999999995
  0
LINE
  8
_0-3_1-1
  6
CONTINUOUS
 62
    4
 10
618.14599999999996
 20
773.31449999999995
 11
636.14599999999996
 21
755.31449999999995
  0
LINE
  8
_0-3_1-1
  6
CONTINUOUS
 62
    4
 10
629.45999999999992
 20
773.31449999999995
 11
647.45999999999992
 21
755.31449999999995
  0
LINE
  8
_0-3_1-1
  6
CONTINUOUS
 62
    4
 10
640.77299999999991
 20
773.31449999999995
 11
658.77299999999991
 21
755.31449999999995
  0
LINE
  8
_0-3_1-1
  6
CONTINUOUS
 62
    4
 10
652.08699999999999
 20
773.31449999999995
 11
670.08699999999999
 21
755.31449999999995
  0
LINE
  8
_0-3_1-1
  6
CONTINUOUS
 62
    4
 10
663.40099999999995
 20
773.31449999999995
 11
681.40099999999984
 21
755.31449999999995
  0
LINE
  8
_0-3_1-1
  6
CONTINUOUS
 62
    4
 10
674.71399999999994
 20
773.31449999999995
 11
692.71399999999994
 21
755.31449999999995
  0
LINE
  8
_0-3_1-1
  6
CONTINUOUS
 62
    4
 10
686.02799999999991
 20
773.31449999999995
 11
704.02799999999979
 21
755.31449999999995
  0
LINE
  8
_0-3_1-1
  6
CONTINUOUS
 62
    4
 10
697.34199999999998
 20
773.31449999999995
 11
715.34199999999998
 21
755.31449999999995
  0
LINE
  8
_0-3_1-1
  6
CONTINUOUS
 62
    4
 10
708.65499999999997
 20
773.31449999999995
 11
726.65499999999997
 21
755.31449999999995
  0
LINE
  8
_0-3_1-1
  6
CONTINUOUS
 62
    4
 10
719.96899999999994
 20
773.31449999999995
 11
737.96899999999994
 21
755.31449999999995
  0
LINE
  8
_0-3_1-1
  6
CONTINUOUS
 62
    4
 10
731.2829999999999
 20
773.31449999999995
 11
749.2829999999999
 21
755.31449999999995
  0
LINE
  8
_0-3_1-1
  6
CONTINUOUS
 62
    4
 10
742.596
 20
773.31449999999995
 11
760.596
 21
755.31449999999995
  0
LINE
  8
_0-3_1-1
  6
CONTINUOUS
 62
    4
 10
753.90999999999985
 20
773.31449999999995
 11
771.91000000000008
 21
755.31449999999995
  0
LINE
  8
_0-3_1-1
  6
CONTINUOUS
 62
    4
 10
765.22399999999993
 20
773.31449999999995
 11
783.22399999999993
 21
755.31449999999995
  0
LINE
  8
_0-3_1-1
  6
CONTINUOUS
 62
    4
 10
776.53699999999981
 20
773.31449999999995
 11
794.53700000000003
 21
755.31449999999995
  0
LINE
  8
_0-3_1-1
  6
CONTINUOUS
 62
    4
 10
787.851
 20
773.31449999999995
 11
805.851
 21
755.31449999999995
  0
LINE
  8
_0-3_1-1
  6
CONTINUOUS
 62
    4
 10
799.16499999999996
 20
773.31449999999995
 11
817.16499999999996
 21
755.31449999999995
  0
LINE
  8
_0-3_1-1
  6
CONTINUOUS
 62
    4
 10
810.47799999999995
 20
773.31449999999995
 11
828.47799999999995
 21
755.31449999999995
  0
LINE
  8
_0-3_1-1
  6
CONTINUOUS
 62
    4
 10
821.79199999999992
 20
773.31449999999995
 11
839.79199999999992
 21
755.31449999999995
  0
LINE
  8
_0-3_1-1
  6
CONTINUOUS
 62
    4
 10
833.10599999999999
 20
773.31449999999995
 11
851.10599999999999
 21
755.31449999999995
  0
LINE
  8
_0-3_1-1
  6
CONTINUOUS
 62
    4
 10
844.4190000000001
 20
773.31449999999995
 11
862.41999999999985
 21
755.31449999999995
  0
LINE
  8
_0-3_1-1
  6
CONTINUOUS
 62
    4
 10
855.73299999999995
 20
773.31449999999995
 11
873.73299999999995
 21
755.31449999999995
  0
LINE
  8
_0-3_1-1
  6
CONTINUOUS
 62
    4
 10
867.04699999999991
 20
773.31449999999995
 11
885.0469999999998
 21
755.31449999999995
  0
LINE
  8
_0-3_1-1
  6
CONTINUOUS
 62
    4
 10
878.36099999999999
 20
773.31449999999995
 11
896.36099999999999
 21
755.31449999999995
  0
LINE
  8
_0-3_1-1
  6
CONTINUOUS
 62
    4
 10
889.67399999999998
 20
773.31449999999995
 11
907.67399999999998
 21
755.31449999999995
  0
LINE
  8
_0-3_1-1
  6
CONTINUOUS
 62
    4
 10
900.98799999999994
 20
773.31449999999995
 11
918.98799999999994
 21
755.31449999999995
  0
LINE
  8
_0-3_1-1
  6
CONTINUOUS
 62
    4
 10
912.30099999999993
 20
773.31449999999995
 11
930.30199999999991
 21
755.31449999999995
  0
LINE
  8
_0-3_1-1
  6
CONTINUOUS
 62
    4
 10
923.6149999999999
 20
773.31449999999995
 11
941.6149999999999
 21
755.31449999999995
  0
LINE
  8
_0-3_1-1
  6
CONTINUOUS
 62
    4
 10
934.92899999999986
 20
773.31449999999995
 11
952.92900000000009
 21
755.31449999999995
  0
LINE
  8
_0-3_1-1
  6
CONTINUOUS
 62
    4
 10
946.24299999999994
 20
773.31449999999995
 11
964.24299999999994
 21
755.31449999999995
  0
LINE
  8
_0-3_1-1
  6
CONTINUOUS
 62
    4
 10
957.55599999999981
 20
773.31449999999995
 11
975.55600000000004
 21
755.31449999999995
  0
LINE
  8
_0-3_1-1
  6
CONTINUOUS
 62
    4
 10
968.86999999999989
 20
773.31449999999995
 11
986.86999999999989
 21
755.31449999999995
  0
LINE
  8
_0-3_1-1
  6
CONTINUOUS
 62
    4
 10
980.18399999999997
 20
773.31449999999995
 11
998.18399999999997
 21
755.31449999999995
  0
LINE
  8
_0-3_1-1
  6
CONTINUOUS
 62
    4
 10
991.49699999999996
 20
773.31449999999995
 11
1009.497
 21
755.31449999999995
  0
LINE
  8
_0-3_1-1
  6
CONTINUOUS
 62
    4
 10
1002.8109999999999
 20
773.31449999999995
 11
1020.8109999999999
 21
755.31449999999995
  0
LINE
  8
_0-3_1-1
  6
CONTINUOUS
 62
    4
 10
1014.125
 20
773.31449999999995
 11
1032.125
 21
755.31449999999995
  0
LINE
  8
_0-3_1-1
  6
CONTINUOUS
 62
    4
 10
1025.4380000000001
 20
773.31449999999995
 11
1043.4380000000001
 21
755.31449999999995
  0
LINE
  8
_0-3_1-1
  6
CONTINUOUS
 62
    4
 10
1036.752
 20
773.31449999999995
 11
1054.752
 21
755.31449999999995
  0
LINE
  8
_0-3_1-1
  6
CONTINUOUS
 62
    4
 10
1048.0659999999998
 20
773.31449999999995
 11
1066.066
 21
755.31449999999995
  0
LINE
  8
_0-3_1-1
  6
CONTINUOUS
 62
    4
 10
1059.3789999999999
 20
773.31449999999995
 11
1077.3789999999999
 21
755.31449999999995
  0
LINE
  8
_0-3_1-1
  6
CONTINUOUS
 62
    4
 10
1070.693
 20
773.31449999999995
 11
1088.693
 21
755.31449999999995
  0
LINE
  8
_0-3_1-1
  6
CONTINUOUS
 62
    4
 10
1082.0069999999998
 20
773.31449999999995
 11
1100.0069999999998
 21
755.31449999999995
  0
LINE
  8
_0-3_1-1
  6
CONTINUOUS
 62
    4
 10
1093.3199999999999
 20
773.31449999999995
 11
1111.3199999999999
 21
755.31449999999995
  0
LINE
  8
_0-3_1-1
  6
CONTINUOUS
 62
    4
 10
1104.634
 20
773.31449999999995
 11
1122.634
 21
755.31449999999995
  0
LINE
  8
_0-3_1-1
  6
CONTINUOUS
 62
    4
 10
1115.9479999999999
 20
773.31449999999995
 11
1133.9479999999999
 21
755.31449999999995
  0
LINE
  8
_0-3_1-1
  6
CONTINUOUS
 62
    4
 10
1127.261
 20
773.31449999999995
 11
1145.261
 21
755.31449999999995
  0
LINE
  8
_0-3_1-1
  6
CONTINUOUS
 62
    4
 10
1138.575
 20
773.31449999999995
 11
1156.575
 21
755.31449999999995
  0
LINE
  8
_0-3_1-1
  6
CONTINUOUS
 62
    4
 10
1149.8889999999999
 20
773.31449999999995
 11
1167.8889999999999
 21
755.31449999999995
  0
LINE
  8
_0-3_1-1
  6
CONTINUOUS
 62
    4
 10
1161.202
 20
773.31449999999995
 11
1179.202
 21
755.31449999999995
  0
LINE
  8
_0-3_1-1
  6
CONTINUOUS
 62
    4
 10
1172.5159999999998
 20
773.31449999999995
 11
1190.5159999999998
 21
755.31449999999995
  0
LINE
  8
_0-3_1-1
  6
CONTINUOUS
 62
    4
 10
1183.8299999999999
 20
773.31449999999995
 11
1201.8299999999999
 21
755.31449999999995
  0
LINE
  8
_0-3_1-1
  6
CONTINUOUS
 62
    4
 10
1195.143
 20
773.31449999999995
 11
1213.143
 21
755.31449999999995
  0
LINE
  8
_0-3_1-1
  6
CONTINUOUS
 62
    4
 10
1206.4569999999999
 20
773.31449999999995
 11
1224.4569999999999
 21
755.31449999999995
  0
LINE
  8
_0-3_1-1
  6
CONTINUOUS
 62
    4
 10
1217.771
 20
773.31449999999995
 11
1235.771
 21
755.31449999999995
  0
LINE
  8
_0-3_1-1
  6
CONTINUOUS
 62
    4
 10
1229.0840000000001
 20
773.31449999999995
 11
1247.085
 21
755.31449999999995
  0
LINE
  8
_0-3_1-1
  6
CONTINUOUS
 62
    4
 10
1240.3979999999999
 20
773.31449999999995
 11
1258.3979999999999
 21
755.31449999999995
  0
LINE
  8
_0-3_1-1
  6
CONTINUOUS
 62
    4
 10
1251.712
 20
773.31449999999995
 11
1269.712
 21
755.31449999999995
  0
LINE
  8
_0-3_1-1
  6
CONTINUOUS
 62
    4
 10
1263.0249999999999
 20
773.31449999999995
 11
1281.0249999999999
 21
755.31449999999995
  0
LINE
  8
_0-3_1-1
  6
CONTINUOUS
 62
    4
 10
1274.3389999999999
 20
773.31449999999995
 11
1292.3389999999999
 21
755.31449999999995
  0
LINE
  8
_0-3_1-1
  6
CONTINUOUS
 62
    4
 10
1285.653
 20
773.31449999999995
 11
1303.6529999999998
 21
755.31449999999995
  0
LINE
  8
_0-3_1-1
  6
CONTINUOUS
 62
    4
 10
1296.9669999999999
 20
773.31449999999995
 11
1314.9669999999996
 21
755.31449999999995
  0
LINE
  8
_0-3_1-1
  6
CONTINUOUS
 62
    4
 10
1308.28
 20
773.31449999999995
 11
1326.2799999999997
 21
755.31449999999995
  0
LINE
  8
_0-3_1-1
  6
CONTINUOUS
 62
    4
 10
1319.5940000000001
 20
773.31449999999995
 11
1337.5940000000001
 21
755.31449999999995
  0
LINE
  8
_0-3_1-1
  6
CONTINUOUS
 62
    4
 10
1330.9079999999999
 20
773.31449999999995
 11
1348.9079999999999
 21
755.31449999999995
  0
LINE
  8
_0-3_1-1
  6
CONTINUOUS
 62
    4
 10
1342.221
 20
773.31449999999995
 11
1360.221
 21
755.31449999999995
  0
LINE
  8
_0-3_1-1
  6
CONTINUOUS
 62
    4
 10
1353.5349999999999
 20
773.31449999999995
 11
1371.5349999999999
 21
755.31449999999995
  0
LINE
  8
_0-3_1-1
  6
CONTINUOUS
 62
    4
 10
1364.8489999999997
 20
773.31449999999995
 11
1382.848
 21
755.31449999999995
  0
LINE
  8
_0-3_1-1
  6
CONTINUOUS
 62
    4
 10
1376.1619999999998
 20
773.31449999999995
 11
1394.162
 21
755.31449999999995
  0
LINE
  8
_0-3_1-1
  6
CONTINUOUS
 62
    4
 10
1387.4759999999997
 20
773.31449999999995
 11
1405.4759999999999
 21
755.31449999999995
  0
LINE
  8
_0-3_1-1
  6
CONTINUOUS
 62
    4
 10
1398.79
 20
773.31449999999995
 11
1416.79
 21
755.31449999999995
  0
LINE
  8
_0-3_1-1
  6
CONTINUOUS
 62
    4
 10
1410.1029999999996
 20
773.31449999999995
 11
1428.1029999999998
 21
755.31449999999995
  0
LINE
  8
_0-3_1-1
  6
CONTINUOUS
 62
    4
 10
1421.4169999999999
 20
773.31449999999995
 11
1439.4169999999999
 21
755.31449999999995
  0
LINE
  8
_0-3_1-1
  6
CONTINUOUS
 62
    4
 10
1432.731
 20
773.31449999999995
 11
1450.7310000000002
 21
755.31449999999995
  0
LINE
  8
_0-3_1-1
  6
CONTINUOUS
 62
    4
 10
1444.0439999999999
 20
773.31449999999995
 11
1462.0439999999999
 21
755.31449999999995
  0
LINE
  8
_0-3_1-1
  6
CONTINUOUS
 62
    4
 10
1455.3579999999999
 20
773.31449999999995
 11
1473.3580000000002
 21
755.31449999999995
  0
LINE
  8
_0-3_1-1
  6
CONTINUOUS
 62
    4
 10
1466.672
 20
773.31449999999995
 11
1484.672
 21
755.31449999999995
  0
LINE
  8
_0-3_1-1
  6
CONTINUOUS
 62
    4
 10
1477.9849999999999
 20
773.31449999999995
 11
1495.9850000000001
 21
755.31449999999995
  0
LINE
  8
_0-3_1-1
  6
CONTINUOUS
 62
    4
 10
1489.299
 20
773.31449999999995
 11
1507.299
 21
755.31449999999995
  0
LINE
  8
_0-3_1-1
  6
CONTINUOUS
 62
    4
 10
1500.6130000000003
 20
773.31449999999995
 11
1518.6130000000001
 21
755.31449999999995
  0
LINE
  8
_0-3_1-1
  6
CONTINUOUS
 62
    4
 10
1511.9259999999999
 20
773.31449999999995
 11
1529.9259999999999
 21
755.31449999999995
  0
LINE
  8
_0-3_1-1
  6
CONTINUOUS
 62
    4
 10
1523.2400000000002
 20
773.31449999999995
 11
1541.24
 21
755.31449999999995
  0
LINE
  8
_0-3_1-1
  6
CONTINUOUS
 62
    4
 10
1534.5540000000001
 20
773.31449999999995
 11
1552.5539999999999
 21
755.31449999999995
  0
LINE
  8
_0-3_1-1
  6
CONTINUOUS
 62
    4
 10
1545.8670000000002
 20
773.31449999999995
 11
1563.867
 21
755.31449999999995
  0
LINE
  8
_0-3_1-1
  6
CONTINUOUS
 62
    4
 10
1557.181
 20
773.31449999999995
 11
1575.181
 21
755.31449999999995
  0
LINE
  8
_0-3_1-1
  6
CONTINUOUS
 62
    4
 10
1568.4949999999999
 20
773.31449999999995
 11
1586.4949999999999
 21
755.31449999999995
  0
LINE
  8
_0-3_1-1
  6
CONTINUOUS
 62
    4
 10
1579.808
 20
773.31449999999995
 11
1597.808
 21
755.31449999999995
  0
LINE
  8
_0-3_1-1
  6
CONTINUOUS
 62
    4
 10
1591.1219999999998
 20
773.31449999999995
 11
1609.1219999999998
 21
755.31449999999995
  0
LINE
  8
_0-3_1-1
  6
CONTINUOUS
 62
    4
 10
1602.4359999999999
 20
773.31449999999995
 11
1620.4359999999999
 21
755.31449999999995
  0
LINE
  8
_0-3_1-1
  6
CONTINUOUS
 62
    4
 10
1613.75
 20
773.31449999999995
 11
1631.75
 21
755.31449999999995
  0
LINE
  8
_0-3_1-1
  6
CONTINUOUS
 62
    4
 10
1625.0629999999999
 20
773.31449999999995
 11
1634.383
 21
763.99549999999999
  0
LINE
  8
_0-3_1-1
  6
CONTINUOUS
 62
    7
 10
574.32399999999996
 20
655.31449999999995
 11
569.32399999999996
 21
655.31449999999995
  0
LINE
  8
_0-3_1-1
  6
CONTINUOUS
 62
    7
 10
519.32399999999996
 20
797.91149999999993
 11
519.32399999999996
 21
614.31449999999995
  0
LINE
  8
_0-6_ADD_LINE
  6
HIDDEN
 62
    7
 10
569.32399999999996
 20
793.79349999999999
 11
1634.383
 21
793.79349999999999
  0
LINE
  8
_0-3_1-1
  6
CONTINUOUS
 62
    7
 10
569.32399999999996
 20
773.31449999999995
 11
1634.383
 21
773.31449999999995
  0
LINE
  8
_0-3_1-1
  6
CONTINUOUS
 62
    4
 10
569.32399999999996
 20
765.56849999999997
 11
579.57799999999997
 21
755.31449999999995
  0
LINE
  8
_0-3_1-1
  6
CONTINUOUS
 62
    4
 10
569.32399999999996
 20
764.13850000000002
 11
578.5
 21
773.31449999999995
  0
LINE
  8
_0-5_1-3
  6
CONTINUOUS
 62
    7
 10
519.32399999999996
 20
614.31449999999995
 11
519.32399999999996
 21
575.31449999999995
  0
LINE
  8
_0-5_1-3
  6
CONTINUOUS
 62
    7
 10
519.32399999999996
 20
575.31449999999995
 11
569.32399999999996
 21
575.31449999999995
  0
LINE
  8
_0-5_1-3
  6
CONTINUOUS
 62
    7
 10
569.32399999999996
 20
605.31449999999995
 11
1634.383
 21
605.31449999999995
  0
LINE
  8
_0-5_1-3
  6
CONTINUOUS
 62
    7
 10
588.32399999999996
 20
755.31449999999995
 11
1634.383
 21
755.31449999999995
  0
LINE
  8
_0-5_1-3
  6
CONTINUOUS
 62
    7
 10
574.32399999999996
 20
755.31449999999995
 11
569.32399999999996
 21
755.31449999999995
  0
LINE
  8
_0-5_1-3
  6
CONTINUOUS
 62
    7
 10
1294.0909999999999
 20
380.96949999999998
 11
1145.8329999999999
 21
788.30549999999994
  0
LINE
  8
_0-3_1-1
  6
CONTINUOUS
 62
    7
 10
588.32399999999996
 20
655.31449999999995
 11
836.75799999999992
 21
655.31449999999995
  0
LINE
  8
_0-3_1-1
  6
CONTINUOUS
 62
    7
 10
836.75799999999992
 20
655.31449999999995
 11
1634.383
 21
655.31449999999995
  0
LINE
  8
_0-5_1-3
  6
CONTINUOUS
 62
    7
 10
903.23999999999978
 20
655.31449999999995
 11
853.23999999999978
 21
605.31449999999995
  0
LINE
  8
_0-5_1-3
  6
CONTINUOUS
 62
    7
 10
914.55299999999988
 20
655.31449999999995
 11
864.55299999999988
 21
605.31449999999995
  0
LINE
  8
_0-5_1-3
  6
CONTINUOUS
 62
    7
 10
891.92599999999993
 20
655.31449999999995
 11
841.92599999999993
 21
605.31449999999995
  0
LINE
  8
_0-5_1-3
  6
CONTINUOUS
 62
    7
 10
569.32399999999996
 20
695.69749999999999
 11
519.32399999999996
 21
645.69749999999999
  0
LINE
  8
_0-5_1-3
  6
CONTINUOUS
 62
    7
 10
569.32399999999996
 20
707.01149999999996
 11
519.32399999999996
 21
657.01149999999996
  0
LINE
  8
_0-5_1-3
  6
CONTINUOUS
 62
    7
 10
569.32399999999996
 20
718.32449999999994
 11
519.32399999999996
 21
668.32449999999994
  0
LINE
  8
_0-5_1-3
  6
CONTINUOUS
 62
    7
 10
569.32399999999996
 20
729.63850000000002
 11
519.32399999999996
 21
679.63850000000002
  0
LINE
  8
_0-5_1-3
  6
CONTINUOUS
 62
    7
 10
1416.6799999999998
 20
655.31449999999995
 11
1366.6799999999998
 21
605.31449999999995
  0
LINE
  8
_0-5_1-3
  6
CONTINUOUS
 62
    7
 10
1427.9939999999999
 20
655.31449999999995
 11
1377.9939999999999
 21
605.31449999999995
  0
LINE
  8
_0-5_1-3
  6
CONTINUOUS
 62
    7
 10
1405.366
 20
655.31449999999995
 11
1355.366
 21
605.31449999999995
  0
LINE
  8
_0-5_1-3
  6
CONTINUOUS
 62
    7
 10
770.94599999999991
 20
623.52350000000001
 11
696.42899999999997
 21
418.78949999999998
  0
LINE
  8
_0-5_1-3
  6
CONTINUOUS
 62
    7
 10
556.0809999999999
 20
599.19949999999994
 11
486.89099999999996
 21
409.10050000000001
  0
LINE
  8
_0-5_1-3
  6
CONTINUOUS
 62
    7
 10
486.89099999999996
 20
409.10050000000001
 11
446.62199999999996
 21
409.10050000000001
  0
LINE
  8
_0-5_1-3
  6
CONTINUOUS
 62
    7
 10
696.42899999999997
 20
418.78949999999998
 11
657.4319999999999
 21
418.78949999999998
  0
TEXT
  8
_0-1_0-0
 62
    7
 10
742.56700000000001
 20
84.334499999999935
 40
9.75
 41
1
 50
0
  1
縮尺
  0
TEXT
  8
_0-1_0-0
 62
    7
 10
1918.6189999999999
 20
125.68849999999998
 40
9.75
 41
1
 50
0
  1
ＮＯ
  0
TEXT
  8
_0-1_0-0
 62
    7
 10
106.08099999999993
 20
132.98349999999994
 40
9.75
 41
1
 50
0
  1
和形
  0
TEXT
  8
_0-1_0-0
 62
    7
 10
1949.298
 20
103.97849999999991
 40
11.699999999999999
 41
1
 50
0
  1
Ｊ
  0
TEXT
  8
_0-2_1-0
 62
    7
 10
882.64199999999983
 20
77.952499999999958
 40
9.75
 41
0.7
 50
0
  1
1/5
  0
TEXT
  8
_0-4_1-2
 62
    7
 10
231.7179999999999
 20
88.337499999999949
 40
9.75
 41
1
 50
0
  1
袖　　1
  0
TEXT
  8
_0-4_1-2
 62
    7
 10
160.88899999999995
 20
112.41949999999996
 40
9.75
 41
1
 50
0
  1
鉄骨
  0
TEXT
  8
_0-5_1-3
 62
    7
 10
390.27199999999993
 20
403.16849999999999
 40
9.75
 41
1
 50
0
  1
ＡＬＣ板
  0
TEXT
  8
_0-5_1-3
 62
    7
 10
597.66199999999992
 20
411.73850000000004
 40
9.75
 41
1
 50
0
  1
ＡＬＣ板
  0
LINE
  8
_0-3_1-1
  6
CONTINUOUS
 62
    3
 10
1198.3239999999998
 20
735.31449999999995
 11
1201.3239999999998
 21
735.31449999999995
  0
LINE
  8
_0-3_1-1
  6
CONTINUOUS
 62
    3
 10
1198.3239999999998
 20
675.31449999999995
 11
1201.3239999999998
 21
675.31449999999995
  0
LINE
  8
_0-3_1-1
  6
CONTINUOUS
 62
    3
 10
1196.3239999999998
 20
755.31449999999995
 11
1156.3239999999998
 21
755.31449999999995
  0
LINE
  8
_0-3_1-1
  6
CONTINUOUS
 62
    3
 10
1201.3239999999998
 20
750.31449999999995
 11
1201.3239999999998
 21
735.31449999999995
  0
LINE
  8
_0-3_1-1
  6
CONTINUOUS
 62
    3
 10
1198.3239999999998
 20
747.31449999999995
 11
1198.3239999999998
 21
735.31449999999995
  0
LINE
  8
_0-3_1-1
  6
CONTINUOUS
 62
    3
 10
1193.3239999999998
 20
752.31449999999995
 11
1159.3239999999998
 21
752.31449999999995
  0
LINE
  8
_0-3_1-1
  6
CONTINUOUS
 62
    3
 10
1154.3239999999998
 20
663.31449999999995
 11
1154.3239999999998
 21
747.31449999999995
  0
LINE
  8
_0-3_1-1
  6
CONTINUOUS
 62
    3
 10
1151.3239999999998
 20
660.31449999999995
 11
1151.3239999999998
 21
750.31449999999995
  0
LINE
  8
_0-3_1-1
  6
CONTINUOUS
 62
    3
 10
1193.3239999999998
 20
658.31449999999995
 11
1159.3239999999998
 21
658.31449999999995
  0
LINE
  8
_0-3_1-1
  6
CONTINUOUS
 62
    3
 10
1198.3239999999998
 20
663.31449999999995
 11
1198.3239999999998
 21
675.31449999999995
  0
LINE
  8
_0-3_1-1
  6
CONTINUOUS
 62
    3
 10
1196.3239999999998
 20
655.31449999999995
 11
1156.3239999999998
 21
655.31449999999995
  0
LINE
  8
_0-3_1-1
  6
CONTINUOUS
 62
    3
 10
1201.3239999999998
 20
660.31449999999995
 11
1201.3239999999998
 21
675.31449999999995
  0
LINE
  8
_0-6_ADD_LINE
  6
HIDDEN
 62
    3
 10
1156.3239999999998
 20
655.31449999999995
 11
1145.144
 21
655.31449999999995
  0
LINE
  8
_0-6_ADD_LINE
  6
HIDDEN
 62
    3
 10
1156.3239999999998
 20
755.31449999999995
 11
1145.144
 21
755.31449999999995
  0
LINE
  8
_0-6_ADD_LINE
  6
HIDDEN
 62
    3
 10
1151.3239999999998
 20
750.31449999999995
 11
1151.3239999999998
 21
759.87950000000001
  0
LINE
  8
_0-3_1-1
  6
CONTINUOUS
 62
    3
 10
616.32399999999996
 20
735.31449999999995
 11
619.32399999999996
 21
735.31449999999995
  0
LINE
  8
_0-3_1-1
  6
CONTINUOUS
 62
    3
 10
616.32399999999996
 20
675.31449999999995
 11
619.32399999999996
 21
675.31449999999995
  0
LINE
  8
_0-3_1-1
  6
CONTINUOUS
 62
    3
 10
614.32399999999996
 20
755.31449999999995
 11
574.32399999999996
 21
755.31449999999995
  0
LINE
  8
_0-3_1-1
  6
CONTINUOUS
 62
    3
 10
619.32399999999996
 20
750.31449999999995
 11
619.32399999999996
 21
735.31449999999995
  0
LINE
  8
_0-3_1-1
  6
CONTINUOUS
 62
    3
 10
616.32399999999996
 20
747.31449999999995
 11
616.32399999999996
 21
735.31449999999995
  0
LINE
  8
_0-3_1-1
  6
CONTINUOUS
 62
    3
 10
611.32399999999996
 20
752.31449999999995
 11
577.32399999999996
 21
752.31449999999995
  0
LINE
  8
_0-3_1-1
  6
CONTINUOUS
 62
    3
 10
572.32399999999996
 20
663.31449999999995
 11
572.32399999999996
 21
747.31449999999995
  0
LINE
  8
_0-3_1-1
  6
CONTINUOUS
 62
    3
 10
569.32399999999996
 20
660.31449999999995
 11
569.32399999999996
 21
750.31449999999995
  0
LINE
  8
_0-3_1-1
  6
CONTINUOUS
 62
    3
 10
611.32399999999996
 20
658.31449999999995
 11
577.32399999999996
 21
658.31449999999995
  0
LINE
  8
_0-3_1-1
  6
CONTINUOUS
 62
    3
 10
616.32399999999996
 20
663.31449999999995
 11
616.32399999999996
 21
675.31449999999995
  0
LINE
  8
_0-3_1-1
  6
CONTINUOUS
 62
    3
 10
614.32399999999996
 20
655.31449999999995
 11
574.32399999999996
 21
655.31449999999995
  0
LINE
  8
_0-3_1-1
  6
CONTINUOUS
 62
    3
 10
619.32399999999996
 20
660.31449999999995
 11
619.32399999999996
 21
675.31449999999995
  0
LINE
  8
_0-6_ADD_LINE
  6
HIDDEN
 62
    3
 10
569.32399999999996
 20
660.31449999999995
 11
569.32399999999996
 21
650.09950000000003
  0
LINE
  8
_0-6_ADD_LINE
  6
HIDDEN
 62
    3
 10
569.32399999999996
 20
750.31449999999995
 11
569.32399999999996
 21
759.87950000000001
  0
LINE
  8
_0-6_ADD_LINE
  6
HIDDEN
 62
    3
 10
1420.6369999999997
 20
660.31449999999995
 11
1420.6369999999997
 21
650.09950000000003
  0
LINE
  8
_0-6_ADD_LINE
  6
HIDDEN
 62
    3
 10
1425.6369999999997
 20
655.31449999999995
 11
1414.4569999999999
 21
655.31449999999995
  0
LINE
  8
_0-6_ADD_LINE
  6
HIDDEN
 62
    3
 10
1425.6369999999997
 20
755.31449999999995
 11
1414.4569999999999
 21
755.31449999999995
  0
ARC
  8
_0-3_1-1
  6
CONTINUOUS
 62
    3
 10
1159.3239999999998
 20
747.31449999999995
 40
5
 50
90
 51
180
  0
ARC
  8
_0-3_1-1
  6
CONTINUOUS
 62
    3
 10
1156.3239999999998
 20
750.31449999999995
 40
5
 50
90
 51
180
  0
ARC
  8
_0-3_1-1
  6
CONTINUOUS
 62
    3
 10
1196.3239999999998
 20
750.31449999999995
 40
5
 50
0
 51
90
  0
ARC
  8
_0-3_1-1
  6
CONTINUOUS
 62
    3
 10
1193.3239999999998
 20
747.31449999999995
 40
5
 50
0
 51
90
  0
ARC
  8
_0-3_1-1
  6
CONTINUOUS
 62
    3
 10
1159.3239999999998
 20
663.31449999999995
 40
5
 50
180
 51
270
  0
ARC
  8
_0-3_1-1
  6
CONTINUOUS
 62
    3
 10
1156.3239999999998
 20
660.31449999999995
 40
5
 50
180
 51
270
  0
ARC
  8
_0-3_1-1
  6
CONTINUOUS
 62
    3
 10
1193.3239999999998
 20
663.31449999999995
 40
5
 50
270
 51
0
  0
ARC
  8
_0-3_1-1
  6
CONTINUOUS
 62
    3
 10
1196.3239999999998
 20
660.31449999999995
 40
5
 50
270
 51
0
  0
ARC
  8
_0-3_1-1
  6
CONTINUOUS
 62
    3
 10
577.32399999999996
 20
747.31449999999995
 40
5
 50
90
 51
180
  0
ARC
  8
_0-3_1-1
  6
CONTINUOUS
 62
    3
 10
574.32399999999996
 20
750.31449999999995
 40
5
 50
90
 51
180
  0
ARC
  8
_0-3_1-1
  6
CONTINUOUS
 62
    3
 10
614.32399999999996
 20
750.31449999999995
 40
5
 50
0
 51
90
  0
ARC
  8
_0-3_1-1
  6
CONTINUOUS
 62
    3
 10
611.32399999999996
 20
747.31449999999995
 40
5
 50
0
 51
90
  0
ARC
  8
_0-3_1-1
  6
CONTINUOUS
 62
    3
 10
577.32399999999996
 20
663.31449999999995
 40
5
 50
180
 51
270
  0
ARC
  8
_0-3_1-1
  6
CONTINUOUS
 62
    3
 10
574.32399999999996
 20
660.31449999999995
 40
5
 50
180
 51
270
  0
ARC
  8
_0-3_1-1
  6
CONTINUOUS
 62
    3
 10
611.32399999999996
 20
663.31449999999995
 40
5
 50
270
 51
0
  0
ARC
  8
_0-3_1-1
  6
CONTINUOUS
 62
    3
 10
614.32399999999996
 20
660.31449999999995
 40
5
 50
270
 51
0
  0
LINE
  8
_1-4_
  6
CONTINUOUS
 62
    5
 10
2066.8919999999998
 20
62.037499999999994
 11
66.891999999999996
 21
62.037499999999994
  0
LINE
  8
_1-4_
  6
CONTINUOUS
 62
    5
 10
2066.8919999999998
 20
162.03749999999991
 11
66.891999999999996
 21
162.03749999999991
  0
LINE
  8
_1-4_
  6
CONTINUOUS
 62
    5
 10
718.24299999999994
 20
162.03749999999991
 11
718.24299999999994
 21
62.037499999999994
  0
LINE
  8
_1-4_
  6
CONTINUOUS
 62
    5
 10
718.24299999999994
 20
112.03749999999999
 11
1107.432
 21
112.03749999999999
  0
LINE
  8
_1-4_
  6
CONTINUOUS
 62
    5
 10
1107.432
 20
162.03749999999991
 11
1107.432
 21
62.037499999999994
  0
LINE
  8
_1-4_
  6
CONTINUOUS
 62
    5
 10
1891.8920000000001
 20
62.037499999999994
 11
1891.8920000000001
 21
162.03749999999991
  0
LINE
  8
_1-4_
  6
CONTINUOUS
 62
    5
 10
66.891999999999996
 20
1412.0374999999999
 11
2066.8919999999998
 21
1412.0374999999999
  0
TEXT
  8
_0-4_1-2
 62
    7
 10
2007.1900000000001
 20
90.834499999999991
 40
9.75
 41
0.7
 50
0
  1
34
  0
LINE
  8
_0-4_1-2
  6
CONTINUOUS
 62
    7
 10
489.86859439567866
 20
988.38850000000002
 11
714.86859439567866
 21
988.38850000000002
  0
LINE
  8
_0-4_1-2
  6
CONTINUOUS
 62
    7
 10
489.86859439567866
 20
895.14549999999997
 11
489.86859439567866
 21
988.38850000000002
  0
LINE
  8
_0-4_1-2
  6
CONTINUOUS
 62
    7
 10
714.86859439567866
 20
895.14549999999997
 11
714.86859439567866
 21
988.38850000000002
  0
LINE
  8
_0-4_1-2
  6
CONTINUOUS
 62
    7
 10
714.86859439567866
 20
988.38850000000002
 11
979.86859439567866
 21
988.38850000000002
  0
LINE
  8
_0-4_1-2
  6
CONTINUOUS
 62
    7
 10
979.86859439567866
 20
895.14549999999997
 11
979.86859439567866
 21
988.38850000000002
  0
LINE
  8
_0-4_1-2
  6
CONTINUOUS
 62
    7
 10
979.86859439567866
 20
988.38850000000002
 11
1244.8685943956784
 21
988.38850000000002
  0
LINE
  8
_0-4_1-2
  6
CONTINUOUS
 62
    7
 10
1244.8685943956784
 20
895.14549999999997
 11
1244.8685943956784
 21
988.38850000000002
  0
LINE
  8
_0-4_1-2
  6
CONTINUOUS
 62
    7
 10
1244.8685943956784
 20
988.38850000000002
 11
1509.8685943956787
 21
988.38850000000002
  0
LINE
  8
_0-4_1-2
  6
CONTINUOUS
 62
    7
 10
1509.8685943956787
 20
895.14549999999997
 11
1509.8685943956787
 21
988.38850000000002
  0
LINE
  8
_0-4_1-2
  6
CONTINUOUS
 62
    7
 10
492.03659439567866
 20
769.33249999999998
 11
372.34559439567875
 21
1098.1824999999999
  0
LINE
  8
_0-4_1-2
  6
CONTINUOUS
 62
    7
 10
1053.3825943956786
 20
822.17250000000013
 11
939.42759439567863
 21
1135.2615000000001
  0
LINE
  8
_0-4_1-2
  6
CONTINUOUS
 62
    7
 10
372.34559439567875
 20
1098.1824999999999
 11
327.70659439567851
 21
1098.1824999999999
  0
LINE
  8
_0-4_1-2
  6
CONTINUOUS
 62
    7
 10
939.42759439567863
 20
1135.2615000000001
 11
903.38259439567867
 21
1135.2615000000001
  0
TEXT
  8
_0-4_1-2
 62
    7
 10
592.99359439567866
 20
990.88850000000002
 40
9.75
 41
0.8
 50
0
  1
225
  0
TEXT
  8
_0-4_1-2
 62
    7
 10
837.99359439567866
 20
990.88850000000002
 40
9.75
 41
0.8
 50
0
  1
265
  0
TEXT
  8
_0-4_1-2
 62
    7
 10
1102.9935943956784
 20
990.88850000000002
 40
9.75
 41
0.8
 50
0
  1
265
  0
TEXT
  8
_0-4_1-2
 62
    7
 10
1367.9935943956787
 20
990.88850000000002
 40
9.75
 41
0.8
 50
0
  1
265
  0
TEXT
  8
_0-4_1-2
 62
    7
 10
873.48559439567862
 20
1129.3095000000001
 40
9.75
 41
1
 50
0
  1
桟瓦
  0
TEXT
  8
_0-4_1-2
 62
    7
 10
284.66159439567861
 20
1092.4945
 40
9.75
 41
1
 50
0
  1
左袖瓦
  0
POINT
  8
_0-4_1-2
 62
    7
 10
489.86859439567866
 20
988.38850000000002
  0
POINT
  8
_0-4_1-2
 62
    7
 10
714.86859439567866
 20
988.38850000000002
  0
POINT
  8
_0-4_1-2
 62
    7
 10
979.86859439567866
 20
988.38850000000002
  0
POINT
  8
_0-4_1-2
 62
    7
 10
1244.8685943956784
 20
988.38850000000002
  0
POINT
  8
_0-4_1-2
 62
    7
 10
1509.8685943956787
 20
988.38850000000002
  0
LINE
  8
_0-2_1-0
  6
CONTINUOUS
 62
    3
 10
747.92159439567865
 20
839.50749999999994
 11
754.86859439567866
 21
839.50749999999994
  0
LINE
  8
_0-2_1-0
  6
CONTINUOUS
 62
    3
 10
754.86859439567866
 20
839.50749999999994
 11
754.86859439567866
 21
823.60149999999999
  0
LINE
  8
_0-2_1-0
  6
CONTINUOUS
 62
    3
 10
754.86859439567866
 20
839.50749999999994
 11
754.86859439567866
 21
823.60149999999999
  0
LINE
  8
_0-2_1-0
  6
CONTINUOUS
 62
    3
 10
743.2265943956786
 20
853.91949999999997
 11
714.86859439567866
 21
837.79449999999997
  0
LINE
  8
_0-2_1-0
  6
CONTINUOUS
 62
    3
 10
1012.9215943956787
 20
839.50850000000003
 11
1019.8685943956787
 21
839.50850000000003
  0
LINE
  8
_0-2_1-0
  6
CONTINUOUS
 62
    3
 10
714.86859439567866
 20
837.79449999999997
 11
714.86859439567866
 21
823.79449999999997
  0
LINE
  8
_0-2_1-0
  6
CONTINUOUS
 62
    3
 10
737.73059439567862
 20
835.63750000000005
 11
714.86859439567866
 21
823.79449999999997
  0
LINE
  8
_0-2_1-0
  6
CONTINUOUS
 62
    3
 10
1019.8685943956787
 20
839.50850000000003
 11
1019.8685943956787
 21
823.60149999999999
  0
LINE
  8
_0-2_1-0
  6
CONTINUOUS
 62
    3
 10
1008.2265943956786
 20
853.91949999999997
 11
979.86859439567866
 21
837.79449999999997
  0
LINE
  8
_0-2_1-0
  6
CONTINUOUS
 62
    3
 10
1277.9215943956788
 20
839.50850000000003
 11
1284.8685943956787
 21
839.50850000000003
  0
LINE
  8
_0-2_1-0
  6
CONTINUOUS
 62
    3
 10
979.86859439567866
 20
837.79449999999997
 11
979.86859439567866
 21
823.79449999999997
  0
LINE
  8
_0-2_1-0
  6
CONTINUOUS
 62
    3
 10
1002.7305943956786
 20
835.63750000000005
 11
979.86859439567866
 21
823.79449999999997
  0
LINE
  8
_0-2_1-0
  6
CONTINUOUS
 62
    3
 10
1284.8685943956787
 20
839.50850000000003
 11
1284.8685943956787
 21
823.60149999999999
  0
LINE
  8
_0-2_1-0
  6
CONTINUOUS
 62
    3
 10
1284.8685943956787
 20
839.50850000000003
 11
1284.8685943956787
 21
823.60149999999999
  0
LINE
  8
_0-2_1-0
  6
CONTINUOUS
 62
    3
 10
489.86859439567866
 20
749.79449999999997
 11
505.86859439567866
 21
749.79449999999997
  0
LINE
  8
_0-2_1-0
  6
CONTINUOUS
 62
    3
 10
489.86859439567866
 20
749.79449999999997
 11
489.86859439567866
 21
832.79349999999999
  0
LINE
  8
_0-2_1-0
  6
CONTINUOUS
 62
    3
 10
505.86859439567866
 20
749.79449999999997
 11
505.86859439567866
 21
811.89049999999997
  0
LINE
  8
_0-2_1-0
  6
CONTINUOUS
 62
    3
 10
1273.2265943956786
 20
853.91949999999997
 11
1244.8685943956784
 21
837.79449999999997
  0
LINE
  8
_0-2_1-0
  6
CONTINUOUS
 62
    3
 10
1542.9215943956785
 20
839.50850000000003
 11
1549.8685943956787
 21
839.50850000000003
  0
LINE
  8
_0-2_1-0
  6
CONTINUOUS
 62
    3
 10
1244.8685943956784
 20
837.79449999999997
 11
1244.8685943956784
 21
823.79449999999997
  0
LINE
  8
_0-2_1-0
  6
CONTINUOUS
 62
    3
 10
1267.7305943956785
 20
835.63750000000005
 11
1244.8685943956784
 21
823.79449999999997
  0
LINE
  8
_0-2_1-0
  6
CONTINUOUS
 62
    3
 10
1549.8685943956787
 20
839.50850000000003
 11
1549.8685943956787
 21
823.60149999999999
  0
LINE
  8
_0-2_1-0
  6
CONTINUOUS
 62
    3
 10
1549.8685943956787
 20
839.50850000000003
 11
1549.8685943956787
 21
823.60149999999999
  0
LINE
  8
_0-2_1-0
  6
CONTINUOUS
 62
    3
 10
1538.2265943956786
 20
853.91949999999997
 11
1509.8685943956787
 21
837.79449999999997
  0
LINE
  8
_0-2_1-0
  6
CONTINUOUS
 62
    3
 10
1509.8685943956787
 20
837.79449999999997
 11
1509.8685943956787
 21
823.79449999999997
  0
LINE
  8
_0-2_1-0
  6
CONTINUOUS
 62
    3
 10
1532.7305943956787
 20
835.63750000000005
 11
1509.8685943956787
 21
823.79449999999997
  0
LINE
  8
_0-2_1-0
  6
CONTINUOUS
 62
    3
 10
489.86859439567866
 20
838.79349999999999
 11
489.86859439567866
 21
832.79349999999999
  0
ARC
  8
_0-2_1-0
  6
CONTINUOUS
 62
    3
 10
742.7225943956787
 20
839.3605
 40
5.2010000000000005
 50
309.08184799999998
 51
1.6144709999999898
  0
ARC
  8
_0-2_1-0
  6
CONTINUOUS
 62
    3
 10
752.42659439567865
 20
841.67650000000003
 40
15.314
 50
42.690551999999997
 51
126.920761
  0
ARC
  8
_0-2_1-0
  6
CONTINUOUS
 62
    3
 10
1007.7225943956787
 20
839.36149999999998
 40
5.2010000000000005
 50
309.08184799999998
 51
1.6144709999999898
  0
ARC
  8
_0-2_1-0
  6
CONTINUOUS
 62
    3
 10
900.53259439567864
 20
1038.6185
 40
231.37
 50
233.73812899999996
 51
298.51937900000001
  0
ARC
  8
_0-2_1-0
  6
CONTINUOUS
 62
    3
 10
751.49259439567868
 20
817.04449999999997
 40
23.132000000000001
 50
47.123046999999993
 51
126.50717199999998
  0
ARC
  8
_0-2_1-0
  6
CONTINUOUS
 62
    3
 10
902.06659439567852
 20
1035.8154999999999
 40
242.71799999999999
 50
236.25315900000001
 51
299.035034
  0
ARC
  8
_0-2_1-0
  6
CONTINUOUS
 62
    3
 10
1017.4265943956786
 20
841.67650000000003
 40
15.314
 50
42.690551999999997
 51
126.920761
  0
ARC
  8
_0-2_1-0
  6
CONTINUOUS
 62
    3
 10
1272.7225943956787
 20
839.36149999999998
 40
5.2010000000000005
 50
309.08184799999998
 51
1.6144709999999898
  0
ARC
  8
_0-2_1-0
  6
CONTINUOUS
 62
    3
 10
1165.5325943956789
 20
1038.6185
 40
231.37
 50
233.73812899999996
 51
298.51937900000001
  0
ARC
  8
_0-2_1-0
  6
CONTINUOUS
 62
    3
 10
1016.4925943956787
 20
817.04449999999997
 40
23.132000000000001
 50
47.123046999999993
 51
126.50717199999998
  0
ARC
  8
_0-2_1-0
  6
CONTINUOUS
 62
    3
 10
1167.0665943956785
 20
1035.8154999999999
 40
242.71799999999999
 50
236.25315900000001
 51
299.035034
  0
ARC
  8
_0-2_1-0
  6
CONTINUOUS
 62
    3
 10
615.50959439567862
 20
1133.6814999999999
 40
339.95699999999999
 50
251.18492100000003
 51
294.20050000000003
  0
ARC
  8
_0-2_1-0
  6
CONTINUOUS
 62
    3
 10
1282.4265943956786
 20
841.67650000000003
 40
15.314
 50
42.690551999999997
 51
126.920761
  0
ARC
  8
_0-2_1-0
  6
CONTINUOUS
 62
    3
 10
1537.7225943956785
 20
839.36149999999998
 40
5.2010000000000005
 50
309.08184799999998
 51
1.6144709999999898
  0
ARC
  8
_0-2_1-0
  6
CONTINUOUS
 62
    3
 10
1430.5325943956789
 20
1038.6185
 40
231.37
 50
233.73812899999996
 51
298.51937900000001
  0
ARC
  8
_0-2_1-0
  6
CONTINUOUS
 62
    3
 10
1281.4925943956787
 20
817.04449999999997
 40
23.132000000000001
 50
47.123046999999993
 51
126.50717199999998
  0
ARC
  8
_0-2_1-0
  6
CONTINUOUS
 62
    3
 10
1432.0665943956785
 20
1035.8154999999999
 40
242.71799999999999
 50
236.25315900000001
 51
299.035034
  0
ARC
  8
_0-2_1-0
  6
CONTINUOUS
 62
    3
 10
1547.4265943956786
 20
841.67650000000003
 40
15.314
 50
42.690551999999997
 51
126.920761
  0
ARC
  8
_0-2_1-0
  6
CONTINUOUS
 62
    3
 10
1546.4925943956787
 20
817.04449999999997
 40
23.132000000000001
 50
47.123046999999993
 51
126.50717199999998
  0
ARC
  8
_0-2_1-0
  6
CONTINUOUS
 62
    3
 10
621.43959439567868
 20
1095.6855
 40
288.62400000000002
 50
242.880066
 51
295.56720000000007
  0
ARC
  8
_0-2_1-0
  6
CONTINUOUS
 62
    3
 10
1697.0665943956785
 20
1035.8154999999999
 40
242.71799999999999
 50
236.25315900000001
 51
252.709564
  0
ARC
  8
_0-2_1-0
  6
CONTINUOUS
 62
    3
 10
1696.3305943956789
 20
1040.7964999999999
 40
233.59899999999999
 50
233.896164
 51
252.20182800000003
  0
LINE
  8
_0-3_1-1
  6
CONTINUOUS
 62
    7
 10
555.27538359262235
 20
797.91149999999993
 11
519.32399999999996
 21
797.91149999999993
  0
LINE
  8
_0-2_1-0
  6
CONTINUOUS
 62
    7
 10
569.32399999999996
 20
793.79349999999999
 11
555.27538359262235
 21
797.91149999999993
  0
LINE
  8
_0-5_1-3
  6
CONTINUOUS
 62
    7
 10
569.32399999999996
 20
793.79349999999999
 11
569.32399999999996
 21
575.31449999999995
  0
TEXT
  8
_0-5_1-3
 62
    7
 10
1339.5149999999999
 20
208.88349999999988
 40
15
 41
1
 50
0
  1
＊　耐火仕様では有りません
  0
LINE
  8
_0-3_1-1
  6
DASHED1
 62
    3
 10
569.86463626557668
 20
794.28069403419556
 11
569.86463626557668
 21
774.09349999999995
  0
LINE
  8
_0-3_1-1
  6
DASHED1
 62
    3
 10
569.86463626557668
 20
774.09349999999995
 11
1634.383
 21
774.09349999999995
  0
LINE
  8
_0-3_1-1
  6
DASHED1
 62
    3
 10
517.95707024745013
 20
798.41099135942773
 11
556.64732415777223
 21
798.41099135942773
  0
LINE
  8
_0-3_1-1
  6
DASHED1
 62
    3
 10
556.64732415777223
 20
798.41099135942773
 11
569.86463626557668
 21
794.28069403419556
  0
TEXT
  8
_0-4_1-2
 62
    7
 10
1354.8039999999996
 20
533.81449999999995
 40
12.5
 41
1
 50
0
  1
瓦桟
  0
TEXT
  8
_0-5_1-3
 62
    7
 10
1354.8039999999996
 20
373.81449999999995
 40
12.5
 41
1
 50
0
  1
垂木
  0
TEXT
  8
_0-5_1-3
 62
    7
 10
1354.8039999999996
 20
453.81449999999995
 40
12.5
 41
1
 50
0
  1
下葺材
  0
TEXT
  8
_0-5_1-3
 62
    7
 10
1415.4739999999997
 20
373.81449999999995
 40
12.5
 41
1
 50
0
  1
Ｃ-100ｘ50ｘ20ｘ3.2
  0
TEXT
  8
_0-5_1-3
 62
    7
 10
1354.8039999999996
 20
413.81449999999995
 40
12.5
 41
1
 50
0
  1
野地板
  0
TEXT
  8
_0-5_1-3
 62
    7
 10
1415.4739999999997
 20
453.81449999999995
 40
12.5
 41
1
 50
0
  1
ゴムアス系ルーフィング
  0
TEXT
  8
_0-5_1-3
 62
    7
 10
1415.4739999999997
 20
413.81449999999995
 40
12.5
 41
1
 50
0
  1
硬質木片セメント板　ｔ＝18
  0
TEXT
  8
_0-5_1-3
 62
    7
 10
1358.518
 20
493.15649999999999
 40
12.5
 41
1
 50
0
  1
流し桟
  0
TEXT
  8
_1-4_
 62
    7
 10
1417.7313670227934
 20
531.35814269617197
 40
12.5
 41
1
 50
0
  1
15×30　（樹脂桟木）
  0
LINE
  8
_0-3_1-1
  6
CONTINUOUS
 62
    7
 10
570.95314348806232
 20
793.79349999999999
 11
1634.383
 21
793.79349999999999
  0
LINE
  8
_0-3_1-1
  6
CONTINUOUS
 62
    7
 10
570.95314348806232
 20
775.79349999999999
 11
1634.383
 21
775.79349999999999
  0
LINE
  8
_0-3_1-1
  6
CONTINUOUS
 62
    7
 10
570.95314348806232
 20
793.79349999999999
 11
570.95314348806232
 21
790.01151329816003
  0
LINE
  8
_0-3_1-1
  6
CONTINUOUS
 62
    7
 10
570.95314348806232
 20
790.01151329816003
 11
570.95314348806232
 21
775.79349999999999
  0
LINE
  8
_0-3_1-1
  6
CONTINUOUS
 62
    7
 10
570.95314348806232
 20
778.79349999999999
 11
1634.383
 21
778.79349999999999
  0
TEXT
  8
_0-5_1-3
 62
    7
 10
1550.4041378622983
 20
373.62456776144029
 40
12.5
 41
1
 50
0
  1
＠606
  0
ENDSEC
  0
EOF
