  0
SECTION
  2
HEADER
  9
$ACADVER
  1
AC1009
  9
$INSBASE
 10
0
 20
0
 30
0
  9
$EXTMIN
 10
0
 20
0
  9
$EXTMAX
 10
420
 20
297
  9
$LIMMIN
 10
0
 20
0
  9
$LIMMAX
 10
420
 20
297
  9
$LTSCALE
 40
1
  0
ENDSEC
  0
SECTION
  2
TABLES
  0
TABLE
  2
LTYPE
 70
     9
  0
LTYPE
  2
CONTINUOUS
 70
    64
  3
実線
 72
    65
 73
     0
 40
0.0
  0
LTYPE
  2
DASHED1
 70
    64
  3
--  --  --  --  --  --  --  --  
 72
    65
 73
     2
 40
2.5
 49
1.25
 49
-1.25
  0
LTYPE
  2
DASHED2
 70
    64
  3
----    ----    ----    ----    
 72
    65
 73
     2
 40
5.0
 49
2.5
 49
-2.5
  0
LTYPE
  2
DASHED3
 70
    64
  3
------  ------  ------  ------  
 72
    65
 73
     2
 40
5.0
 49
3.75
 49
-1.25
  0
LTYPE
  2
CENTER1
 70
    64
  3
----- - ----- - ----- - ----- - 
 72
    65
 73
     4
 40
10.0
 49
6.25
 49
-1.25
 49
1.25
 49
-1.25
  0
LTYPE
  2
CENTER2
 70
    64
  3
----------  --  ----------  --  
 72
    65
 73
     4
 40
20.0
 49
12.5
 49
-2.5
 49
2.5
 49
-2.5
  0
LTYPE
  2
PHANTOM1
 70
    64
  3
--- - - --- - - --- - - --- - - 
 72
    65
 73
     6
 40
10.0
 49
3.25
 49
-1.25
 49
1.25
 49
-1.25
 49
1.25
 49
-1.25
  0
LTYPE
  2
PHANTOM2
 70
    64
  3
--------  -  -  --------  -  -  
 72
    65
 73
     6
 40
20.0
 49
10.0
 49
-2.5
 49
1.25
 49
-2.5
 49
1.25
 49
-2.5
  0
LTYPE
  2
DOT
 70
    64
  3
-   -   -   -   -   -   -   -   
 72
    65
 73
     2
 40
2.5
 49
0.625
 49
-1.875
  0
LTYPE
  2
DUMMY
 70
    64
  3
ダミー
 72
    65
 73
     0
 40
0.0
  0
LTYPE
  2
RAND1
 70
    64
  3
ランダム線1
 72
    65
 73
     4
 40
10.0
 49
1.0
 49
-2.0
 49
3.0
 49
-4.0
  0
LTYPE
  2
RAND2
 70
    64
  3
ランダム線2
 72
    65
 73
     4
 40
14.0
 49
2.0
 49
-3.0
 49
4.0
 49
-5.0
  0
LTYPE
  2
RAND3
 70
    64
  3
ランダム線3
 72
    65
 73
     4
 40
18.0
 49
3.0
 49
-4.0
 49
5.0
 49
-6.0
  0
LTYPE
  2
RAND4
 70
    64
  3
ランダム線4
 72
    65
 73
     4
 40
22.0
 49
4.0
 49
-5.0
 49
6.0
 49
-7.0
  0
LTYPE
  2
RAND5
 70
    64
  3
ランダム線5
 72
    65
 73
     4
 40
26.0
 49
5.0
 49
-6.0
 49
7.0
 49
-8.0
  0
LTYPE
  2
LONG1
 70
    64
  3
----------  --  ----------  --  
 72
    65
 73
     4
 40
40.0
 49
32.5
 49
-2.5
 49
2.5
 49
-2.5
  0
LTYPE
  2
LONG2
 70
    64
  3
--------  -  -  --------  -  -  
 72
    65
 73
     6
 40
40.0
 49
30.0
 49
-2.5
 49
1.25
 49
-2.5
 49
1.25
 49
-2.5
  0
LTYPE
  2
LONG3
 70
    64
  3
+++++++++++++++..+++++++++++++++
 72
    65
 73
     2
 40
40.0
 49
37.5
 49
-2.5
  0
LTYPE
  2
LONG4
 70
    64
  3
+++++++++++++++..+++++++++++++++
 72
    65
 73
     2
 40
80.0
 49
75.0
 49
-5.0
  0
LTYPE
  2
LONG5
 70
    64
  3
----------  --  ----------  --  
 72
    65
 73
     4
 40
60.0
 49
37.5
 49
-7.5
 49
7.5
 49
-7.5
  0
LTYPE
  2
dashed
 70
   64
  3
-------   -------------   ------
 72
   65
 73
    2
 40
7.5
 49
6
 49
-1.5
  0
LTYPE
  2
dashed_spaced
 70
   64
  3
----        --------        ----
 72
   65
 73
    2
 40
12
 49
6
 49
-6
  0
LTYPE
  2
long_dashed_dotted
 70
   64
  3
------------- --- --------------
 72
   65
 73
    4
 40
15.25
 49
12
 49
-1.5
 49
0.25
 49
-1.5
  0
LTYPE
  2
long_dashed_double-dotted
 70
   64
  3
----------- --- --- ------------
 72
   65
 73
    6
 40
17
 49
12
 49
-1.5
 49
0.25
 49
-1.5
 49
0.25
 49
-1.5
  0
LTYPE
  2
long_dashed_triplicate-dotted
 70
   64
  3
--------- --- --- --- ----------
 72
   65
 73
    8
 40
18.75
 49
12
 49
-1.5
 49
0.25
 49
-1.5
 49
0.25
 49
-1.5
 49
0.25
 49
-1.5
  0
LTYPE
  2
dotted
 70
   64
  3
   -       -       -       -    
 72
   65
 73
    2
 40
1.75
 49
0.25
 49
-1.5
  0
LTYPE
  2
chain
 70
   64
  3
-------------- -- --------------
 72
   65
 73
    4
 40
18.5
 49
12
 49
-1.5
 49
3.5
 49
-1.5
  0
LTYPE
  2
chain_double_dash
 70
   64
  3
------------ -- -- -------------
 72
   65
 73
    6
 40
23.5
 49
12
 49
-1.5
 49
3.5
 49
-1.5
 49
3.5
 49
-1.5
  0
LTYPE
  2
dashed_dotted
 70
   64
  3
-----------     -     ----------
 72
   65
 73
    4
 40
9.25
 49
6
 49
-1.5
 49
0.25
 49
-1.5
  0
LTYPE
  2
double-dashed_dotted
 70
   64
  3
------   -----------   -   -----
 72
   65
 73
    6
 40
16.75
 49
6
 49
-1.5
 49
6
 49
-1.5
 49
0.25
 49
-1.5
  0
LTYPE
  2
dashed_double-dotted
 70
   64
  3
---------    -    -    ---------
 72
   65
 73
    6
 40
11
 49
6
 49
-1.5
 49
0.25
 49
-1.5
 49
0.25
 49
-1.5
  0
LTYPE
  2
double-dashed_double-dotted
 70
   64
  3
-----   ---------   -   -   ----
 72
   65
 73
    8
 40
18.5
 49
6
 49
-1.5
 49
6
 49
-1.5
 49
0.25
 49
-1.5
 49
0.25
 49
-1.5
  0
LTYPE
  2
dashed_triplicate-dotted
 70
   64
  3
-------    -    -    -    ------
 72
   65
 73
    8
 40
12.75
 49
6
 49
-1.5
 49
0.25
 49
-1.5
 49
0.25
 49
-1.5
 49
0.25
 49
-1.5
  0
LTYPE
  2
double-dashed_triplicate-dotted
 70
   64
  3
-----  ---------  -  -  -  -----
 72
   65
 73
   10
 40
20.25
 49
6
 49
-1.5
 49
6
 49
-1.5
 49
0.25
 49
-1.5
 49
0.25
 49
-1.5
 49
0.25
 49
-1.5
  0
LTYPE
  2
undefined
 70
   64
  3
--------------------------------
 72
   65
 73
    0
 40
0
  0
LTYPE
  2
DOT_17
 70
   64
  3
--             ---             -
 72
   65
 73
    2
 40
5
 49
1
 49
-4
  0
LTYPE
  2
DASHED
 70
   64
  3
---          ------          ---
 72
   65
 73
    2
 40
5
 49
2
 49
-3
  0
LTYPE
  2
DASHED2_19
 70
   64
  3
---          ------          ---
 72
   65
 73
    2
 40
10
 49
4
 49
-6
  0
LTYPE
  2
CENTER
 70
   64
  3
----------    ----    ----------
 72
   65
 73
    4
 40
9
 49
6
 49
-1
 49
1
 49
-1
  0
LTYPE
  2
CENTER2_21
 70
   64
  3
----------    ----    ----------
 72
   65
 73
    4
 40
18
 49
12
 49
-2
 49
2
 49
-2
  0
LTYPE
  2
PHANTOM
 70
   64
  3
---------   ---   ---   --------
 72
   65
 73
    6
 40
10
 49
5
 49
-1
 49
1
 49
-1
 49
1
 49
-1
  0
LTYPE
  2
PHANTOM2_23
 70
   64
  3
------    ----    ----    ------
 72
   65
 73
    6
 40
16
 49
6
 49
-2
 49
2
 49
-2
 49
2
 49
-2
  0
LTYPE
  2
HIDDEN
 70
   64
  3
--             ---             -
 72
   65
 73
    2
 40
2.5
 49
0.5
 49
-2
  0
ENDTAB
  0
TABLE
  2
STYLE
  5
3
100
AcDbSymbolTable
 70
     1
  0
STYLE
  5
10
100
AcDbSymbolTableRecord
100
AcDbTextStyleTableRecord
  2
STANDARD
 70
     0
 40
0.0
 41
1.0
 50
0.0
 71
     0
 42
0.2
  3
txt
  4
bigfont.shx
  0
STYLE
  5
26
100
AcDbSymbolTableRecord
100
AcDbTextStyleTableRecord
  2
TATEGAKI
 70
    68
 40
0.0
 41
1.0
 50
0.0
 71
     0
 42
1.0
  3
txt
  4
bigfont.shx
  0
ENDTAB
  0
TABLE
  2
LAYER
 70
    5
  0
LAYER
  2
_0-0_
 70
   64
 62
    7
  6
CONTINUOUS
  0
LAYER
  2
_1-0_
 70
   64
 62
    7
  6
CONTINUOUS
  0
LAYER
  2
_1-1_
 70
   64
 62
    7
  6
CONTINUOUS
  0
LAYER
  2
_1-2_
 70
   64
 62
    7
  6
CONTINUOUS
  0
LAYER
  2
ADD_LINE
 70
   64
 62
    7
  6
CONTINUOUS
  0
ENDTAB
  0
ENDSEC
  0
SECTION
  2
BLOCKS
  0
ENDSEC
  0
SECTION
  2
ENTITIES
  0
LINE
  8
_0-0_
  6
CONTINUOUS
 62
    5
 10
6.7567526327597136
 20
280.13513513513516
 11
406.75677325274495
 21
280.13513513513516
  0
LINE
  8
_0-0_
  6
CONTINUOUS
 62
    5
 10
406.75677325274495
 20
10.13513513513513
 11
6.7567526327597136
 21
10.13513513513513
  0
LINE
  8
_0-0_
  6
CONTINUOUS
 62
    5
 10
406.75677325274495
 20
30.135133073136615
 11
6.7567402607685949
 21
30.135133073136615
  0
LINE
  8
_0-0_
  6
CONTINUOUS
 62
    5
 10
371.75678150073907
 20
10.13513513513513
 11
371.75678150073907
 21
30.135133073136615
  0
LINE
  8
_0-0_
  6
CONTINUOUS
 62
    5
 10
137.02703939901818
 20
30.135133073136615
 11
137.02703939901818
 21
10.13513513513513
  0
LINE
  8
_0-0_
  6
CONTINUOUS
 62
    5
 10
214.86486486486487
 20
30.135133073136615
 11
214.86486486486487
 21
10.13513513513513
  0
LINE
  8
_0-0_
  6
CONTINUOUS
 62
    5
 10
137.02703939901818
 20
20.135134104135886
 11
214.86486486486487
 21
20.135134104135886
  0
LINE
  8
_0-0_
  6
CONTINUOUS
 62
    5
 10
396.48648648648651
 20
25.945945945945951
 11
383.91891891891896
 21
13.378379924877265
  0
TEXT
  8
_0-0_
 62
    7
 10
141.89189395389042
 20
14.594594594594582
 40
2.5
 41
1
 50
0
  1
縮尺
  0
TEXT
  8
_0-0_
 62
    7
 10
377.10214563318203
 20
22.865493362014362
 40
2.5
 41
1
 50
0
  1
ＮＯ
  0
TEXT
  8
_0-0_
 62
    7
 10
14.594594336844779
 20
24.324324324324323
 40
2.5
 41
1
 50
0
  1
和形
  0
TEXT
  8
_0-0_
 62
    7
 10
383.23801896378802
 20
18.523427086907475
 40
3
 41
1
 50
0
  1
Ｊ
  0
TEXT
  8
_1-0_
 62
    7
 10
169.90681828679266
 20
13.3181144095756
 40
2.5
 41
1
 50
0
  1
1/5
  0
TEXT
  8
_1-2_
 62
    7
 10
39.721903414339636
 20
15.395235628695104
 40
2.5
 41
1
 50
0
  1
袖　　2
  0
TEXT
  8
_1-2_
 62
    7
 10
25.556194717819636
 20
20.211577544341225
 40
2.5
 41
1
 50
0
  1
鉄骨
  0
TEXT
  8
_1-2_
 62
    7
 10
393.91536688572427
 20
15.567522773727262
 40
2.5
 41
1
 50
0
  1
35
  0
LINE
  8
_1-0_
  6
CONTINUOUS
 62
    3
 10
131.49452837563376
 20
171.83295977046998
 11
132.88400195565913
 21
171.83295977046998
  0
LINE
  8
_1-0_
  6
CONTINUOUS
 62
    3
 10
132.88400195565913
 20
171.83295977046998
 11
132.88400195565913
 21
168.65172494677913
  0
LINE
  8
_1-0_
  6
CONTINUOUS
 62
    3
 10
130.55559322466246
 20
174.71513882452405
 11
124.88392607411349
 21
171.49018138417355
  0
LINE
  8
_1-0_
  6
CONTINUOUS
 62
    3
 10
184.49450528125033
 20
171.83295977046998
 11
185.88397886127564
 21
171.83295977046998
  0
LINE
  8
_1-0_
  6
CONTINUOUS
 62
    3
 10
124.88392607411349
 20
171.49018138417355
 11
124.88392607411349
 21
168.69022658318113
  0
LINE
  8
_1-0_
  6
CONTINUOUS
 62
    3
 10
129.45639130057043
 20
171.05886902933824
 11
124.88392607411349
 21
168.69022658318113
  0
LINE
  8
_1-0_
  6
CONTINUOUS
 62
    3
 10
185.88397886127564
 20
171.83295977046998
 11
185.88397886127564
 21
168.65172494677913
  0
LINE
  8
_1-0_
  6
CONTINUOUS
 62
    3
 10
183.55557013027902
 20
174.71515119651519
 11
177.8839277237123
 21
171.49018138417355
  0
LINE
  8
_1-0_
  6
CONTINUOUS
 62
    3
 10
237.49450693084918
 20
171.83294739847886
 11
238.88400525485679
 21
171.83294739847886
  0
LINE
  8
_1-0_
  6
CONTINUOUS
 62
    3
 10
177.8839277237123
 20
171.49018138417355
 11
177.8839277237123
 21
168.69022658318113
  0
LINE
  8
_1-0_
  6
CONTINUOUS
 62
    3
 10
182.45639295016923
 20
171.05885665734709
 11
177.8839277237123
 21
168.69022658318113
  0
LINE
  8
_1-0_
  6
CONTINUOUS
 62
    3
 10
238.88400525485679
 20
171.83294739847886
 11
238.88400525485679
 21
168.65172494677913
  0
LINE
  8
_1-0_
  6
CONTINUOUS
 62
    3
 10
236.55554703589559
 20
174.71515119651519
 11
230.88390462932887
 21
171.49018138417355
  0
LINE
  8
_1-0_
  6
CONTINUOUS
 62
    3
 10
230.88390462932887
 20
171.49018138417355
 11
230.88390462932887
 21
168.69022658318113
  0
LINE
  8
_1-0_
  6
CONTINUOUS
 62
    3
 10
235.45636985578579
 20
171.05885665734709
 11
230.88390462932887
 21
168.69022658318113
  0
LINE
  8
_1-0_
  6
CONTINUOUS
 62
    3
 10
291.88398216047329
 20
171.83294739847886
 11
291.88398216047329
 21
168.65172494677913
  0
LINE
  8
_1-0_
  6
CONTINUOUS
 62
    3
 10
291.88398216047329
 20
171.83294739847886
 11
291.88398216047329
 21
168.65172494677913
  0
LINE
  8
_1-0_
  6
CONTINUOUS
 62
    3
 10
291.88398216047329
 20
168.65172494677913
 11
291.88398216047329
 21
155.23295201735556
  0
LINE
  8
_1-0_
  6
CONTINUOUS
 62
    3
 10
288.68399139822668
 20
155.23295201735556
 11
291.88398216047329
 21
155.23295201735556
  0
LINE
  8
_1-0_
  6
CONTINUOUS
 62
    3
 10
288.68399139822668
 20
167.02713404728587
 11
288.68399139822668
 21
155.23295201735556
  0
LINE
  8
_1-1_
  6
CONTINUOUS
 62
    7
 10
283.08398282031283
 20
163.17006683603165
 11
287.88399370766507
 21
163.17006683603165
  0
LINE
  8
_1-1_
  6
CONTINUOUS
 62
    7
 10
283.08398282031283
 20
157.24924015608022
 11
90.85694193665573
 21
157.24924015608022
  0
LINE
  8
_1-1_
  6
CONTINUOUS
 62
    7
 10
214.96001381957382
 20
162.38935707964441
 11
90.85694193665573
 21
162.38935707964441
  0
LINE
  8
_1-1_
  6
CONTINUOUS
 62
    7
 10
275.5487473895696
 20
158.78963965592186
 11
275.5487473895696
 21
159.38964410983866
  0
LINE
  8
_1-1_
  6
CONTINUOUS
 62
    7
 10
275.5487473895696
 20
159.38964410983866
 11
280.34875827692179
 21
159.38964410983866
  0
LINE
  8
_1-1_
  6
CONTINUOUS
 62
    7
 10
280.34875827692179
 20
159.38964410983866
 11
280.34875827692179
 21
158.78963965592186
  0
LINE
  8
_1-1_
  6
CONTINUOUS
 62
    7
 10
280.34875827692179
 20
158.78963965592186
 11
275.5487473895696
 21
158.78963965592186
  0
LINE
  8
_1-1_
  6
CONTINUOUS
 62
    7
 10
275.5487473895696
 20
158.78963965592186
 11
280.34875827692179
 21
159.38964410983866
  0
LINE
  8
_1-1_
  6
CONTINUOUS
 62
    7
 10
214.11183959554506
 20
158.78963965592186
 11
214.11183959554506
 21
159.38964410983866
  0
LINE
  8
_1-1_
  6
CONTINUOUS
 62
    7
 10
214.11183959554506
 20
159.38964410983866
 11
218.91185048289731
 21
159.38964410983866
  0
LINE
  8
_1-1_
  6
CONTINUOUS
 62
    7
 10
218.91185048289731
 20
159.38964410983866
 11
218.91185048289731
 21
158.78963965592186
  0
LINE
  8
_1-1_
  6
CONTINUOUS
 62
    7
 10
218.91185048289731
 20
158.78963965592186
 11
214.11183959554506
 21
158.78963965592186
  0
LINE
  8
_1-1_
  6
CONTINUOUS
 62
    7
 10
214.11183959554506
 20
158.78963965592186
 11
218.91185048289731
 21
159.38964410983866
  0
LINE
  8
_1-1_
  6
CONTINUOUS
 62
    7
 10
152.9880050371097
 20
158.78963965592186
 11
152.9880050371097
 21
159.38964410983866
  0
LINE
  8
_1-1_
  6
CONTINUOUS
 62
    7
 10
152.9880050371097
 20
159.38964410983866
 11
157.78801592446189
 21
159.38964410983866
  0
LINE
  8
_1-1_
  6
CONTINUOUS
 62
    7
 10
157.78801592446189
 20
159.38964410983866
 11
157.78801592446189
 21
158.78963965592186
  0
LINE
  8
_1-1_
  6
CONTINUOUS
 62
    7
 10
157.78801592446189
 20
158.78963965592186
 11
152.9880050371097
 21
158.78963965592186
  0
LINE
  8
_1-1_
  6
CONTINUOUS
 62
    7
 10
152.9880050371097
 20
158.78963965592186
 11
157.78801592446189
 21
159.38964410983866
  0
LINE
  8
_1-1_
  6
CONTINUOUS
 62
    7
 10
91.23804875147836
 20
158.78963965592186
 11
91.23804875147836
 21
159.38964410983866
  0
LINE
  8
_1-1_
  6
CONTINUOUS
 62
    7
 10
91.23804875147836
 20
159.38964410983866
 11
96.038059638830546
 21
159.38964410983866
  0
LINE
  8
_1-1_
  6
CONTINUOUS
 62
    7
 10
96.038059638830546
 20
159.38964410983866
 11
96.038059638830546
 21
158.78963965592186
  0
LINE
  8
_1-1_
  6
CONTINUOUS
 62
    7
 10
96.038059638830546
 20
158.78963965592186
 11
91.23804875147836
 21
158.78963965592186
  0
LINE
  8
_1-1_
  6
CONTINUOUS
 62
    7
 10
91.23804875147836
 20
158.78963965592186
 11
96.038059638830546
 21
159.38964410983866
  0
LINE
  8
_1-2_
  6
CONTINUOUS
 62
    7
 10
291.88398216047329
 20
217.36271605874069
 11
230.88397886127569
 21
217.36271605874069
  0
LINE
  8
_1-2_
  6
CONTINUOUS
 62
    7
 10
291.88398216047329
 20
187.01835405757936
 11
291.88398216047329
 21
217.36271605874069
  0
LINE
  8
_1-2_
  6
CONTINUOUS
 62
    7
 10
230.88397886127569
 20
187.01835405757936
 11
230.88397886127569
 21
217.36271605874069
  0
LINE
  8
_1-2_
  6
CONTINUOUS
 62
    7
 10
230.88397886127569
 20
217.36271605874069
 11
177.88405144362366
 21
217.36271605874069
  0
LINE
  8
_1-2_
  6
CONTINUOUS
 62
    7
 10
177.88405144362366
 20
187.01835405757936
 11
177.88405144362366
 21
217.36271605874069
  0
LINE
  8
_1-2_
  6
CONTINUOUS
 62
    7
 10
177.88405144362366
 20
217.36271605874069
 11
124.88392607411349
 21
217.36271605874069
  0
LINE
  8
_1-2_
  6
CONTINUOUS
 62
    7
 10
124.88392607411349
 20
187.01835405757936
 11
124.88392607411349
 21
217.36271605874069
  0
LINE
  8
_1-2_
  6
CONTINUOUS
 62
    7
 10
124.88392607411349
 20
217.36271605874069
 11
90.85694193665573
 21
217.36271605874069
  0
LINE
  8
_1-2_
  6
CONTINUOUS
 62
    7
 10
156.10725618523048
 20
160.5461036088885
 11
132.63329592736517
 21
96.051922156317744
  0
LINE
  8
_1-2_
  6
CONTINUOUS
 62
    7
 10
137.07315815287194
 20
169.9874174813547
 11
147.21412049583012
 21
197.84946318184035
  0
LINE
  8
_1-2_
  6
CONTINUOUS
 62
    7
 10
147.21412049583012
 20
197.84946318184035
 11
153.28937436908814
 21
197.84946318184035
  0
LINE
  8
_1-2_
  6
CONTINUOUS
 62
    7
 10
291.127212206926
 20
160.25768775162499
 11
304.11211177935002
 21
195.93336342730066
  0
LINE
  8
_1-2_
  6
CONTINUOUS
 62
    7
 10
304.11211177935002
 20
195.93336342730066
 11
308.96505004476387
 21
195.93336342730066
  0
LINE
  8
_1-2_
  6
CONTINUOUS
 62
    7
 10
283.08398282031283
 20
154.84923471240413
 11
90.85694193665573
 21
154.84923471240413
  0
LINE
  8
_1-2_
  6
CONTINUOUS
 62
    7
 10
283.08398282031283
 20
134.84923058840707
 11
90.85694193665573
 21
134.84923058840707
  0
LINE
  8
_1-2_
  6
CONTINUOUS
 62
    3
 10
282.48399073838715
 20
150.8492338876047
 11
283.08398282031283
 21
150.8492338876047
  0
LINE
  8
_1-2_
  6
CONTINUOUS
 62
    3
 10
283.08398282031283
 20
138.84923141320647
 11
282.48399073838715
 21
138.84923141320647
  0
LINE
  8
_1-2_
  6
CONTINUOUS
 62
    3
 10
281.48398743918955
 20
154.2492302584873
 11
274.68399469742434
 21
154.2492302584873
  0
LINE
  8
_1-2_
  6
CONTINUOUS
 62
    3
 10
282.48399073838715
 20
153.24923933128079
 11
282.48399073838715
 21
150.8492338876047
  0
LINE
  8
_1-2_
  6
CONTINUOUS
 62
    3
 10
283.08398282031283
 20
153.84924378519761
 11
283.08398282031283
 21
150.8492338876047
  0
LINE
  8
_1-2_
  6
CONTINUOUS
 62
    3
 10
282.08397952111522
 20
154.84923471240413
 11
274.08400261549866
 21
154.84923471240413
  0
LINE
  8
_1-2_
  6
CONTINUOUS
 62
    3
 10
273.68399139822668
 20
136.44922596953037
 11
273.68399139822668
 21
153.24923933128079
  0
LINE
  8
_1-2_
  6
CONTINUOUS
 62
    3
 10
273.083999316301
 20
135.8492338876047
 11
273.083999316301
 21
153.84924378519761
  0
LINE
  8
_1-2_
  6
CONTINUOUS
 62
    3
 10
281.48398743918955
 20
135.44922267033274
 11
274.68399469742434
 21
135.44922267033274
  0
LINE
  8
_1-2_
  6
CONTINUOUS
 62
    3
 10
282.48399073838715
 20
136.44922596953037
 11
282.48399073838715
 21
138.84923141320647
  0
LINE
  8
_1-2_
  6
CONTINUOUS
 62
    3
 10
282.08397952111522
 20
134.84923058840707
 11
274.08400261549866
 21
134.84923058840707
  0
LINE
  8
_1-2_
  6
CONTINUOUS
 62
    3
 10
283.08398282031283
 20
135.8492338876047
 11
283.08398282031283
 21
138.84923141320647
  0
LINE
  8
ADD_LINE
  6
DOT
 62
    3
 10
282.08397952111522
 20
154.84923471240413
 11
283.29611298025793
 21
154.84923471240413
  0
LINE
  8
ADD_LINE
  6
DOT
 62
    3
 10
283.08398282031283
 20
153.84924378519761
 11
283.08398282031283
 21
155.54845016320647
  0
LINE
  8
_1-2_
  6
CONTINUOUS
 62
    3
 10
197.48398249039309
 20
150.8492338876047
 11
198.08397457231877
 21
150.8492338876047
  0
LINE
  8
_1-2_
  6
CONTINUOUS
 62
    3
 10
198.08397457231877
 20
138.84923141320647
 11
197.48398249039309
 21
138.84923141320647
  0
LINE
  8
_1-2_
  6
CONTINUOUS
 62
    3
 10
196.48397919119543
 20
154.2492302584873
 11
189.68398644943022
 21
154.2492302584873
  0
LINE
  8
_1-2_
  6
CONTINUOUS
 62
    3
 10
197.48398249039309
 20
153.24923933128079
 11
197.48398249039309
 21
150.8492338876047
  0
LINE
  8
_1-2_
  6
CONTINUOUS
 62
    3
 10
198.08397457231877
 20
153.84924378519761
 11
198.08397457231877
 21
150.8492338876047
  0
LINE
  8
_1-2_
  6
CONTINUOUS
 62
    3
 10
197.08397127312111
 20
154.84923471240413
 11
189.08399436750454
 21
154.84923471240413
  0
LINE
  8
_1-2_
  6
CONTINUOUS
 62
    3
 10
188.68398315023256
 20
136.44922596953037
 11
188.68398315023256
 21
153.24923933128079
  0
LINE
  8
_1-2_
  6
CONTINUOUS
 62
    3
 10
188.08399106830689
 20
135.8492338876047
 11
188.08399106830689
 21
153.84924378519761
  0
LINE
  8
_1-2_
  6
CONTINUOUS
 62
    3
 10
196.48397919119543
 20
135.44922267033274
 11
189.68398644943022
 21
135.44922267033274
  0
LINE
  8
_1-2_
  6
CONTINUOUS
 62
    3
 10
197.48398249039309
 20
136.44922596953037
 11
197.48398249039309
 21
138.84923141320647
  0
LINE
  8
_1-2_
  6
CONTINUOUS
 62
    3
 10
197.08397127312111
 20
134.84923058840707
 11
189.08399436750454
 21
134.84923058840707
  0
LINE
  8
_1-2_
  6
CONTINUOUS
 62
    3
 10
198.08397457231877
 20
135.8492338876047
 11
198.08397457231877
 21
138.84923141320647
  0
LINE
  8
ADD_LINE
  6
DOT
 62
    3
 10
197.08397127312111
 20
154.84923471240413
 11
198.29610473226381
 21
154.84923471240413
  0
LINE
  8
ADD_LINE
  6
DOT
 62
    3
 10
198.08397457231877
 20
153.84924378519761
 11
198.08397457231877
 21
155.54845016320647
  0
LINE
  8
_1-2_
  6
CONTINUOUS
 62
    3
 10
107.48398249039305
 20
150.8492338876047
 11
108.08397457231872
 21
150.8492338876047
  0
LINE
  8
_1-2_
  6
CONTINUOUS
 62
    3
 10
108.08397457231872
 20
138.84923141320647
 11
107.48398249039305
 21
138.84923141320647
  0
LINE
  8
_1-2_
  6
CONTINUOUS
 62
    3
 10
106.48397919119542
 20
154.2492302584873
 11
99.683986449430208
 21
154.2492302584873
  0
LINE
  8
_1-2_
  6
CONTINUOUS
 62
    3
 10
107.48398249039305
 20
153.24923933128079
 11
107.48398249039305
 21
150.8492338876047
  0
LINE
  8
_1-2_
  6
CONTINUOUS
 62
    3
 10
108.08397457231872
 20
153.84924378519761
 11
108.08397457231872
 21
150.8492338876047
  0
LINE
  8
_1-2_
  6
CONTINUOUS
 62
    3
 10
107.08397127312109
 20
154.84923471240413
 11
99.08399436750453
 21
154.84923471240413
  0
LINE
  8
_1-2_
  6
CONTINUOUS
 62
    3
 10
98.683983150232578
 20
136.44922596953037
 11
98.683983150232578
 21
153.24923933128079
  0
LINE
  8
_1-2_
  6
CONTINUOUS
 62
    3
 10
98.083991068306901
 20
135.8492338876047
 11
98.083991068306901
 21
153.84924378519761
  0
LINE
  8
_1-2_
  6
CONTINUOUS
 62
    3
 10
106.48397919119542
 20
135.44922267033274
 11
99.683986449430208
 21
135.44922267033274
  0
LINE
  8
_1-2_
  6
CONTINUOUS
 62
    3
 10
107.48398249039305
 20
136.44922596953037
 11
107.48398249039305
 21
138.84923141320647
  0
LINE
  8
_1-2_
  6
CONTINUOUS
 62
    3
 10
107.08397127312109
 20
134.84923058840707
 11
99.08399436750453
 21
134.84923058840707
  0
LINE
  8
_1-2_
  6
CONTINUOUS
 62
    3
 10
108.08397457231872
 20
135.8492338876047
 11
108.08397457231872
 21
138.84923141320647
  0
LINE
  8
ADD_LINE
  6
DOT
 62
    3
 10
107.08397127312109
 20
154.84923471240413
 11
108.29610473226383
 21
154.84923471240413
  0
LINE
  8
_1-2_
  6
CONTINUOUS
 62
    7
 10
128.84416331941543
 20
111.65208126012371
 11
138.31128516538251
 21
111.65208126012371
  0
LINE
  8
_1-2_
  6
CONTINUOUS
 62
    7
 10
128.84416331941543
 20
103.88677009629873
 11
135.48494090730605
 21
103.88677009629873
  0
LINE
  8
_1-2_
  6
CONTINUOUS
 62
    7
 10
283.08398282031283
 20
130.84922976360767
 11
90.85694193665573
 21
130.84922976360767
  0
LINE
  8
_1-2_
  6
CONTINUOUS
 62
    7
 10
283.08398282031283
 20
129.64923322776517
 11
90.85694193665573
 21
129.64923322776517
  0
LINE
  8
_1-2_
  6
CONTINUOUS
 62
    7
 10
283.08398282031283
 20
130.84922976360767
 11
285.53291948891507
 21
130.84922976360767
  0
LINE
  8
_1-2_
  6
CONTINUOUS
 62
    7
 10
283.08398282031283
 20
129.64923322776517
 11
285.53291948891507
 21
129.64923322776517
  0
LINE
  8
_1-2_
  6
CONTINUOUS
 62
    7
 10
285.53291948891507
 20
130.84922976360767
 11
285.53291948891507
 21
129.64923322776517
  0
LINE
  8
_1-2_
  6
CONTINUOUS
 62
    7
 10
283.08398282031283
 20
126.64923570216339
 11
287.88399370766507
 21
126.64923570216339
  0
LINE
  8
_1-2_
  6
CONTINUOUS
 62
    7
 10
287.88399370766507
 20
163.17006683603165
 11
287.88399370766507
 21
126.64923570216339
  0
LINE
  8
_1-2_
  6
CONTINUOUS
 62
    7
 10
283.08398282031283
 20
163.17006683603165
 11
283.08398282031283
 21
130.84922976360767
  0
LINE
  8
_1-2_
  6
CONTINUOUS
 62
    7
 10
283.08398282031283
 20
129.64923322776517
 11
283.08398282031283
 21
126.64923570216339
  0
LINE
  8
_1-2_
  6
CONTINUOUS
 62
    7
 10
283.08398282031283
 20
126.83893544218662
 11
283.2736949323272
 21
126.64923570216339
  0
LINE
  8
_1-2_
  6
CONTINUOUS
 62
    7
 10
283.08398282031283
 20
129.10167364425587
 11
285.53643313439647
 21
126.64923570216339
  0
LINE
  8
_1-2_
  6
CONTINUOUS
 62
    7
 10
283.08398282031283
 20
131.36441184632514
 11
283.59917727502147
 21
130.84922976360767
  0
LINE
  8
_1-2_
  6
CONTINUOUS
 62
    7
 10
284.79916143887283
 20
129.64923322776517
 11
287.79917133646569
 21
126.64923570216339
  0
LINE
  8
_1-2_
  6
CONTINUOUS
 62
    7
 10
283.08398282031283
 20
133.62715004839438
 11
287.88399370766507
 21
128.8271391610422
  0
LINE
  8
_1-2_
  6
CONTINUOUS
 62
    7
 10
283.08398282031283
 20
135.88987587847251
 11
287.88399370766507
 21
131.08986499112032
  0
LINE
  8
_1-2_
  6
CONTINUOUS
 62
    7
 10
283.08398282031283
 20
140.41536465460217
 11
287.88399370766507
 21
135.61534139525884
  0
LINE
  8
_1-2_
  6
CONTINUOUS
 62
    7
 10
283.08398282031283
 20
142.6780904846803
 11
287.88399370766507
 21
137.87807959732808
  0
LINE
  8
_1-2_
  6
CONTINUOUS
 62
    7
 10
283.08398282031283
 20
144.94081631475842
 11
287.88399370766507
 21
140.14081779939735
  0
LINE
  8
_1-2_
  6
CONTINUOUS
 62
    7
 10
283.08398282031283
 20
147.20355451682767
 11
287.88399370766507
 21
142.4035560014666
  0
LINE
  8
_1-2_
  6
CONTINUOUS
 62
    7
 10
283.08398282031283
 20
149.46629271889694
 11
287.88399370766507
 21
144.66629420353587
  0
LINE
  8
_1-2_
  6
CONTINUOUS
 62
    7
 10
283.08398282031283
 20
151.72903092096618
 11
287.88399370766507
 21
146.92902003361399
  0
LINE
  8
_1-2_
  6
CONTINUOUS
 62
    7
 10
283.08398282031283
 20
153.99176912303545
 11
287.88399370766507
 21
149.19177060767439
  0
LINE
  8
_1-2_
  6
CONTINUOUS
 62
    7
 10
283.08398282031283
 20
156.2545073251047
 11
287.88399370766507
 21
151.45449643775251
  0
LINE
  8
_1-2_
  6
CONTINUOUS
 62
    7
 10
283.08398282031283
 20
158.51724552717397
 11
287.88399370766507
 21
153.71723463982175
  0
LINE
  8
_1-2_
  6
CONTINUOUS
 62
    7
 10
283.08398282031283
 20
160.77998372924321
 11
287.88399370766507
 21
155.97996046989988
  0
LINE
  8
_1-2_
  6
CONTINUOUS
 62
    7
 10
283.08398282031283
 20
163.04270955932134
 11
287.88399370766507
 21
158.242686299978
  0
LINE
  8
_1-2_
  6
CONTINUOUS
 62
    7
 10
285.21936374567179
 20
163.17006683603165
 11
287.88399370766507
 21
160.50543687403839
  0
LINE
  8
_1-2_
  6
CONTINUOUS
 62
    7
 10
287.48210194774106
 20
163.17006683603165
 11
287.88399370766507
 21
162.76817507610767
  0
LINE
  8
_1-2_
  6
CONTINUOUS
 62
    7
 10
284.76281252892772
 20
127.87299883296998
 11
273.54037732516929
 21
97.039596766352588
  0
LINE
  8
_1-2_
  6
CONTINUOUS
 62
    7
 10
273.54037732516929
 20
97.039596766352588
 11
265.9920770717909
 21
97.039596766352588
  0
LINE
  8
_1-0_
  6
CONTINUOUS
 62
    3
 10
238.88400525485679
 20
171.83294739847886
 11
238.88400525485679
 21
168.65172494677913
  0
ARC
  8
_1-0_
  6
CONTINUOUS
 62
    3
 10
130.45463777702736
 20
171.80356391954095
 40
1.0402513194728542
 50
309.08184814453125
 51
1.6144714355468908
  0
ARC
  8
_1-0_
  6
CONTINUOUS
 62
    3
 10
132.39545676984829
 20
172.26672177954939
 40
3.0627306731971538
 50
42.6905517578125
 51
126.92076110839842
  0
ARC
  8
_1-0_
  6
CONTINUOUS
 62
    3
 10
183.45463942662616
 20
171.80356391954095
 40
1.0402513194728542
 50
309.08184814453125
 51
1.6144714355468908
  0
ARC
  8
_1-0_
  6
CONTINUOUS
 62
    3
 10
162.01667588935845
 20
211.65505878598941
 40
46.274049088761615
 50
233.73812866210935
 51
298.51937866210932
  0
ARC
  8
_1-0_
  6
CONTINUOUS
 62
    3
 10
132.20873867968783
 20
167.3402938868129
 40
4.6263270764737516
 50
47.123046875000007
 51
126.50717163085939
  0
ARC
  8
_1-0_
  6
CONTINUOUS
 62
    3
 10
162.32357550137277
 20
211.09443437984498
 40
48.543530025997683
 50
236.25315856933597
 51
299.03501892089844
  0
ARC
  8
_1-0_
  6
CONTINUOUS
 62
    3
 10
185.3954584194471
 20
172.26672177954939
 40
3.0627306731971538
 50
42.6905517578125
 51
126.92076110839842
  0
ARC
  8
_1-0_
  6
CONTINUOUS
 62
    3
 10
236.45464107622502
 20
171.8035515475498
 40
1.0402513194728542
 50
309.08184814453125
 51
1.6144714355468908
  0
ARC
  8
_1-0_
  6
CONTINUOUS
 62
    3
 10
215.01665279497502
 20
211.65505878598941
 40
46.274049088761615
 50
233.73812866210935
 51
298.51937866210932
  0
ARC
  8
_1-0_
  6
CONTINUOUS
 62
    3
 10
185.20874032928663
 20
167.34028151482175
 40
4.6263270764737516
 50
47.123046875000007
 51
126.50717163085939
  0
ARC
  8
_1-0_
  6
CONTINUOUS
 62
    3
 10
215.32357715097163
 20
211.09443437984498
 40
48.543530025997683
 50
236.25315856933597
 51
299.03501892089844
  0
ARC
  8
_1-0_
  6
CONTINUOUS
 62
    3
 10
238.39543532506372
 20
172.26672177954939
 40
3.0627306731971538
 50
42.6905517578125
 51
126.92076110839842
  0
ARC
  8
_1-0_
  6
CONTINUOUS
 62
    3
 10
238.20871723490319
 20
167.34028151482175
 40
4.6263270764737516
 50
47.123046875000007
 51
126.50717163085939
  0
ARC
  8
_1-0_
  6
CONTINUOUS
 62
    3
 10
268.17625313017351
 20
212.09061473378293
 40
46.719762441274284
 50
233.89616394042969
 51
300.49382019042969
  0
ARC
  8
_1-0_
  6
CONTINUOUS
 62
    3
 10
268.32355405658819
 20
211.09443437984498
 40
48.543530025997683
 50
236.25315856933597
 51
294.79837036132812
  0
ARC
  8
_1-0_
  6
CONTINUOUS
 62
    3
 10
109.01664949577734
 20
211.65505878598941
 40
46.274049088761615
 50
246.89369201660159
 51
298.51937866210937
  0
ARC
  8
_1-0_
  6
CONTINUOUS
 62
    3
 10
109.32357385177396
 20
211.09443437984498
 40
48.543530025997683
 50
247.64067077636722
 51
299.03501892089844
  0
ARC
  8
_1-2_
  6
CONTINUOUS
 62
    3
 10
274.08400261549866
 20
153.84924378519761
 40
0.9999999162313101
 50
90
 51
180
  0
ARC
  8
_1-2_
  6
CONTINUOUS
 62
    3
 10
274.68399469742434
 20
153.24923933128079
 40
0.9999999162313101
 50
90
 51
180
  0
ARC
  8
_1-2_
  6
CONTINUOUS
 62
    3
 10
281.48398743918955
 20
153.24923933128079
 40
0.9999999162313101
 50
0
 51
90
  0
ARC
  8
_1-2_
  6
CONTINUOUS
 62
    3
 10
282.08397952111522
 20
153.84924378519761
 40
0.9999999162313101
 50
0
 51
90
  0
ARC
  8
_1-2_
  6
CONTINUOUS
 62
    3
 10
274.68399469742434
 20
136.44922596953037
 40
0.9999999162313101
 50
180
 51
270
  0
ARC
  8
_1-2_
  6
CONTINUOUS
 62
    3
 10
274.08400261549866
 20
135.8492338876047
 40
0.9999999162313101
 50
180
 51
270
  0
ARC
  8
_1-2_
  6
CONTINUOUS
 62
    3
 10
281.48398743918955
 20
136.44922596953037
 40
0.9999999162313101
 50
270
 51
0
  0
ARC
  8
_1-2_
  6
CONTINUOUS
 62
    3
 10
282.08397952111522
 20
135.8492338876047
 40
0.9999999162313101
 50
270
 51
0
  0
ARC
  8
_1-2_
  6
CONTINUOUS
 62
    3
 10
189.08399436750454
 20
153.84924378519761
 40
0.9999999162313101
 50
90
 51
180
  0
ARC
  8
_1-2_
  6
CONTINUOUS
 62
    3
 10
189.68398644943022
 20
153.24923933128079
 40
0.9999999162313101
 50
90
 51
180
  0
ARC
  8
_1-2_
  6
CONTINUOUS
 62
    3
 10
196.48397919119543
 20
153.24923933128079
 40
0.9999999162313101
 50
0
 51
90
  0
ARC
  8
_1-2_
  6
CONTINUOUS
 62
    3
 10
197.08397127312111
 20
153.84924378519761
 40
0.9999999162313101
 50
0
 51
90
  0
ARC
  8
_1-2_
  6
CONTINUOUS
 62
    3
 10
189.68398644943022
 20
136.44922596953037
 40
0.9999999162313101
 50
180
 51
270
  0
ARC
  8
_1-2_
  6
CONTINUOUS
 62
    3
 10
189.08399436750454
 20
135.8492338876047
 40
0.9999999162313101
 50
180
 51
270
  0
ARC
  8
_1-2_
  6
CONTINUOUS
 62
    3
 10
196.48397919119543
 20
136.44922596953037
 40
0.9999999162313101
 50
270
 51
0
  0
ARC
  8
_1-2_
  6
CONTINUOUS
 62
    3
 10
197.08397127312111
 20
135.8492338876047
 40
0.9999999162313101
 50
270
 51
0
  0
ARC
  8
_1-2_
  6
CONTINUOUS
 62
    3
 10
99.08399436750453
 20
153.84924378519761
 40
0.9999999162313101
 50
90
 51
180
  0
ARC
  8
_1-2_
  6
CONTINUOUS
 62
    3
 10
99.683986449430208
 20
153.24923933128079
 40
0.9999999162313101
 50
90
 51
180
  0
ARC
  8
_1-2_
  6
CONTINUOUS
 62
    3
 10
106.48397919119542
 20
153.24923933128079
 40
0.9999999162313101
 50
0
 51
90
  0
ARC
  8
_1-2_
  6
CONTINUOUS
 62
    3
 10
107.08397127312109
 20
153.84924378519761
 40
0.9999999162313101
 50
0
 51
90
  0
ARC
  8
_1-2_
  6
CONTINUOUS
 62
    3
 10
99.683986449430208
 20
136.44922596953037
 40
0.9999999162313101
 50
180
 51
270
  0
ARC
  8
_1-2_
  6
CONTINUOUS
 62
    3
 10
99.08399436750453
 20
135.8492338876047
 40
0.9999999162313101
 50
180
 51
270
  0
ARC
  8
_1-2_
  6
CONTINUOUS
 62
    3
 10
106.48397919119542
 20
136.44922596953037
 40
0.9999999162313101
 50
270
 51
0
  0
ARC
  8
_1-2_
  6
CONTINUOUS
 62
    3
 10
107.08397127312109
 20
135.8492338876047
 40
0.9999999162313101
 50
270
 51
0
  0
TEXT
  8
_1-2_
 62
    7
 10
259.50898051087449
 20
217.86271770833952
 40
2.5
 41
1
 50
0
  1
305
  0
TEXT
  8
_1-2_
 62
    7
 10
202.50901515244965
 20
217.86271770833952
 40
2.5
 41
1
 50
0
  1
265
  0
TEXT
  8
_1-2_
 62
    7
 10
149.50898875886855
 20
217.86271770833952
 40
2.5
 41
1
 50
0
  1
265
  0
TEXT
  8
_1-2_
 62
    7
 10
310.71031734575627
 20
194.78994400690368
 40
2.5
 41
1
 50
0
  1
右袖瓦
  0
TEXT
  8
_1-2_
 62
    7
 10
255.93050579592517
 20
96.238071134886155
 40
2.5
 41
1
 50
0
  1
破風板
  0
TEXT
  8
_1-2_
 62
    7
 10
154.51968434520197
 20
197.13001952553756
 40
2.5
 41
1
 50
0
  1
桟瓦
  0
POINT
  8
_1-2_
 62
    7
 10
291.88398216047329
 20
217.36271605874069
  0
POINT
  8
_1-2_
 62
    7
 10
230.88397886127569
 20
217.36271605874069
  0
POINT
  8
_1-2_
 62
    7
 10
177.88405144362366
 20
217.36271605874069
  0
POINT
  8
_1-2_
 62
    7
 10
124.88392607411349
 20
217.36271605874069
  0
TEXT
  8
_1-2_
 62
    7
 10
75.508176548041376
 20
110.33336309738087
 40
2.5
 41
1
 50
0
  1
瓦桟
  0
TEXT
  8
_1-2_
 62
    7
 10
75.508176548041376
 20
102.33336144778207
 40
2.5
 41
1
 50
0
  1
流桟
  0
TEXT
  8
_1-2_
 62
    7
 10
75.508172424044346
 20
86.333358148584438
 40
2.5
 41
1
 50
0
  1
野地板　ｔ＝12
  0
TEXT
  8
_1-2_
 62
    7
 10
75.110707774947002
 20
79.621602447570922
 40
2.5
 41
1
 50
0
  1
垂木　Ｃ-100ｘ50ｘ20ｘ2.3
  0
TEXT
  8
_1-2_
 62
    7
 10
75.10983554957221
 20
94.333359798183238
 40
2.5
 41
1
 50
0
  1
下葺き材　　アスファルトルーフィング940
  0
LINE
  8
_1-2_
  6
CONTINUOUS
 62
    7
 10
128.84416331941543
 20
95.363860055520661
 11
132.38286208287616
 21
95.363860055520661
  0
LINE
  8
_1-2_
  6
CONTINUOUS
 62
    7
 10
129.4875934622047
 20
87.409152265455219
 11
122.71335920597583
 21
87.409152265455219
  0
LINE
  8
_1-2_
  6
CONTINUOUS
 62
    7
 10
128.84416331941543
 20
87.409152265455219
 11
129.4875934622047
 21
87.409152265455219
  0
LINE
  8
_1-2_
  6
CONTINUOUS
 62
    7
 10
132.63329592736517
 20
96.051922156317744
 11
129.4875934622047
 21
87.409152265455219
  0
LINE
  8
_1-2_
  6
CONTINUOUS
 62
    7
 10
129.4875934622047
 20
87.409152265455219
 11
126.92125896975328
 21
80.358193683582329
  0
LINE
  8
_1-2_
  6
CONTINUOUS
 62
    7
 10
126.92125896975328
 20
80.358193683582329
 11
122.47522312067177
 21
80.358193683582329
  0
TEXT
  8
_1-2_
 62
    7
 10
83.116206712605347
 20
110.33336309738087
 40
2.5
 41
1
 50
0
  1
１５×２１以上　（防腐処理）
  0
TEXT
  8
_1-2_
 62
    7
 10
83.339231480532987
 20
107.10650994875429
 40
2.5
 41
1
 50
0
  1
※　地域により瓦桟木の大きさは、異なります
  0
LINE
  8
_1-2_
  6
CONTINUOUS
 62
    7
 10
283.08398282031283
 20
138.15261880851565
 11
287.88399370766507
 21
133.35260173516542
  0
LINE
  8
_1-1_
  6
DASHED1
 62
    3
 10
287.99347240075645
 20
163.29691662407021
 11
282.90914424696524
 21
163.29691662407021
  0
LINE
  8
_1-1_
  6
DASHED1
 62
    3
 10
90.85694193665573
 20
157.9536023551934
 11
282.89212732254202
 21
157.9536023551934
  0
LINE
  8
_1-1_
  6
DASHED1
 62
    3
 10
282.90914424696524
 20
163.29691662407021
 11
282.89212732254202
 21
157.9536023551934
  0
LINE
  8
_1-1_
  6
CONTINUOUS
 62
    7
 10
214.96001381957382
 20
162.38935707964441
 11
282.60100314673548
 21
162.38935707964441
  0
LINE
  8
_1-1_
  6
CONTINUOUS
 62
    7
 10
282.60100314673548
 20
162.38935707964441
 11
282.60100314673548
 21
159.38935955404264
  0
LINE
  8
_1-1_
  6
CONTINUOUS
 62
    7
 10
282.60100314673548
 20
159.38935955404264
 11
90.85694193665573
 21
159.38935955404264
  0
LINE
  8
_1-1_
  6
CONTINUOUS
 62
    7
 10
280.34875827692179
 20
158.78935510012582
 11
90.85694193665573
 21
158.78935510012582
  0
ENDSEC
  0
EOF
