  0
SECTION
  2
HEADER
  9
$ACADVER
  1
AC1009
  9
$INSBASE
 10
0
 20
0
 30
0
  9
$EXTMIN
 10
0
 20
0
  9
$EXTMAX
 10
420
 20
297
  9
$LIMMIN
 10
0
 20
0
  9
$LIMMAX
 10
420
 20
297
  9
$LTSCALE
 40
1
  0
ENDSEC
  0
SECTION
  2
TABLES
  0
TABLE
  2
LTYPE
 70
     9
  0
LTYPE
  2
CONTINUOUS
 70
    64
  3
実線
 72
    65
 73
     0
 40
0.0
  0
LTYPE
  2
DASHED1
 70
    64
  3
--  --  --  --  --  --  --  --  
 72
    65
 73
     2
 40
2.5
 49
1.25
 49
-1.25
  0
LTYPE
  2
DASHED2
 70
    64
  3
----    ----    ----    ----    
 72
    65
 73
     2
 40
5.0
 49
2.5
 49
-2.5
  0
LTYPE
  2
DASHED3
 70
    64
  3
------  ------  ------  ------  
 72
    65
 73
     2
 40
5.0
 49
3.75
 49
-1.25
  0
LTYPE
  2
CENTER1
 70
    64
  3
----- - ----- - ----- - ----- - 
 72
    65
 73
     4
 40
10.0
 49
6.25
 49
-1.25
 49
1.25
 49
-1.25
  0
LTYPE
  2
CENTER2
 70
    64
  3
----------  --  ----------  --  
 72
    65
 73
     4
 40
20.0
 49
12.5
 49
-2.5
 49
2.5
 49
-2.5
  0
LTYPE
  2
PHANTOM1
 70
    64
  3
--- - - --- - - --- - - --- - - 
 72
    65
 73
     6
 40
10.0
 49
3.25
 49
-1.25
 49
1.25
 49
-1.25
 49
1.25
 49
-1.25
  0
LTYPE
  2
PHANTOM2
 70
    64
  3
--------  -  -  --------  -  -  
 72
    65
 73
     6
 40
20.0
 49
10.0
 49
-2.5
 49
1.25
 49
-2.5
 49
1.25
 49
-2.5
  0
LTYPE
  2
DOT
 70
    64
  3
-   -   -   -   -   -   -   -   
 72
    65
 73
     2
 40
2.5
 49
0.625
 49
-1.875
  0
LTYPE
  2
DUMMY
 70
    64
  3
ダミー
 72
    65
 73
     0
 40
0.0
  0
LTYPE
  2
RAND1
 70
    64
  3
ランダム線1
 72
    65
 73
     4
 40
10.0
 49
1.0
 49
-2.0
 49
3.0
 49
-4.0
  0
LTYPE
  2
RAND2
 70
    64
  3
ランダム線2
 72
    65
 73
     4
 40
14.0
 49
2.0
 49
-3.0
 49
4.0
 49
-5.0
  0
LTYPE
  2
RAND3
 70
    64
  3
ランダム線3
 72
    65
 73
     4
 40
18.0
 49
3.0
 49
-4.0
 49
5.0
 49
-6.0
  0
LTYPE
  2
RAND4
 70
    64
  3
ランダム線4
 72
    65
 73
     4
 40
22.0
 49
4.0
 49
-5.0
 49
6.0
 49
-7.0
  0
LTYPE
  2
RAND5
 70
    64
  3
ランダム線5
 72
    65
 73
     4
 40
26.0
 49
5.0
 49
-6.0
 49
7.0
 49
-8.0
  0
LTYPE
  2
LONG1
 70
    64
  3
----------  --  ----------  --  
 72
    65
 73
     4
 40
40.0
 49
32.5
 49
-2.5
 49
2.5
 49
-2.5
  0
LTYPE
  2
LONG2
 70
    64
  3
--------  -  -  --------  -  -  
 72
    65
 73
     6
 40
40.0
 49
30.0
 49
-2.5
 49
1.25
 49
-2.5
 49
1.25
 49
-2.5
  0
LTYPE
  2
LONG3
 70
    64
  3
+++++++++++++++..+++++++++++++++
 72
    65
 73
     2
 40
40.0
 49
37.5
 49
-2.5
  0
LTYPE
  2
LONG4
 70
    64
  3
+++++++++++++++..+++++++++++++++
 72
    65
 73
     2
 40
80.0
 49
75.0
 49
-5.0
  0
LTYPE
  2
LONG5
 70
    64
  3
----------  --  ----------  --  
 72
    65
 73
     4
 40
60.0
 49
37.5
 49
-7.5
 49
7.5
 49
-7.5
  0
LTYPE
  2
dashed
 70
   64
  3
-------   -------------   ------
 72
   65
 73
    2
 40
7.5
 49
6
 49
-1.5
  0
LTYPE
  2
dashed_spaced
 70
   64
  3
----        --------        ----
 72
   65
 73
    2
 40
12
 49
6
 49
-6
  0
LTYPE
  2
long_dashed_dotted
 70
   64
  3
------------- --- --------------
 72
   65
 73
    4
 40
15.25
 49
12
 49
-1.5
 49
0.25
 49
-1.5
  0
LTYPE
  2
long_dashed_double-dotted
 70
   64
  3
----------- --- --- ------------
 72
   65
 73
    6
 40
17
 49
12
 49
-1.5
 49
0.25
 49
-1.5
 49
0.25
 49
-1.5
  0
LTYPE
  2
long_dashed_triplicate-dotted
 70
   64
  3
--------- --- --- --- ----------
 72
   65
 73
    8
 40
18.75
 49
12
 49
-1.5
 49
0.25
 49
-1.5
 49
0.25
 49
-1.5
 49
0.25
 49
-1.5
  0
LTYPE
  2
dotted
 70
   64
  3
   -       -       -       -    
 72
   65
 73
    2
 40
1.75
 49
0.25
 49
-1.5
  0
LTYPE
  2
chain
 70
   64
  3
-------------- -- --------------
 72
   65
 73
    4
 40
18.5
 49
12
 49
-1.5
 49
3.5
 49
-1.5
  0
LTYPE
  2
chain_double_dash
 70
   64
  3
------------ -- -- -------------
 72
   65
 73
    6
 40
23.5
 49
12
 49
-1.5
 49
3.5
 49
-1.5
 49
3.5
 49
-1.5
  0
LTYPE
  2
dashed_dotted
 70
   64
  3
-----------     -     ----------
 72
   65
 73
    4
 40
9.25
 49
6
 49
-1.5
 49
0.25
 49
-1.5
  0
LTYPE
  2
double-dashed_dotted
 70
   64
  3
------   -----------   -   -----
 72
   65
 73
    6
 40
16.75
 49
6
 49
-1.5
 49
6
 49
-1.5
 49
0.25
 49
-1.5
  0
LTYPE
  2
dashed_double-dotted
 70
   64
  3
---------    -    -    ---------
 72
   65
 73
    6
 40
11
 49
6
 49
-1.5
 49
0.25
 49
-1.5
 49
0.25
 49
-1.5
  0
LTYPE
  2
double-dashed_double-dotted
 70
   64
  3
-----   ---------   -   -   ----
 72
   65
 73
    8
 40
18.5
 49
6
 49
-1.5
 49
6
 49
-1.5
 49
0.25
 49
-1.5
 49
0.25
 49
-1.5
  0
LTYPE
  2
dashed_triplicate-dotted
 70
   64
  3
-------    -    -    -    ------
 72
   65
 73
    8
 40
12.75
 49
6
 49
-1.5
 49
0.25
 49
-1.5
 49
0.25
 49
-1.5
 49
0.25
 49
-1.5
  0
LTYPE
  2
double-dashed_triplicate-dotted
 70
   64
  3
-----  ---------  -  -  -  -----
 72
   65
 73
   10
 40
20.25
 49
6
 49
-1.5
 49
6
 49
-1.5
 49
0.25
 49
-1.5
 49
0.25
 49
-1.5
 49
0.25
 49
-1.5
  0
LTYPE
  2
undefined
 70
   64
  3
--------------------------------
 72
   65
 73
    0
 40
0
  0
ENDTAB
  0
TABLE
  2
STYLE
  5
3
100
AcDbSymbolTable
 70
     1
  0
STYLE
  5
10
100
AcDbSymbolTableRecord
100
AcDbTextStyleTableRecord
  2
STANDARD
 70
     0
 40
0.0
 41
1.0
 50
0.0
 71
     0
 42
0.2
  3
txt
  4
bigfont.shx
  0
STYLE
  5
26
100
AcDbSymbolTableRecord
100
AcDbTextStyleTableRecord
  2
TATEGAKI
 70
    68
 40
0.0
 41
1.0
 50
0.0
 71
     0
 42
1.0
  3
txt
  4
bigfont.shx
  0
ENDTAB
  0
TABLE
  2
LAYER
 70
   11
  0
LAYER
  2
_0-0_
 70
   64
 62
    7
  6
CONTINUOUS
  0
LAYER
  2
_1-0_
 70
   64
 62
    7
  6
CONTINUOUS
  0
LAYER
  2
_1-1_
 70
   64
 62
    7
  6
CONTINUOUS
  0
LAYER
  2
_1-2_
 70
   64
 62
    7
  6
CONTINUOUS
  0
LAYER
  2
_1-3_
 70
   64
 62
    7
  6
CONTINUOUS
  0
LAYER
  2
_1-4_
 70
   64
 62
    7
  6
CONTINUOUS
  0
LAYER
  2
_1-5_
 70
   64
 62
    7
  6
CONTINUOUS
  0
LAYER
  2
_1-6_
 70
   64
 62
    7
  6
CONTINUOUS
  0
LAYER
  2
_1-b_
 70
   64
 62
    7
  6
CONTINUOUS
  0
LAYER
  2
_1-c_
 70
   64
 62
    7
  6
CONTINUOUS
  0
LAYER
  2
ADD_LINE
 70
   64
 62
    7
  6
CONTINUOUS
  0
ENDTAB
  0
ENDSEC
  0
SECTION
  2
BLOCKS
  0
ENDSEC
  0
SECTION
  2
ENTITIES
  0
LINE
  8
_0-0_
  6
CONTINUOUS
 62
    5
 10
6.7567526327597136
 20
280.13513513513516
 11
406.75677325274495
 21
280.13513513513516
  0
LINE
  8
_0-0_
  6
CONTINUOUS
 62
    5
 10
406.75677325274495
 20
10.13513513513513
 11
6.7567526327597136
 21
10.13513513513513
  0
LINE
  8
_0-0_
  6
CONTINUOUS
 62
    5
 10
406.75677325274495
 20
30.135133073136615
 11
6.7567402607685949
 21
30.135133073136615
  0
LINE
  8
_0-0_
  6
CONTINUOUS
 62
    5
 10
371.75678150073907
 20
10.13513513513513
 11
371.75678150073907
 21
30.135133073136615
  0
LINE
  8
_0-0_
  6
CONTINUOUS
 62
    5
 10
137.02703939901818
 20
30.135133073136615
 11
137.02703939901818
 21
10.13513513513513
  0
LINE
  8
_0-0_
  6
CONTINUOUS
 62
    5
 10
214.86486486486487
 20
30.135133073136615
 11
214.86486486486487
 21
10.13513513513513
  0
LINE
  8
_0-0_
  6
CONTINUOUS
 62
    5
 10
137.02703939901818
 20
20.135134104135886
 11
214.86486486486487
 21
20.135134104135886
  0
LINE
  8
_0-0_
  6
CONTINUOUS
 62
    5
 10
396.48648648648651
 20
25.945945945945951
 11
383.91891891891896
 21
13.378379924877265
  0
LINE
  8
_1-0_
  6
CONTINUOUS
 62
    7
 10
103.98500184755068
 20
74.006628088048984
 11
235.13513513513516
 21
133.02419301625847
  0
LINE
  8
_1-2_
  6
CONTINUOUS
 62
    7
 10
226.19592615076016
 20
147.20485790355787
 11
226.44212877428211
 21
146.65771896774706
  0
LINE
  8
_1-2_
  6
CONTINUOUS
 62
    3
 10
207.60255555848818
 20
160.91940802496833
 11
209.46780642947635
 21
155.8517785974451
  0
LINE
  8
_1-2_
  6
CONTINUOUS
 62
    3
 10
226.84075432854732
 20
168.00044291728253
 11
225.59727024387669
 21
171.37886253563136
  0
LINE
  8
_1-2_
  6
CONTINUOUS
 62
    3
 10
207.84987166121201
 20
168.30356907200169
 11
209.71512253220018
 21
163.23593964447846
  0
LINE
  8
_1-2_
  6
CONTINUOUS
 62
    3
 10
227.08807043127112
 20
175.38460396431589
 11
225.84458634660052
 21
178.76302358266472
  0
LINE
  8
_1-3_
  6
CONTINUOUS
 62
    7
 10
213.92694421716641
 20
173.37418014938768
 11
212.58530075485643
 21
176.05745470201649
  0
LINE
  8
_1-3_
  6
CONTINUOUS
 62
    7
 10
212.58530075485643
 20
176.05745470201649
 11
228.68499755859375
 21
184.10730310388516
  0
LINE
  8
_1-3_
  6
CONTINUOUS
 62
    7
 10
228.68499755859375
 20
184.10730310388516
 11
230.02664102090372
 21
181.42402855125636
  0
LINE
  8
_1-3_
  6
CONTINUOUS
 62
    7
 10
230.02664102090372
 20
181.42402855125636
 11
213.92694421716641
 21
173.37418014938768
  0
LINE
  8
_1-3_
  6
CONTINUOUS
 62
    7
 10
212.58530075485643
 20
176.05745470201649
 11
230.02664102090372
 21
181.42402855125636
  0
LINE
  8
_1-3_
  6
CONTINUOUS
 62
    3
 10
211.50861585462417
 20
176.35244008657097
 11
212.11145349451016
 21
172.2831561114337
  0
LINE
  8
_1-3_
  6
CONTINUOUS
 62
    3
 10
212.11145349451016
 20
172.2831561114337
 11
212.71431587837839
 21
173.48886850717906
  0
LINE
  8
_1-3_
  6
CONTINUOUS
 62
    3
 10
211.50861585462417
 20
176.35244008657097
 11
233.45261857316302
 21
187.32444144584039
  0
LINE
  8
_1-3_
  6
CONTINUOUS
 62
    3
 10
233.45261857316302
 20
187.32444144584039
 11
234.25630311708193
 21
187.72628371779984
  0
LINE
  8
_1-3_
  6
CONTINUOUS
 62
    3
 10
234.25630311708193
 20
187.72628371779984
 11
234.25630311708193
 21
217.32444144584039
  0
LINE
  8
_1-3_
  6
CONTINUOUS
 62
    7
 10
229.65629783836573
 20
186.85289537584461
 11
227.25630476668076
 21
186.85289537584461
  0
LINE
  8
_1-3_
  6
CONTINUOUS
 62
    7
 10
229.65629783836573
 20
191.21058283625425
 11
229.65629783836573
 21
199.21058448585305
  0
LINE
  8
_1-3_
  6
CONTINUOUS
 62
    7
 10
229.65629783836573
 20
199.21058448585305
 11
233.65631103515625
 21
199.21058448585305
  0
LINE
  8
_1-3_
  6
CONTINUOUS
 62
    7
 10
233.65631103515625
 20
199.21058448585305
 11
233.65631103515625
 21
191.21058283625425
  0
LINE
  8
_1-3_
  6
CONTINUOUS
 62
    7
 10
233.65631103515625
 20
191.21058283625425
 11
229.65629783836573
 21
191.21058283625425
  0
LINE
  8
_1-3_
  6
CONTINUOUS
 62
    7
 10
233.65631103515625
 20
199.21058448585305
 11
229.65629783836573
 21
191.21058283625425
  0
LINE
  8
_1-2_
  6
CONTINUOUS
 62
    7
 10
223.13514503272805
 20
127.62419004698059
 11
235.13513513513516
 21
127.62419004698059
  0
LINE
  8
_1-2_
  6
CONTINUOUS
 62
    7
 10
223.13514503272805
 20
106.62419499577703
 11
235.13513513513516
 21
106.62419499577703
  0
LINE
  8
_1-2_
  6
CONTINUOUS
 62
    7
 10
223.13514503272805
 20
127.62419004698059
 11
223.13514503272805
 21
106.62419499577703
  0
LINE
  8
_1-2_
  6
CONTINUOUS
 62
    7
 10
235.13513513513516
 20
127.62419004698059
 11
223.13514503272805
 21
106.62419499577703
  0
LINE
  8
_1-0_
  6
CONTINUOUS
 62
    7
 10
235.13513513513516
 20
233.22472649651607
 11
235.13513513513516
 21
66.486486486486484
  0
LINE
  8
_1-3_
  6
CONTINUOUS
 62
    7
 10
229.65629783836573
 20
186.85289537584461
 11
229.65629783836573
 21
233.22472649651607
  0
LINE
  8
_1-3_
  6
CONTINUOUS
 62
    7
 10
227.25630476668076
 20
186.85289537584461
 11
227.25630476668076
 21
233.22472649651607
  0
LINE
  8
_1-2_
  6
CONTINUOUS
 62
    7
 10
86.033601503114454
 20
152.73297284100508
 11
121.06129414326436
 21
152.73297284100508
  0
LINE
  8
_1-2_
  6
CONTINUOUS
 62
    7
 10
111.81362667599241
 20
165.14556884765625
 11
116.54347600163641
 21
165.14556884765625
  0
LINE
  8
_1-2_
  6
CONTINUOUS
 62
    7
 10
81.641445675411745
 20
159.41668123812289
 11
118.62862664300043
 21
159.41668123812289
  0
LINE
  8
_1-2_
  6
CONTINUOUS
 62
    7
 10
65.791502256651199
 20
172.59313634923987
 11
113.83278511665964
 21
172.59313634923987
  0
LINE
  8
_1-2_
  6
CONTINUOUS
 62
    7
 10
98.63717156487543
 20
179.08588306323904
 11
111.46962346257391
 21
179.08588306323904
  0
LINE
  8
_1-2_
  6
CONTINUOUS
 62
    7
 10
142.10163425754857
 20
94.925128833667657
 11
111.46962346257391
 21
179.08588306323904
  0
LINE
  8
_1-2_
  6
CONTINUOUS
 62
    7
 10
64.531464447846304
 20
184.38980514938768
 11
109.53915982633025
 21
184.38980514938768
  0
LINE
  8
_1-2_
  6
CONTINUOUS
 62
    7
 10
111.46962346257391
 20
179.08588306323904
 11
109.53915982633025
 21
184.38980514938768
  0
LINE
  8
_1-2_
  6
CONTINUOUS
 62
    7
 10
225.30680063608531
 20
181.33439347550677
 11
206.22943775073904
 21
233.74902673669766
  0
LINE
  8
_1-2_
  6
CONTINUOUS
 62
    7
 10
211.91124993401607
 20
173.63456107474664
 11
196.60123258023648
 21
215.69848962732266
  0
LINE
  8
_1-2_
  6
CONTINUOUS
 62
    7
 10
209.60085482210727
 20
166.71161548511404
 11
198.75240016627959
 21
196.51751131624789
  0
LINE
  8
_1-2_
  6
CONTINUOUS
 62
    7
 10
198.75240016627959
 20
196.51751131624789
 11
210.68402264569258
 21
158.58785680822425
  0
LINE
  8
_1-2_
  6
CONTINUOUS
 62
    7
 10
205.8097674395587
 20
150.46409813133448
 11
195.50780837600297
 21
178.76850437473607
  0
LINE
  8
_1-2_
  6
CONTINUOUS
 62
    7
 10
205.8097674395587
 20
150.46409813133448
 11
218.53699555268159
 21
155.87993724926099
  0
LINE
  8
_1-2_
  6
CONTINUOUS
 62
    7
 10
206.22943775073904
 20
233.74902673669766
 11
199.85761487806167
 21
233.74902673669766
  0
LINE
  8
_1-2_
  6
CONTINUOUS
 62
    7
 10
196.60123258023648
 20
215.69848962732266
 11
192.55669258736276
 21
215.69848962732266
  0
LINE
  8
_1-2_
  6
CONTINUOUS
 62
    7
 10
198.75240016627959
 20
196.51751131624789
 11
195.47706397804055
 21
196.51751131624789
  0
LINE
  8
_1-2_
  6
CONTINUOUS
 62
    7
 10
195.50780837600297
 20
178.76850437473607
 11
191.09651307801943
 21
178.76850437473607
  0
LINE
  8
_1-2_
  6
CONTINUOUS
 62
    7
 10
258.30742913323479
 20
187.72628371779984
 11
258.30742913323479
 21
217.32444144584039
  0
LINE
  8
_1-2_
  6
CONTINUOUS
 62
    7
 10
241.38368348817568
 20
187.72628371779984
 11
258.30742913323479
 21
187.72628371779984
  0
LINE
  8
_1-2_
  6
CONTINUOUS
 62
    7
 10
241.38368348817568
 20
217.32444144584039
 11
258.30742913323479
 21
217.32444144584039
  0
LINE
  8
_1-3_
  6
DASHED1
 62
    3
 10
234.52294426995357
 20
150.07477631440034
 11
234.52294426995357
 21
227.32444969383448
  0
LINE
  8
_1-2_
  6
CONTINUOUS
 62
    7
 10
258.30742913323479
 20
217.32444144584039
 11
241.38368348817568
 21
217.32444144584039
  0
LINE
  8
_1-2_
  6
CONTINUOUS
 62
    7
 10
258.30742913323479
 20
227.32444969383448
 11
241.38368348817568
 21
227.32444969383448
  0
LINE
  8
_1-2_
  6
CONTINUOUS
 62
    7
 10
258.30742913323479
 20
217.32444144584039
 11
258.30742913323479
 21
227.32444969383448
  0
LINE
  8
_1-2_
  6
CONTINUOUS
 62
    7
 10
277.06354089685391
 20
227.32444969383448
 11
241.38368348817568
 21
227.32444969383448
  0
LINE
  8
_1-2_
  6
CONTINUOUS
 62
    7
 10
277.06354089685391
 20
150.07477631440034
 11
241.38368348817568
 21
150.07477631440034
  0
LINE
  8
_1-2_
  6
CONTINUOUS
 62
    7
 10
277.06354089685391
 20
227.32444969383448
 11
277.06354089685391
 21
150.07477631440034
  0
ARC
  8
_1-2_
  6
CONTINUOUS
 62
    3
 10
241.21423669763516
 20
128.94966331688133
 40
41.612016832506335
 50
110.20719909667969
 51
139.72184753417969
  0
ARC
  8
_1-2_
  6
CONTINUOUS
 62
    3
 10
246.38028531461151
 20
114.91420848949537
 40
60.168024011560391
 50
110.20719909667969
 51
130.12748718261719
  0
ARC
  8
_1-2_
  6
CONTINUOUS
 62
    3
 10
241.46155280035896
 20
136.33382436391472
 40
41.612016832506335
 50
110.20721435546875
 51
139.72186279296875
  0
ARC
  8
_1-2_
  6
CONTINUOUS
 62
    3
 10
246.62760141733531
 20
122.29836953652872
 40
60.168024011560391
 50
110.20721435546875
 51
130.12750244140625
  0
ARC
  8
_1-6_
  6
CONTINUOUS
 62
    6
 10
176.2808557458826
 20
153.29798930400128
 40
39.200978665738496
 50
354.36187744140631
 51
11.376220703125046
  0
ARC
  8
_1-6_
  6
CONTINUOUS
 62
    6
 10
176.2808557458826
 20
153.29798930400128
 40
39.200978665738496
 50
17.914840698242188
 51
20.109725952148437
  0
CIRCLE
  8
_1-2_
  6
CONTINUOUS
 62
    7
 10
223.2985542915963
 20
162.41573849239865
 40
0.2036608554221488
  0
CIRCLE
  8
_1-2_
  6
CONTINUOUS
 62
    7
 10
221.76284377639359
 20
162.19634597365922
 40
0.2036608554221488
  0
CIRCLE
  8
_1-2_
  6
CONTINUOUS
 62
    7
 10
220.95839216902451
 20
160.58747987489443
 40
0.2036608554221488
  0
CIRCLE
  8
_1-2_
  6
CONTINUOUS
 62
    7
 10
220.44648866395693
 20
159.49052965318836
 40
0.2036608554221488
  0
CIRCLE
  8
_1-2_
  6
CONTINUOUS
 62
    7
 10
220.6658935546875
 20
158.39357943148227
 40
0.2036608554221488
  0
CIRCLE
  8
_1-2_
  6
CONTINUOUS
 62
    7
 10
221.61658209723396
 20
157.36976004935602
 40
0.2036608554221488
  0
CIRCLE
  8
_1-2_
  6
CONTINUOUS
 62
    7
 10
221.76284377639359
 20
156.1996789880701
 40
0.2036608554221488
  0
CIRCLE
  8
_1-2_
  6
CONTINUOUS
 62
    7
 10
221.03153538059544
 20
154.66394372888513
 40
0.2036608554221488
  0
CIRCLE
  8
_1-2_
  6
CONTINUOUS
 62
    7
 10
218.98389661634292
 20
153.56699350717906
 40
0.2036608554221488
  0
CIRCLE
  8
_1-2_
  6
CONTINUOUS
 62
    7
 10
217.37501814558701
 20
152.90882832295188
 40
0.2036608554221488
  0
CIRCLE
  8
_1-2_
  6
CONTINUOUS
 62
    7
 10
219.20327676309122
 20
152.10440145956505
 40
0.2036608554221488
  0
CIRCLE
  8
_1-2_
  6
CONTINUOUS
 62
    7
 10
217.1556379988387
 20
154.59081288930534
 40
0.2036608554221488
  0
CIRCLE
  8
_1-2_
  6
CONTINUOUS
 62
    7
 10
217.59442303631758
 20
151.15370054502745
 40
0.2036608554221488
  0
CIRCLE
  8
_1-2_
  6
CONTINUOUS
 62
    7
 10
216.86311464051943
 20
150.6417970399599
 40
0.2036608554221488
  0
CIRCLE
  8
_1-2_
  6
CONTINUOUS
 62
    7
 10
216.13183098870357
 20
151.73874726166596
 40
0.2036608554221488
  0
CIRCLE
  8
_1-2_
  6
CONTINUOUS
 62
    7
 10
216.71685296135982
 20
152.6163049646326
 40
0.2036608554221488
  0
CIRCLE
  8
_1-2_
  6
CONTINUOUS
 62
    7
 10
216.57059128220018
 20
153.1282208416913
 40
0.2036608554221488
  0
CIRCLE
  8
_1-2_
  6
CONTINUOUS
 62
    7
 10
216.49747281461151
 20
154.29830190297722
 40
0.2036608554221488
  0
CIRCLE
  8
_1-2_
  6
CONTINUOUS
 62
    7
 10
216.49747281461151
 20
155.4683829642631
 40
0.2036608554221488
  0
CIRCLE
  8
_1-2_
  6
CONTINUOUS
 62
    7
 10
216.35121113545188
 20
156.85785654428844
 40
0.2036608554221488
  0
CIRCLE
  8
_1-2_
  6
CONTINUOUS
 62
    7
 10
216.49747281461151
 20
158.10105607316302
 40
0.2036608554221488
  0
CIRCLE
  8
_1-2_
  6
CONTINUOUS
 62
    7
 10
216.57059128220018
 20
160.07557636982688
 40
0.2036608554221488
  0
CIRCLE
  8
_1-2_
  6
CONTINUOUS
 62
    7
 10
216.78999617293076
 20
161.02626491237331
 40
0.2036608554221488
  0
CIRCLE
  8
_1-2_
  6
CONTINUOUS
 62
    7
 10
219.56891858899917
 20
162.41573849239865
 40
0.2036608554221488
  0
CIRCLE
  8
_1-2_
  6
CONTINUOUS
 62
    7
 10
218.83763493718328
 20
158.32044859190245
 40
0.2036608554221488
  0
CIRCLE
  8
_1-2_
  6
CONTINUOUS
 62
    7
 10
218.61823004645271
 20
156.63846402554898
 40
0.2036608554221488
  0
CIRCLE
  8
_1-2_
  6
CONTINUOUS
 62
    7
 10
220.37337019636826
 20
155.76089395059122
 40
0.2036608554221488
  0
CIRCLE
  8
_1-2_
  6
CONTINUOUS
 62
    7
 10
222.34786574904984
 20
153.05509000211148
 40
0.2036608554221488
  0
CIRCLE
  8
_1-2_
  6
CONTINUOUS
 62
    7
 10
223.2985542915963
 20
154.15204022381758
 40
0.2036608554221488
  0
CIRCLE
  8
_1-2_
  6
CONTINUOUS
 62
    7
 10
222.93291246568836
 20
156.05341730891047
 40
0.2036608554221488
  0
CIRCLE
  8
_1-2_
  6
CONTINUOUS
 62
    7
 10
223.51795918232688
 20
157.22349837019638
 40
0.2036608554221488
  0
CIRCLE
  8
_1-2_
  6
CONTINUOUS
 62
    7
 10
226.00438298405828
 20
159.49052965318836
 40
0.2036608554221488
  0
CIRCLE
  8
_1-2_
  6
CONTINUOUS
 62
    7
 10
225.05369444151182
 20
162.6351310111381
 40
0.2036608554221488
  0
CIRCLE
  8
_1-2_
  6
CONTINUOUS
 62
    7
 10
226.44316802153716
 20
164.4633772566512
 40
0.2036608554221488
  0
CIRCLE
  8
_1-2_
  6
CONTINUOUS
 62
    7
 10
225.63871641416807
 20
165.92598167625636
 40
0.2036608554221488
  0
CIRCLE
  8
_1-2_
  6
CONTINUOUS
 62
    7
 10
223.66422086148651
 20
165.26780412003802
 40
0.2036608554221488
  0
CIRCLE
  8
_1-2_
  6
CONTINUOUS
 62
    7
 10
222.85979399809966
 20
163.3664270349451
 40
0.2036608554221488
  0
CIRCLE
  8
_1-2_
  6
CONTINUOUS
 62
    7
 10
221.47032041807432
 20
163.73208123284419
 40
0.2036608554221488
  0
CIRCLE
  8
_1-2_
  6
CONTINUOUS
 62
    7
 10
219.86144194731841
 20
163.87833054001268
 40
0.2036608554221488
  0
CIRCLE
  8
_1-2_
  6
CONTINUOUS
 62
    7
 10
217.37501814558701
 20
162.41573849239865
 40
0.2036608554221488
  0
CIRCLE
  8
_1-2_
  6
CONTINUOUS
 62
    7
 10
218.17946975295609
 20
161.3919191102724
 40
0.2036608554221488
  0
CIRCLE
  8
_1-2_
  6
CONTINUOUS
 62
    7
 10
219.78832347972974
 20
160.8800032332137
 40
0.2036608554221488
  0
CIRCLE
  8
_1-2_
  6
CONTINUOUS
 62
    7
 10
223.51795918232688
 20
161.31878827069258
 40
0.2036608554221488
  0
CIRCLE
  8
_1-2_
  6
CONTINUOUS
 62
    7
 10
218.47196836729307
 20
159.27113713444891
 40
0.2036608554221488
  0
CIRCLE
  8
_1-2_
  6
CONTINUOUS
 62
    7
 10
224.90743276235222
 20
159.63679133234797
 40
0.2036608554221488
  0
CIRCLE
  8
_1-2_
  6
CONTINUOUS
 62
    7
 10
226.22376313080659
 20
156.63846402554898
 40
0.2036608554221488
  0
CIRCLE
  8
_1-2_
  6
CONTINUOUS
 62
    7
 10
226.6625481682855
 20
155.76089395059122
 40
0.2036608554221488
  0
CIRCLE
  8
_1-2_
  6
CONTINUOUS
 62
    7
 10
228.78333014410896
 20
157.15036753061656
 40
0.2036608554221488
  0
CIRCLE
  8
_1-2_
  6
CONTINUOUS
 62
    7
 10
229.73401868665542
 20
159.34426797402872
 40
0.2036608554221488
  0
CIRCLE
  8
_1-2_
  6
CONTINUOUS
 62
    7
 10
229.36835211676521
 20
161.31878827069258
 40
0.2036608554221488
  0
CIRCLE
  8
_1-2_
  6
CONTINUOUS
 62
    7
 10
231.78165745090794
 20
165.7065891575169
 40
0.2036608554221488
  0
CIRCLE
  8
_1-2_
  6
CONTINUOUS
 62
    7
 10
230.97723058752112
 20
166.14536182300466
 40
0.2036608554221488
  0
CIRCLE
  8
_1-2_
  6
CONTINUOUS
 62
    7
 10
230.02651730099242
 20
165.63345831793708
 40
0.2036608554221488
  0
CIRCLE
  8
_1-2_
  6
CONTINUOUS
 62
    7
 10
229.1489719700169
 20
166.9498010583826
 40
0.2036608554221488
  0
CIRCLE
  8
_1-2_
  6
CONTINUOUS
 62
    7
 10
229.07582875844597
 20
171.19134026604732
 40
0.2036608554221488
  0
CIRCLE
  8
_1-2_
  6
CONTINUOUS
 62
    7
 10
225.71185962573904
 20
172.94646804397172
 40
0.2036608554221488
  0
CIRCLE
  8
_1-2_
  6
CONTINUOUS
 62
    7
 10
226.29690634237755
 20
173.38524070945948
 40
0.2036608554221488
  0
CIRCLE
  8
_1-2_
  6
CONTINUOUS
 62
    7
 10
225.71185962573904
 20
173.38524070945948
 40
0.2036608554221488
  0
CIRCLE
  8
_1-2_
  6
CONTINUOUS
 62
    7
 10
224.3223860457137
 20
173.53150238861909
 40
0.2036608554221488
  0
CIRCLE
  8
_1-2_
  6
CONTINUOUS
 62
    7
 10
223.079174144848
 20
172.58081384607266
 40
0.2036608554221488
  0
CIRCLE
  8
_1-2_
  6
CONTINUOUS
 62
    7
 10
222.93291246568836
 20
171.33760194520693
 40
0.2036608554221488
  0
CIRCLE
  8
_1-2_
  6
CONTINUOUS
 62
    7
 10
222.27474728146117
 20
171.84951782226562
 40
0.2036608554221488
  0
CIRCLE
  8
_1-2_
  6
CONTINUOUS
 62
    7
 10
221.03153538059544
 20
171.6301253035262
 40
0.2036608554221488
  0
CIRCLE
  8
_1-2_
  6
CONTINUOUS
 62
    7
 10
220.30022698479732
 20
171.19134026604732
 40
0.2036608554221488
  0
CIRCLE
  8
_1-2_
  6
CONTINUOUS
 62
    7
 10
218.91075340477198
 20
170.38691340266047
 40
0.2036608554221488
  0
CIRCLE
  8
_1-2_
  6
CONTINUOUS
 62
    7
 10
217.44816135715794
 20
169.80186668602198
 40
0.2036608554221488
  0
CIRCLE
  8
_1-2_
  6
CONTINUOUS
 62
    7
 10
217.37501814558701
 20
168.70491646431589
 40
0.2036608554221488
  0
CIRCLE
  8
_1-2_
  6
CONTINUOUS
 62
    7
 10
214.59609572951859
 20
167.38857372387037
 40
0.2036608554221488
  0
CIRCLE
  8
_1-2_
  6
CONTINUOUS
 62
    7
 10
214.88861908783784
 20
166.43788518132391
 40
0.2036608554221488
  0
CIRCLE
  8
_1-2_
  6
CONTINUOUS
 62
    7
 10
216.0586877771326
 20
167.46170456345018
 40
0.2036608554221488
  0
CIRCLE
  8
_1-2_
  6
CONTINUOUS
 62
    7
 10
219.05701508393159
 20
169.07057066221495
 40
0.2036608554221488
  0
CIRCLE
  8
_1-2_
  6
CONTINUOUS
 62
    7
 10
216.13183098870357
 20
168.85117814347552
 40
0.2036608554221488
  0
CIRCLE
  8
_1-2_
  6
CONTINUOUS
 62
    7
 10
220.44648866395693
 20
170.02125920476141
 40
0.2036608554221488
  0
CIRCLE
  8
_1-2_
  6
CONTINUOUS
 62
    7
 10
227.75949838999156
 20
171.70325614310602
 40
0.2036608554221488
  0
CIRCLE
  8
_1-2_
  6
CONTINUOUS
 62
    7
 10
224.3223860457137
 20
171.84951782226562
 40
0.2036608554221488
  0
CIRCLE
  8
_1-2_
  6
CONTINUOUS
 62
    7
 10
226.73566663587417
 20
173.970287426098
 40
0.2036608554221488
  0
CIRCLE
  8
_1-2_
  6
CONTINUOUS
 62
    7
 10
229.58775700749578
 20
169.07057066221495
 40
0.2036608554221488
  0
CIRCLE
  8
_1-2_
  6
CONTINUOUS
 62
    7
 10
227.39385656408362
 20
167.60796624260982
 40
0.2036608554221488
  0
CIRCLE
  8
_1-2_
  6
CONTINUOUS
 62
    7
 10
228.63706846494935
 20
164.31711557749156
 40
0.2036608554221488
  0
CIRCLE
  8
_1-2_
  6
CONTINUOUS
 62
    7
 10
227.46697503167232
 20
162.05008429449958
 40
0.2036608554221488
  0
CIRCLE
  8
_1-2_
  6
CONTINUOUS
 62
    7
 10
227.9057600691512
 20
159.56366049276818
 40
0.2036608554221488
  0
CIRCLE
  8
_1-2_
  6
CONTINUOUS
 62
    7
 10
224.76117108319258
 20
158.32044859190245
 40
0.2036608554221488
  0
CIRCLE
  8
_1-2_
  6
CONTINUOUS
 62
    7
 10
225.05369444151182
 20
157.22349837019638
 40
0.2036608554221488
  0
CIRCLE
  8
_1-2_
  6
CONTINUOUS
 62
    7
 10
226.15064466321792
 20
154.9564670872044
 40
0.2036608554221488
  0
CIRCLE
  8
_1-2_
  6
CONTINUOUS
 62
    7
 10
232.43982263513516
 20
160.07557636982688
 40
0.2036608554221488
  0
CIRCLE
  8
_1-2_
  6
CONTINUOUS
 62
    7
 10
231.78165745090794
 20
155.76089395059122
 40
0.2036608554221488
  0
CIRCLE
  8
_1-2_
  6
CONTINUOUS
 62
    7
 10
232.29356095597552
 20
154.9564670872044
 40
0.2036608554221488
  0
CIRCLE
  8
_1-2_
  6
CONTINUOUS
 62
    7
 10
232.8054644610431
 20
152.10440145956505
 40
0.2036608554221488
  0
CIRCLE
  8
_1-2_
  6
CONTINUOUS
 62
    7
 10
232.36670416754646
 20
150.56866620038008
 40
0.2036608554221488
  0
CIRCLE
  8
_1-2_
  6
CONTINUOUS
 62
    7
 10
231.19661073426943
 20
156.05341730891047
 40
0.2036608554221488
  0
CIRCLE
  8
_1-2_
  6
CONTINUOUS
 62
    7
 10
232.95172614020271
 20
157.66228340767526
 40
0.2036608554221488
  0
CIRCLE
  8
_1-2_
  6
CONTINUOUS
 62
    7
 10
230.3921838708826
 20
159.92931469066724
 40
0.2036608554221488
  0
CIRCLE
  8
_1-2_
  6
CONTINUOUS
 62
    7
 10
232.7323459934544
 20
161.90382261533995
 40
0.2036608554221488
  0
CIRCLE
  8
_1-2_
  6
CONTINUOUS
 62
    7
 10
233.90241468274917
 20
163.9514613795925
 40
0.2036608554221488
  0
CIRCLE
  8
_1-2_
  6
CONTINUOUS
 62
    7
 10
233.31739271009292
 20
166.87667021880279
 40
0.2036608554221488
  0
CIRCLE
  8
_1-2_
  6
CONTINUOUS
 62
    7
 10
233.17113103093328
 20
169.2899631809544
 40
0.2036608554221488
  0
CIRCLE
  8
_1-2_
  6
CONTINUOUS
 62
    7
 10
231.15147771062078
 20
175.68846006651182
 40
0.2036608554221488
  0
CIRCLE
  8
_1-2_
  6
CONTINUOUS
 62
    7
 10
231.15147771062078
 20
178.0285355851457
 40
0.2036608554221488
  0
CIRCLE
  8
_1-2_
  6
CONTINUOUS
 62
    7
 10
231.15147771062078
 20
181.6286612845756
 40
0.2036608554221488
  0
CIRCLE
  8
_1-2_
  6
CONTINUOUS
 62
    7
 10
232.23152779244089
 20
178.38856052707982
 40
0.2036608554221488
  0
CIRCLE
  8
_1-2_
  6
CONTINUOUS
 62
    7
 10
226.83132687130492
 20
178.38856052707982
 40
0.2036608554221488
  0
CIRCLE
  8
_1-2_
  6
CONTINUOUS
 62
    7
 10
228.63140209301099
 20
177.30851044525971
 40
0.2036608554221488
  0
CIRCLE
  8
_1-2_
  6
CONTINUOUS
 62
    7
 10
229.35142723289698
 20
175.50845996753591
 40
0.2036608554221488
  0
CIRCLE
  8
_1-2_
  6
CONTINUOUS
 62
    7
 10
231.87150285050677
 20
175.32844749656886
 40
0.2036608554221488
  0
CIRCLE
  8
_1-2_
  6
CONTINUOUS
 62
    7
 10
230.79147751266893
 20
171.72832179713893
 40
0.2036608554221488
  0
CIRCLE
  8
_1-2_
  6
CONTINUOUS
 62
    7
 10
223.95122631176099
 20
163.80804525839318
 40
0.2036608554221488
  0
CIRCLE
  8
_1-2_
  6
CONTINUOUS
 62
    7
 10
227.37133954022383
 20
159.48789441907729
 40
0.2036608554221488
  0
CIRCLE
  8
_1-2_
  6
CONTINUOUS
 62
    7
 10
226.47132667335305
 20
160.92794469884925
 40
0.2036608554221488
  0
CIRCLE
  8
_1-2_
  6
CONTINUOUS
 62
    7
 10
228.09138942409209
 20
157.32781899941935
 40
0.2036608554221488
  0
CIRCLE
  8
_1-2_
  6
CONTINUOUS
 62
    7
 10
226.11130173141893
 20
158.04784413930534
 40
0.2036608554221488
  0
CIRCLE
  8
_1-2_
  6
CONTINUOUS
 62
    7
 10
230.07145237278294
 20
158.2278566102724
 40
0.2036608554221488
  0
CIRCLE
  8
_1-2_
  6
CONTINUOUS
 62
    7
 10
232.05151532147383
 20
174.24840978673987
 40
0.2036608554221488
  0
CIRCLE
  8
_1-2_
  6
CONTINUOUS
 62
    7
 10
232.59152799039276
 20
170.28827151736698
 40
0.2036608554221488
  0
CIRCLE
  8
_1-2_
  6
CONTINUOUS
 62
    7
 10
231.15147771062078
 20
168.30820856867609
 40
0.2036608554221488
  0
CIRCLE
  8
_1-2_
  6
CONTINUOUS
 62
    7
 10
229.89143990181589
 20
173.16837207691091
 40
0.2036608554221488
  0
CIRCLE
  8
_1-2_
  6
CONTINUOUS
 62
    7
 10
229.89143990181589
 20
178.20854805611276
 40
0.2036608554221488
  0
CIRCLE
  8
_1-2_
  6
CONTINUOUS
 62
    7
 10
232.77154046135982
 20
180.3686234757707
 40
0.2036608554221488
  0
CIRCLE
  8
_1-2_
  6
CONTINUOUS
 62
    7
 10
233.13154065931167
 20
178.20854805611276
 40
0.2036608554221488
  0
CIRCLE
  8
_1-2_
  6
CONTINUOUS
 62
    7
 10
228.63140209301099
 20
178.74856072503169
 40
0.2036608554221488
  0
CIRCLE
  8
_1-2_
  6
CONTINUOUS
 62
    7
 10
228.81138981999578
 20
179.64859833588471
 40
0.2036608554221488
  0
CIRCLE
  8
_1-2_
  6
CONTINUOUS
 62
    7
 10
232.05151532147383
 20
157.8678440403294
 40
0.2036608554221488
  0
CIRCLE
  8
_1-2_
  6
CONTINUOUS
 62
    7
 10
230.61146504170188
 20
163.08802011850719
 40
0.2036608554221488
  0
TEXT
  8
_0-0_
 62
    7
 10
141.89189395389042
 20
14.594594594594582
 40
2.5
 41
1
 50
0
  1
縮尺
  0
TEXT
  8
_0-0_
 62
    7
 10
377.10214563318203
 20
22.865493362014362
 40
2.5
 41
1
 50
0
  1
ＮＯ
  0
TEXT
  8
_0-0_
 62
    7
 10
14.594594336844779
 20
24.324324324324323
 40
2.5
 41
1
 50
0
  1
和形
  0
TEXT
  8
_0-0_
 62
    7
 10
25.556194717819636
 20
20.211577544341225
 40
2.5
 41
1
 50
0
  1
木造
  0
TEXT
  8
_0-0_
 62
    7
 10
383.23801896378802
 20
18.523427086907475
 40
3
 41
1
 50
0
  1
Ｊ
  0
TEXT
  8
_1-0_
 62
    7
 10
169.90681828679266
 20
13.3181144095756
 40
2.5
 41
1
 50
0
  1
1/5
  0
TEXT
  8
_1-2_
 62
    7
 10
257.80742748363599
 20
200.6503625818201
 40
2.5
 41
1
 50
90
  1
150
  0
TEXT
  8
_1-6_
 62
    7
 10
177.55662041741448
 20
231.8918918918919
 40
2.5
 41
1
 50
0
  1
雨押え板　15ｘ90
  0
TEXT
  8
_1-6_
 62
    7
 10
179.92330396497573
 20
214.05405405405406
 40
2.5
 41
1
 50
0
  1
水切鉄板
  0
TEXT
  8
_1-6_
 62
    7
 10
186.1358642578125
 20
194.59459459459461
 40
2.5
 41
1
 50
0
  1
のし瓦
  0
TEXT
  8
_1-6_
 62
    7
 10
175.17164281896643
 20
177.56756756756758
 40
2.5
 41
1
 50
0
  1
面戸漆喰
  0
TEXT
  8
_1-6_
 62
    7
 10
39.721904445338907
 20
15.395235628695104
 40
2.5
 41
1
 50
0
  1
壁際　　5
  0
TEXT
  8
_1-6_
 62
    7
 10
179.93739978687182
 20
174.54249201594175
 40
2.5
 41
1
 50
0
  1
及び葺き土
  0
TEXT
  8
_1-2_
 62
    7
 10
257.80742748363599
 20
221.07444556983745
 40
2.5
 41
1
 50
90
  1
50
  0
TEXT
  8
_1-2_
 62
    7
 10
276.56353924725511
 20
183.69960681812185
 40
2.5
 41
1
 50
90
  1
300 以上
  0
TEXT
  8
_1-2_
 62
    7
 10
280.25113574878594
 20
224.30447140255492
 40
3
 41
1
 50
0
  1
下葺き材立上げ長さは、300ｍｍ以上かつ
  0
TEXT
  8
_1-2_
 62
    7
 10
280.63775882205448
 20
218.65739977037586
 40
3
 41
1
 50
0
  1
雨押え板上端より50mm以上とする
  0
POINT
  8
_1-2_
 62
    7
 10
258.30742913323479
 20
187.72628371779984
  0
POINT
  8
_1-2_
 62
    7
 10
258.30742913323479
 20
217.32444144584039
  0
POINT
  8
_1-2_
 62
    7
 10
258.30742913323479
 20
217.32444144584039
  0
POINT
  8
_1-2_
 62
    7
 10
258.30742913323479
 20
227.32444969383448
  0
POINT
  8
_1-2_
 62
    7
 10
277.06354089685391
 20
227.32444969383448
  0
POINT
  8
_1-2_
 62
    7
 10
277.06354089685391
 20
150.07477631440034
  0
TEXT
  8
_1-6_
 62
    7
 10
394.56276970940667
 20
15.639418524664791
 40
2.5
 41
1
 50
0
  1
11
  0
LINE
  8
_1-1_
  6
CONTINUOUS
 62
    7
 10
101.44937424789838
 20
94.358671334000491
 11
102.6804739694461
 21
91.622902422999658
  0
LINE
  8
_1-1_
  6
CONTINUOUS
 62
    7
 10
141.16356475676662
 20
108.94028770989789
 11
139.93245266322776
 21
111.67605662089872
  0
LINE
  8
_1-1_
  6
CONTINUOUS
 62
    7
 10
139.93245266322776
 20
111.67605662089872
 11
144.30968786962558
 21
113.64581370097684
  0
LINE
  8
_1-1_
  6
CONTINUOUS
 62
    7
 10
144.30968786962558
 20
113.64581370097684
 11
145.54077521918214
 21
110.91004478997601
  0
LINE
  8
_1-1_
  6
CONTINUOUS
 62
    7
 10
145.54077521918214
 20
110.91004478997601
 11
141.16356475676662
 21
108.94028770989789
  0
LINE
  8
_1-1_
  6
CONTINUOUS
 62
    7
 10
184.02387837849383
 20
128.22743007687424
 11
182.79276628495498
 21
130.96319898787507
  0
LINE
  8
_1-1_
  6
CONTINUOUS
 62
    7
 10
182.79276628495498
 20
130.96319898787507
 11
187.17000149135279
 21
132.9329560679532
  0
LINE
  8
_1-1_
  6
CONTINUOUS
 62
    7
 10
187.17000149135279
 20
132.9329560679532
 11
188.40108884090938
 21
130.19718715695237
  0
LINE
  8
_1-1_
  6
CONTINUOUS
 62
    7
 10
188.40108884090938
 20
130.19718715695237
 11
184.02387837849383
 21
128.22743007687424
  0
LINE
  8
_1-1_
  6
CONTINUOUS
 62
    7
 10
226.88419200022102
 20
147.51459718783286
 11
225.65307990668217
 21
150.25034135485143
  0
LINE
  8
_1-1_
  6
CONTINUOUS
 62
    7
 10
225.65307990668217
 20
150.25034135485143
 11
230.03031511307998
 21
152.2201108069207
  0
LINE
  8
_1-1_
  6
CONTINUOUS
 62
    7
 10
230.03031511307998
 20
152.2201108069207
 11
231.26140246263657
 21
149.48434189591984
  0
LINE
  8
_1-1_
  6
CONTINUOUS
 62
    7
 10
231.26140246263657
 20
149.48434189591984
 11
226.88419200022102
 21
147.51459718783286
  0
LINE
  8
_1-1_
  6
CONTINUOUS
 62
    7
 10
225.65307990668217
 20
150.25034135485143
 11
231.26142720661883
 21
149.48431715193757
  0
LINE
  8
_1-1_
  6
CONTINUOUS
 62
    7
 10
182.79276628495498
 20
130.96319898787507
 11
188.40108884090938
 21
130.19718715695237
  0
LINE
  8
_1-1_
  6
CONTINUOUS
 62
    7
 10
139.93245266322776
 20
111.67605662089872
 11
145.54077521918214
 21
110.91004478997601
  0
LINE
  8
ADD_LINE
  6
DOT
 62
    3
 10
102.34926339485783
 20
97.702486493153799
 11
99.231855673415694
 21
104.6300715794608
  0
LINE
  8
_1-b_
  6
CONTINUOUS
 62
    3
 10
102.31806123322355
 20
92.576189083683772
 11
104.00727104239795
 21
93.197931126019085
  0
LINE
  8
_1-b_
  6
CONTINUOUS
 62
    3
 10
101.62722162041737
 20
94.453081998326923
 11
102.31806123322355
 21
92.576189083683772
  0
LINE
  8
ADD_LINE
  6
DOT
 62
    3
 10
101.44937424789838
 20
94.358683705991638
 11
101.44937424789838
 21
93.975646860552445
  0
LINE
  8
_1-1_
  6
CONTINUOUS
 62
    7
 10
141.16356475676662
 20
108.94028770989789
 11
139.93247740721006
 21
111.67605662089872
  0
LINE
  8
_1-1_
  6
CONTINUOUS
 62
    7
 10
139.93247740721006
 20
111.67605662089872
 11
144.30968786962558
 21
113.64581370097684
  0
LINE
  8
_1-1_
  6
CONTINUOUS
 62
    7
 10
144.30968786962558
 20
113.64581370097684
 11
145.54079996316443
 21
110.91004478997601
  0
LINE
  8
_1-1_
  6
CONTINUOUS
 62
    7
 10
145.54079996316443
 20
110.91004478997601
 11
141.16356475676662
 21
108.94028770989789
  0
LINE
  8
_1-1_
  6
CONTINUOUS
 62
    7
 10
139.93247740721006
 20
111.67605662089872
 11
145.54079996316443
 21
110.91004478997601
  0
LINE
  8
_1-b_
  6
CONTINUOUS
 62
    3
 10
145.17837485495073
 20
111.86333145066013
 11
146.86757229213401
 21
112.48507349299544
  0
LINE
  8
_1-b_
  6
CONTINUOUS
 62
    3
 10
144.48754761413574
 20
113.74022436530328
 11
145.17837485495073
 21
111.86333145066013
  0
LINE
  8
ADD_LINE
  6
DOT
 62
    3
 10
144.30968786962558
 20
113.64582607296799
 11
144.30968786962558
 21
114.10461662010692
  0
LINE
  8
ADD_LINE
  6
DOT
 62
    3
 10
144.30968786962558
 20
113.64582607296799
 11
144.30968786962558
 21
113.2627892275288
  0
LINE
  8
_1-1_
  6
CONTINUOUS
 62
    7
 10
139.93247740721006
 20
111.67606899288987
 11
144.30968786962558
 21
113.64582607296799
  0
LINE
  8
_1-1_
  6
CONTINUOUS
 62
    7
 10
184.02387837849383
 20
128.22743007687424
 11
182.79276628495498
 21
130.96319898787507
  0
LINE
  8
_1-1_
  6
CONTINUOUS
 62
    7
 10
182.79276628495498
 20
130.96319898787507
 11
187.17000149135279
 21
132.9329560679532
  0
LINE
  8
_1-1_
  6
CONTINUOUS
 62
    7
 10
187.17000149135279
 20
132.9329560679532
 11
188.40108884090938
 21
130.19718715695237
  0
LINE
  8
_1-1_
  6
CONTINUOUS
 62
    7
 10
188.40108884090938
 20
130.19718715695237
 11
184.02387837849383
 21
128.22743007687424
  0
LINE
  8
_1-1_
  6
CONTINUOUS
 62
    7
 10
182.79276628495498
 20
130.96319898787507
 11
188.40108884090938
 21
130.19718715695237
  0
LINE
  8
_1-b_
  6
CONTINUOUS
 62
    3
 10
131.65371005343047
 20
112.52796718624924
 11
187.34783649188066
 21
133.02736673227963
  0
LINE
  8
_1-b_
  6
CONTINUOUS
 62
    3
 10
188.03868847667795
 20
131.15047381763648
 11
189.72791065784349
 21
131.77221585997179
  0
LINE
  8
_1-b_
  6
CONTINUOUS
 62
    3
 10
187.34783649188066
 20
133.02736673227963
 11
188.03868847667795
 21
131.15047381763648
  0
LINE
  8
_1-b_
  6
CONTINUOUS
 62
    3
 10
132.36999885199467
 20
115.77525607059255
 11
186.56837630659771
 21
135.72411438325094
  0
LINE
  8
_1-b_
  6
CONTINUOUS
 62
    3
 10
131.42114136413571
 20
113.72106015104018
 11
131.83847336899214
 21
112.58721665177922
  0
LINE
  8
_1-1_
  6
CONTINUOUS
 62
    7
 10
182.79276628495498
 20
130.96319898787507
 11
187.17000149135279
 21
132.9329560679532
  0
LINE
  8
_1-1_
  6
CONTINUOUS
 62
    7
 10
187.17000149135279
 20
132.9329560679532
 11
188.40108884090938
 21
130.19718715695237
  0
LINE
  8
_1-1_
  6
CONTINUOUS
 62
    7
 10
226.88419200022102
 20
147.5145724438506
 11
225.65307990668217
 21
150.25034135485143
  0
LINE
  8
_1-1_
  6
CONTINUOUS
 62
    7
 10
225.65307990668217
 20
150.25034135485143
 11
230.03031511307998
 21
152.2201108069207
  0
LINE
  8
_1-1_
  6
CONTINUOUS
 62
    7
 10
230.03031511307998
 20
152.2201108069207
 11
231.26140246263657
 21
149.48431715193757
  0
LINE
  8
_1-1_
  6
CONTINUOUS
 62
    7
 10
231.26140246263657
 20
149.48431715193757
 11
226.88419200022102
 21
147.5145724438506
  0
LINE
  8
_1-1_
  6
CONTINUOUS
 62
    7
 10
225.65307990668217
 20
150.25034135485143
 11
231.26140246263657
 21
149.48431715193757
  0
LINE
  8
_1-1_
  6
CONTINUOUS
 62
    7
 10
182.79276628495498
 20
130.96319898787507
 11
188.40108884090938
 21
130.19718715695237
  0
LINE
  8
_1-1_
  6
CONTINUOUS
 62
    7
 10
182.79279102893724
 20
130.96319898787507
 11
187.17000149135279
 21
132.9329560679532
  0
LINE
  8
_1-1_
  6
CONTINUOUS
 62
    7
 10
187.17000149135279
 20
132.9329560679532
 11
188.40111358489165
 21
130.19718715695237
  0
LINE
  8
_1-1_
  6
CONTINUOUS
 62
    7
 10
182.79279102893724
 20
130.96319898787507
 11
188.40111358489165
 21
130.19718715695237
  0
LINE
  8
_1-b_
  6
CONTINUOUS
 62
    3
 10
188.03868847667795
 20
131.15047381763648
 11
189.72788591386123
 21
131.77221585997179
  0
LINE
  8
_1-b_
  6
CONTINUOUS
 62
    3
 10
187.34786123586292
 20
133.02736673227963
 11
188.03868847667795
 21
131.15047381763648
  0
LINE
  8
ADD_LINE
  6
DOT
 62
    3
 10
187.17000149135279
 20
132.93296843994435
 11
187.17000149135279
 21
132.54993159450515
  0
LINE
  8
_1-1_
  6
CONTINUOUS
 62
    7
 10
182.79279102893724
 20
130.96321135986622
 11
187.17000149135279
 21
132.93296843994435
  0
LINE
  8
_1-1_
  6
CONTINUOUS
 62
    7
 10
226.88419200022102
 20
147.5145724438506
 11
225.65307990668217
 21
150.25034135485143
  0
LINE
  8
_1-1_
  6
CONTINUOUS
 62
    7
 10
225.65307990668217
 20
150.25034135485143
 11
230.03031511307998
 21
152.2201108069207
  0
LINE
  8
_1-1_
  6
CONTINUOUS
 62
    7
 10
230.03031511307998
 20
152.2201108069207
 11
231.26140246263657
 21
149.48431715193757
  0
LINE
  8
_1-1_
  6
CONTINUOUS
 62
    7
 10
231.26140246263657
 20
149.48431715193757
 11
226.88419200022102
 21
147.5145724438506
  0
LINE
  8
_1-1_
  6
CONTINUOUS
 62
    7
 10
225.65307990668217
 20
150.25034135485143
 11
231.26140246263657
 21
149.48431715193757
  0
LINE
  8
_1-b_
  6
CONTINUOUS
 62
    3
 10
174.51402367515766
 20
131.8151095532256
 11
230.20815011360784
 21
152.31450909925599
  0
LINE
  8
_1-b_
  6
CONTINUOUS
 62
    3
 10
230.89900209840516
 20
150.43760381262172
 11
232.58822427957068
 21
151.05937059893927
  0
LINE
  8
_1-b_
  6
CONTINUOUS
 62
    3
 10
230.20815011360784
 20
152.31450909925599
 11
230.89900209840516
 21
150.43760381262172
  0
LINE
  8
_1-b_
  6
CONTINUOUS
 62
    3
 10
175.23031247372188
 20
135.0623984375689
 11
229.42868992832493
 21
155.01125675022729
  0
LINE
  8
_1-b_
  6
CONTINUOUS
 62
    3
 10
174.28145498586292
 20
133.00820251801656
 11
174.69878699071933
 21
131.87435901875557
  0
LINE
  8
_1-1_
  6
CONTINUOUS
 62
    7
 10
226.87748638102761
 20
147.52944357719096
 11
225.64637428748875
 21
150.26521248819179
  0
LINE
  8
_1-1_
  6
CONTINUOUS
 62
    7
 10
225.64637428748875
 20
150.26521248819179
 11
230.02360949388657
 21
152.2349571962788
  0
LINE
  8
_1-1_
  6
CONTINUOUS
 62
    7
 10
230.02360949388657
 20
152.2349571962788
 11
231.25469684344316
 21
149.4992130292602
  0
LINE
  8
_1-1_
  6
CONTINUOUS
 62
    7
 10
231.25469684344316
 20
149.4992130292602
 11
226.87748638102761
 21
147.52944357719096
  0
LINE
  8
_1-1_
  6
CONTINUOUS
 62
    7
 10
225.64637428748875
 20
150.26521248819179
 11
231.25469684344316
 21
149.4992130292602
  0
LINE
  8
_1-1_
  6
CONTINUOUS
 62
    7
 10
226.87748638102761
 20
147.52944357719096
 11
225.64637428748875
 21
150.26521248819179
  0
LINE
  8
_1-1_
  6
CONTINUOUS
 62
    7
 10
225.64637428748875
 20
150.26521248819179
 11
230.02360949388657
 21
152.2349571962788
  0
LINE
  8
_1-1_
  6
CONTINUOUS
 62
    7
 10
230.02360949388657
 20
152.2349571962788
 11
231.25469684344316
 21
149.4992130292602
  0
LINE
  8
_1-1_
  6
CONTINUOUS
 62
    7
 10
231.25469684344316
 20
149.4992130292602
 11
226.87748638102761
 21
147.52944357719096
  0
LINE
  8
_1-1_
  6
CONTINUOUS
 62
    7
 10
225.64637428748875
 20
150.26521248819179
 11
231.25469684344316
 21
149.4992130292602
  0
LINE
  8
_1-b_
  6
CONTINUOUS
 62
    3
 10
230.89229647921175
 20
150.45249968994435
 11
232.58151866037727
 21
151.07421698829737
  0
LINE
  8
_1-b_
  6
CONTINUOUS
 62
    3
 10
230.20144449441443
 20
152.32938023259638
 11
230.89229647921175
 21
150.45249968994435
  0
LINE
  8
_1-1_
  6
CONTINUOUS
 62
    7
 10
225.64637428748875
 20
150.26521248819179
 11
230.02360949388657
 21
152.2349571962788
  0
LINE
  8
_1-1_
  6
CONTINUOUS
 62
    7
 10
230.02360949388657
 20
152.2349571962788
 11
231.25469684344316
 21
149.4992130292602
  0
LINE
  8
_1-1_
  6
CONTINUOUS
 62
    7
 10
225.64637428748875
 20
150.26521248819179
 11
231.25469684344316
 21
149.4992130292602
  0
LINE
  8
_1-1_
  6
CONTINUOUS
 62
    7
 10
225.64639903147102
 20
150.26521248819179
 11
230.02360949388657
 21
152.2349571962788
  0
LINE
  8
_1-1_
  6
CONTINUOUS
 62
    7
 10
230.02360949388657
 20
152.2349571962788
 11
231.25472158742542
 21
149.4992130292602
  0
LINE
  8
_1-1_
  6
CONTINUOUS
 62
    7
 10
225.64639903147102
 20
150.26521248819179
 11
231.25472158742542
 21
149.4992130292602
  0
LINE
  8
_1-b_
  6
CONTINUOUS
 62
    3
 10
230.89229647921175
 20
150.45249968994435
 11
232.581493916395
 21
151.07421698829737
  0
LINE
  8
_1-b_
  6
CONTINUOUS
 62
    3
 10
230.2014692383967
 20
152.32938023259638
 11
230.89229647921175
 21
150.45249968994435
  0
LINE
  8
ADD_LINE
  6
DOT
 62
    3
 10
230.02360949388657
 20
152.23498194026106
 11
230.02360949388657
 21
152.69376011540888
  0
LINE
  8
ADD_LINE
  6
DOT
 62
    3
 10
230.02360949388657
 20
152.23498194026106
 11
230.02360949388657
 21
151.85194509482187
  0
LINE
  8
_1-1_
  6
CONTINUOUS
 62
    7
 10
225.64639903147102
 20
150.26523723217406
 11
230.02360949388657
 21
152.23498194026106
  0
LINE
  8
_1-b_
  6
CONTINUOUS
 62
    3
 10
229.25085492779704
 20
155.49101782233456
 11
229.42198430913152
 21
155.02612788356765
  0
LINE
  8
_1-b_
  6
CONTINUOUS
 62
    3
 10
229.25194366301665
 20
155.49141372605075
 11
229.42868992832493
 21
155.01125675022729
  0
LINE
  8
_1-b_
  6
CONTINUOUS
 62
    3
 10
229.2508796717793
 20
155.49099307835229
 11
229.42198430913152
 21
155.02612788356765
  0
LINE
  8
_1-b_
  6
CONTINUOUS
 62
    3
 10
230.75236925951157
 20
156.04367466619013
 11
232.581493916395
 21
151.07421698829737
  0
LINE
  8
_1-b_
  6
CONTINUOUS
 62
    3
 10
230.75348273871342
 20
156.04407056990632
 11
232.58822427957068
 21
151.05937059893927
  0
LINE
  8
_1-b_
  6
CONTINUOUS
 62
    3
 10
230.75239400349383
 20
156.04367466619013
 11
232.58151866037727
 21
151.07421698829737
  0
LINE
  8
_1-b_
  6
CONTINUOUS
 62
    3
 10
186.39727166924553
 20
136.18897957803554
 11
186.56837630659771
 21
135.72411438325094
  0
LINE
  8
_1-b_
  6
CONTINUOUS
 62
    3
 10
187.89876125697779
 20
136.74166116587338
 11
189.72788591386123
 21
131.77221585997179
  0
LINE
  8
_1-b_
  6
CONTINUOUS
 62
    3
 10
186.39727166924553
 20
136.18897957803554
 11
186.56837630659771
 21
135.72411438325094
  0
LINE
  8
_1-b_
  6
CONTINUOUS
 62
    3
 10
187.89878600096006
 20
136.74166116587338
 11
189.72791065784349
 21
131.77221585997179
  0
LINE
  8
_1-b_
  6
CONTINUOUS
 62
    3
 10
143.53695804751828
 20
116.90184958305034
 11
143.70806268487053
 21
116.43697201627455
  0
LINE
  8
_1-b_
  6
CONTINUOUS
 62
    3
 10
145.03844763525058
 20
117.45450642690591
 11
146.86757229213401
 21
112.48507349299544
  0
LINE
  8
_1-c_
  6
CONTINUOUS
 62
    7
 10
128.93414845081224
 20
120.47791175972895
 11
131.42114136413571
 21
113.72107252303132
  0
LINE
  8
_1-c_
  6
CONTINUOUS
 62
    7
 10
171.79446207253943
 20
139.76502938272304
 11
174.28145498586292
 21
133.00820251801656
  0
LINE
  8
_1-c_
  6
CONTINUOUS
 62
    7
 10
172.7432948164161
 20
141.81922530227541
 11
215.23930278727761
 21
157.4607872744038
  0
LINE
  8
_1-c_
  6
CONTINUOUS
 62
    7
 10
129.88299356668006
 20
122.53209530729018
 11
172.38005315678771
 21
138.17404081114367
  0
LINE
  8
_1-b_
  6
CONTINUOUS
 62
    3
 10
100.08256615562641
 20
97.396044644811298
 11
144.48754761413574
 21
113.74022436530328
  0
LINE
  8
_1-b_
  6
CONTINUOUS
 62
    3
 10
98.930709037277595
 20
99.95572300603385
 11
143.70806268487053
 21
116.43697201627455
  0
LINE
  8
_1-c_
  6
CONTINUOUS
 62
    7
 10
95.968804872370498
 20
106.53775838003091
 11
129.51975190705167
 21
118.88689844416731
  0
LINE
  8
_1-b_
  6
CONTINUOUS
 62
    3
 10
229.25085492779704
 20
155.49101782233456
 11
230.75236925951157
 21
156.04368703818125
  0
LINE
  8
_1-b_
  6
CONTINUOUS
 62
    7
 10
215.23930278727761
 20
157.4607872744038
 11
228.44209786751409
 21
162.32035692706427
  0
LINE
  8
_1-b_
  6
CONTINUOUS
 62
    7
 10
230.75236925951157
 20
156.04367466619013
 11
228.44209786751409
 21
162.32035692706427
  0
LINE
  8
_1-0_
  6
CONTINUOUS
 62
    7
 10
104.56815526035615
 20
87.42806748185734
 11
235.13513513513516
 21
146.18320361987966
  0
LINE
  8
_1-0_
  6
CONTINUOUS
 62
    7
 10
103.33706791079956
 20
90.163824020867054
 11
235.13513513513516
 21
149.47297792176943
  0
LINE
  8
_1-0_
  6
CONTINUOUS
 62
    7
 10
102.68048634143723
 20
91.622902422999658
 11
231.70345370577425
 21
149.6832463973451
  0
LINE
  8
_1-0_
  6
CONTINUOUS
 62
    7
 10
102.92668896495918
 20
91.075757301193278
 11
231.9496563292962
 21
149.13610746153429
  0
LINE
  8
_1-1_
  6
DASHED1
 62
    3
 10
103.00876475412726
 20
90.893369407928901
 11
234.52294426995357
 21
150.07477631440034
  0
LINE
  8
_1-b_
  6
CONTINUOUS
 62
    3
 10
102.17815875750564
 20
98.167364059929554
 11
104.00727104239795
 21
93.197931126019085
  0
ARC
  8
_1-b_
  6
CONTINUOUS
 62
    3
 10
132.92265569585024
 20
114.2737293668869
 40
1.5999999239638045
 50
110.20680236816406
 51
200.20738220214844
  0
ARC
  8
_1-b_
  6
CONTINUOUS
 62
    3
 10
175.78296931757745
 20
133.56087173386325
 40
1.5999999239638045
 50
110.20680236816406
 51
200.20738220214844
  0
ARC
  8
_1-c_
  6
CONTINUOUS
 62
    7
 10
130.43566278252675
 20
121.03056860358453
 40
1.5999999239638045
 50
110.20722961425781
 51
200.20695495605469
  0
ARC
  8
_1-c_
  6
CONTINUOUS
 62
    7
 10
173.29597640425396
 20
140.31768622657862
 40
1.5999999239638045
 50
110.20748901367187
 51
200.20695495605469
  0
LINE
  8
_1-0_
  6
CONTINUOUS
 62
    7
 10
231.70345370577425
 20
149.6832463973451
 11
231.9496563292962
 21
149.13610746153429
  0
TEXT
  8
_1-5_
 62
    7
 10
46.920026897185267
 20
183.65780392208615
 40
2.5
 41
1
 50
0
  1
桟瓦
  0
TEXT
  8
_1-5_
 62
    7
 10
46.604498852355761
 20
178.26098055452914
 40
2.5
 41
1
 50
0
  1
瓦桟　
  0
TEXT
  8
_1-5_
 62
    7
 10
46.606057723238337
 20
171.26098220412797
 40
2.5
 41
1
 50
0
  1
流し桟
  0
TEXT
  8
_1-5_
 62
    7
 10
46.606058754237608
 20
164.26098385372677
 40
2.5
 41
1
 50
0
  1
下葺き材
  0
TEXT
  8
_1-5_
 62
    7
 10
61.051965728411488
 20
158.36449288033151
 40
2.5
 41
1
 50
0
  1
ｔ＝12
  0
TEXT
  8
_1-4_
 62
    7
 10
47.049023462720527
 20
158.47361384211359
 40
2.5
 41
1
 50
0
  1
化粧野地板
  0
TEXT
  8
_1-4_
 62
    7
 10
64.814882087153052
 20
151.24124475427575
 40
2.5
 41
1
 50
0
  1
60ｘ60
  0
TEXT
  8
_1-6_
 62
    7
 10
60.610556797813416
 20
164.26098385372677
 40
2.5
 41
1
 50
0
  1
ゴムアス系ルーフィング
  0
TEXT
  8
_1-6_
 62
    7
 10
46.689025326767194
 20
151.36805766337628
 40
2.5
 41
1
 50
0
  1
化粧垂木
  0
TEXT
  8
_1-6_
 62
    7
 10
53.654843476005482
 20
178.15311557830682
 40
2.5
 41
1
 50
0
  1
15×30以上　（防腐処理）
  0
TEXT
  8
_1-0_
 62
    7
 10
54.069835770111354
 20
174.71010185464604
 40
2.5
 41
1
 50
0
  1
※　地域により瓦桟木の大きさは、異なります
  0
LINE
  8
_1-0_
  6
CONTINUOUS
 62
    7
 10
98.63717156487543
 20
179.08588306323904
 11
86.345109786517739
 21
179.08588306323904
  0
LINE
  8
_1-0_
  6
CONTINUOUS
 62
    7
 10
111.81362667599241
 20
165.14556884765625
 11
93.900612124551145
 21
165.14556884765625
  0
ENDSEC
  0
EOF
