  0
SECTION
  2
HEADER
  9
$ACADVER
  1
AC1009
  9
$INSBASE
 10
0
 20
0
 30
0
  9
$EXTMIN
 10
0
 20
0
  9
$EXTMAX
 10
420
 20
297
  9
$LIMMIN
 10
0
 20
0
  9
$LIMMAX
 10
420
 20
297
  9
$LTSCALE
 40
1
  0
ENDSEC
  0
SECTION
  2
TABLES
  0
TABLE
  2
LTYPE
 70
     9
  0
LTYPE
  2
CONTINUOUS
 70
    64
  3
実線
 72
    65
 73
     0
 40
0.0
  0
LTYPE
  2
DASHED1
 70
    64
  3
--  --  --  --  --  --  --  --  
 72
    65
 73
     2
 40
2.5
 49
1.25
 49
-1.25
  0
LTYPE
  2
DASHED2
 70
    64
  3
----    ----    ----    ----    
 72
    65
 73
     2
 40
5.0
 49
2.5
 49
-2.5
  0
LTYPE
  2
DASHED3
 70
    64
  3
------  ------  ------  ------  
 72
    65
 73
     2
 40
5.0
 49
3.75
 49
-1.25
  0
LTYPE
  2
CENTER1
 70
    64
  3
----- - ----- - ----- - ----- - 
 72
    65
 73
     4
 40
10.0
 49
6.25
 49
-1.25
 49
1.25
 49
-1.25
  0
LTYPE
  2
CENTER2
 70
    64
  3
----------  --  ----------  --  
 72
    65
 73
     4
 40
20.0
 49
12.5
 49
-2.5
 49
2.5
 49
-2.5
  0
LTYPE
  2
PHANTOM1
 70
    64
  3
--- - - --- - - --- - - --- - - 
 72
    65
 73
     6
 40
10.0
 49
3.25
 49
-1.25
 49
1.25
 49
-1.25
 49
1.25
 49
-1.25
  0
LTYPE
  2
PHANTOM2
 70
    64
  3
--------  -  -  --------  -  -  
 72
    65
 73
     6
 40
20.0
 49
10.0
 49
-2.5
 49
1.25
 49
-2.5
 49
1.25
 49
-2.5
  0
LTYPE
  2
DOT
 70
    64
  3
-   -   -   -   -   -   -   -   
 72
    65
 73
     2
 40
2.5
 49
0.625
 49
-1.875
  0
LTYPE
  2
DUMMY
 70
    64
  3
ダミー
 72
    65
 73
     0
 40
0.0
  0
LTYPE
  2
RAND1
 70
    64
  3
ランダム線1
 72
    65
 73
     4
 40
10.0
 49
1.0
 49
-2.0
 49
3.0
 49
-4.0
  0
LTYPE
  2
RAND2
 70
    64
  3
ランダム線2
 72
    65
 73
     4
 40
14.0
 49
2.0
 49
-3.0
 49
4.0
 49
-5.0
  0
LTYPE
  2
RAND3
 70
    64
  3
ランダム線3
 72
    65
 73
     4
 40
18.0
 49
3.0
 49
-4.0
 49
5.0
 49
-6.0
  0
LTYPE
  2
RAND4
 70
    64
  3
ランダム線4
 72
    65
 73
     4
 40
22.0
 49
4.0
 49
-5.0
 49
6.0
 49
-7.0
  0
LTYPE
  2
RAND5
 70
    64
  3
ランダム線5
 72
    65
 73
     4
 40
26.0
 49
5.0
 49
-6.0
 49
7.0
 49
-8.0
  0
LTYPE
  2
LONG1
 70
    64
  3
----------  --  ----------  --  
 72
    65
 73
     4
 40
40.0
 49
32.5
 49
-2.5
 49
2.5
 49
-2.5
  0
LTYPE
  2
LONG2
 70
    64
  3
--------  -  -  --------  -  -  
 72
    65
 73
     6
 40
40.0
 49
30.0
 49
-2.5
 49
1.25
 49
-2.5
 49
1.25
 49
-2.5
  0
LTYPE
  2
LONG3
 70
    64
  3
+++++++++++++++..+++++++++++++++
 72
    65
 73
     2
 40
40.0
 49
37.5
 49
-2.5
  0
LTYPE
  2
LONG4
 70
    64
  3
+++++++++++++++..+++++++++++++++
 72
    65
 73
     2
 40
80.0
 49
75.0
 49
-5.0
  0
LTYPE
  2
LONG5
 70
    64
  3
----------  --  ----------  --  
 72
    65
 73
     4
 40
60.0
 49
37.5
 49
-7.5
 49
7.5
 49
-7.5
  0
LTYPE
  2
dashed
 70
   64
  3
-------   -------------   ------
 72
   65
 73
    2
 40
7.5
 49
6
 49
-1.5
  0
LTYPE
  2
dashed_spaced
 70
   64
  3
----        --------        ----
 72
   65
 73
    2
 40
12
 49
6
 49
-6
  0
LTYPE
  2
long_dashed_dotted
 70
   64
  3
------------- --- --------------
 72
   65
 73
    4
 40
15.25
 49
12
 49
-1.5
 49
0.25
 49
-1.5
  0
LTYPE
  2
long_dashed_double-dotted
 70
   64
  3
----------- --- --- ------------
 72
   65
 73
    6
 40
17
 49
12
 49
-1.5
 49
0.25
 49
-1.5
 49
0.25
 49
-1.5
  0
LTYPE
  2
long_dashed_triplicate-dotted
 70
   64
  3
--------- --- --- --- ----------
 72
   65
 73
    8
 40
18.75
 49
12
 49
-1.5
 49
0.25
 49
-1.5
 49
0.25
 49
-1.5
 49
0.25
 49
-1.5
  0
LTYPE
  2
dotted
 70
   64
  3
   -       -       -       -    
 72
   65
 73
    2
 40
1.75
 49
0.25
 49
-1.5
  0
LTYPE
  2
chain
 70
   64
  3
-------------- -- --------------
 72
   65
 73
    4
 40
18.5
 49
12
 49
-1.5
 49
3.5
 49
-1.5
  0
LTYPE
  2
chain_double_dash
 70
   64
  3
------------ -- -- -------------
 72
   65
 73
    6
 40
23.5
 49
12
 49
-1.5
 49
3.5
 49
-1.5
 49
3.5
 49
-1.5
  0
LTYPE
  2
dashed_dotted
 70
   64
  3
-----------     -     ----------
 72
   65
 73
    4
 40
9.25
 49
6
 49
-1.5
 49
0.25
 49
-1.5
  0
LTYPE
  2
double-dashed_dotted
 70
   64
  3
------   -----------   -   -----
 72
   65
 73
    6
 40
16.75
 49
6
 49
-1.5
 49
6
 49
-1.5
 49
0.25
 49
-1.5
  0
LTYPE
  2
dashed_double-dotted
 70
   64
  3
---------    -    -    ---------
 72
   65
 73
    6
 40
11
 49
6
 49
-1.5
 49
0.25
 49
-1.5
 49
0.25
 49
-1.5
  0
LTYPE
  2
double-dashed_double-dotted
 70
   64
  3
-----   ---------   -   -   ----
 72
   65
 73
    8
 40
18.5
 49
6
 49
-1.5
 49
6
 49
-1.5
 49
0.25
 49
-1.5
 49
0.25
 49
-1.5
  0
LTYPE
  2
dashed_triplicate-dotted
 70
   64
  3
-------    -    -    -    ------
 72
   65
 73
    8
 40
12.75
 49
6
 49
-1.5
 49
0.25
 49
-1.5
 49
0.25
 49
-1.5
 49
0.25
 49
-1.5
  0
LTYPE
  2
double-dashed_triplicate-dotted
 70
   64
  3
-----  ---------  -  -  -  -----
 72
   65
 73
   10
 40
20.25
 49
6
 49
-1.5
 49
6
 49
-1.5
 49
0.25
 49
-1.5
 49
0.25
 49
-1.5
 49
0.25
 49
-1.5
  0
LTYPE
  2
undefined
 70
   64
  3
--------------------------------
 72
   65
 73
    0
 40
0
  0
ENDTAB
  0
TABLE
  2
STYLE
  5
3
100
AcDbSymbolTable
 70
     1
  0
STYLE
  5
10
100
AcDbSymbolTableRecord
100
AcDbTextStyleTableRecord
  2
STANDARD
 70
     0
 40
0.0
 41
1.0
 50
0.0
 71
     0
 42
0.2
  3
txt
  4
bigfont.shx
  0
STYLE
  5
26
100
AcDbSymbolTableRecord
100
AcDbTextStyleTableRecord
  2
TATEGAKI
 70
    68
 40
0.0
 41
1.0
 50
0.0
 71
     0
 42
1.0
  3
txt
  4
bigfont.shx
  0
ENDTAB
  0
TABLE
  2
LAYER
 70
   11
  0
LAYER
  2
_0-0_
 70
   64
 62
    7
  6
CONTINUOUS
  0
LAYER
  2
_1-0_
 70
   64
 62
    7
  6
CONTINUOUS
  0
LAYER
  2
_1-1_
 70
   64
 62
    7
  6
CONTINUOUS
  0
LAYER
  2
_1-2_
 70
   64
 62
    7
  6
CONTINUOUS
  0
LAYER
  2
_1-3_
 70
   64
 62
    7
  6
CONTINUOUS
  0
LAYER
  2
_1-4_
 70
   64
 62
    7
  6
CONTINUOUS
  0
LAYER
  2
_1-5_
 70
   64
 62
    7
  6
CONTINUOUS
  0
LAYER
  2
_1-6_
 70
   64
 62
    7
  6
CONTINUOUS
  0
LAYER
  2
_1-b_
 70
   64
 62
    7
  6
CONTINUOUS
  0
LAYER
  2
_1-c_
 70
   64
 62
    7
  6
CONTINUOUS
  0
LAYER
  2
ADD_LINE
 70
   64
 62
    7
  6
CONTINUOUS
  0
ENDTAB
  0
ENDSEC
  0
SECTION
  2
BLOCKS
  0
ENDSEC
  0
SECTION
  2
ENTITIES
  0
LINE
  8
_0-0_
  6
CONTINUOUS
 62
    5
 10
6.7567526327597136
 20
280.13513513513516
 11
406.75677325274495
 21
280.13513513513516
  0
LINE
  8
_0-0_
  6
CONTINUOUS
 62
    5
 10
406.75677325274495
 20
10.13513513513513
 11
6.7567526327597136
 21
10.13513513513513
  0
LINE
  8
_0-0_
  6
CONTINUOUS
 62
    5
 10
406.75677325274495
 20
30.135133073136615
 11
6.7567402607685949
 21
30.135133073136615
  0
LINE
  8
_0-0_
  6
CONTINUOUS
 62
    5
 10
371.75678150073907
 20
10.13513513513513
 11
371.75678150073907
 21
30.135133073136615
  0
LINE
  8
_0-0_
  6
CONTINUOUS
 62
    5
 10
137.02703939901818
 20
30.135133073136615
 11
137.02703939901818
 21
10.13513513513513
  0
LINE
  8
_0-0_
  6
CONTINUOUS
 62
    5
 10
214.86486486486487
 20
30.135133073136615
 11
214.86486486486487
 21
10.13513513513513
  0
LINE
  8
_0-0_
  6
CONTINUOUS
 62
    5
 10
137.02703939901818
 20
20.135134104135886
 11
214.86486486486487
 21
20.135134104135886
  0
LINE
  8
_0-0_
  6
CONTINUOUS
 62
    5
 10
396.48648648648651
 20
25.945945945945951
 11
383.91891891891896
 21
13.378379924877265
  0
LINE
  8
_1-0_
  6
CONTINUOUS
 62
    7
 10
103.98500184755068
 20
74.006628088048984
 11
235.13513513513516
 21
133.02419301625847
  0
LINE
  8
_1-2_
  6
CONTINUOUS
 62
    7
 10
223.13514503272805
 20
127.62419004698059
 11
235.13513513513516
 21
127.62419004698059
  0
LINE
  8
_1-2_
  6
CONTINUOUS
 62
    7
 10
223.13514503272805
 20
106.62419499577703
 11
235.13513513513516
 21
106.62419499577703
  0
LINE
  8
_1-2_
  6
CONTINUOUS
 62
    7
 10
223.13514503272805
 20
127.62419004698059
 11
223.13514503272805
 21
106.62419499577703
  0
LINE
  8
_1-2_
  6
CONTINUOUS
 62
    7
 10
235.13513513513516
 20
127.62419004698059
 11
223.13514503272805
 21
106.62419499577703
  0
LINE
  8
_1-0_
  6
CONTINUOUS
 62
    7
 10
235.13513513513516
 20
233.22472649651607
 11
235.13513513513516
 21
66.486486486486484
  0
LINE
  8
_1-2_
  6
CONTINUOUS
 62
    7
 10
111.81362667599241
 20
165.14556884765625
 11
116.54347600163641
 21
165.14556884765625
  0
LINE
  8
_1-2_
  6
CONTINUOUS
 62
    7
 10
98.63717156487543
 20
179.08588306323904
 11
111.46962346257391
 21
179.08588306323904
  0
LINE
  8
_1-2_
  6
CONTINUOUS
 62
    7
 10
142.10163425754857
 20
94.925128833667657
 11
111.46962346257391
 21
179.08588306323904
  0
LINE
  8
_1-2_
  6
CONTINUOUS
 62
    7
 10
111.46962346257391
 20
179.08588306323904
 11
109.53915982633025
 21
184.38980514938768
  0
TEXT
  8
_0-0_
 62
    7
 10
141.89189395389042
 20
14.594594594594582
 40
2.5
 41
1
 50
0
  1
縮尺
  0
TEXT
  8
_0-0_
 62
    7
 10
377.10214563318203
 20
22.865493362014362
 40
2.5
 41
1
 50
0
  1
ＮＯ
  0
TEXT
  8
_0-0_
 62
    7
 10
14.594594336844779
 20
24.324324324324323
 40
2.5
 41
1
 50
0
  1
和形
  0
TEXT
  8
_0-0_
 62
    7
 10
25.556194717819636
 20
20.211577544341225
 40
2.5
 41
1
 50
0
  1
木造
  0
TEXT
  8
_0-0_
 62
    7
 10
383.23801896378802
 20
18.523427086907475
 40
3
 41
1
 50
0
  1
Ｊ
  0
TEXT
  8
_1-0_
 62
    7
 10
169.90681828679266
 20
13.3181144095756
 40
2.5
 41
1
 50
0
  1
1/5
  0
TEXT
  8
_1-6_
 62
    7
 10
39.721904445338907
 20
15.395235628695104
 40
2.5
 41
1
 50
0
  1
壁際　　6
  0
TEXT
  8
_1-6_
 62
    7
 10
395.36732029270485
 20
15.194875871812968
 40
2.5
 41
1
 50
0
  1
12
  0
LINE
  8
_1-1_
  6
CONTINUOUS
 62
    7
 10
102.05449611684487
 20
94.630976295229544
 11
103.2855958383926
 21
91.895207384228698
  0
LINE
  8
_1-1_
  6
CONTINUOUS
 62
    7
 10
141.76868662571314
 20
109.21259267112693
 11
140.53757453217429
 21
111.94836158212777
  0
LINE
  8
_1-1_
  6
CONTINUOUS
 62
    7
 10
140.53757453217429
 20
111.94836158212777
 11
144.91480973857205
 21
113.9181186622059
  0
LINE
  8
_1-1_
  6
CONTINUOUS
 62
    7
 10
144.91480973857205
 20
113.9181186622059
 11
146.14589708812866
 21
111.18234975120505
  0
LINE
  8
_1-1_
  6
CONTINUOUS
 62
    7
 10
146.14589708812866
 20
111.18234975120505
 11
141.76868662571314
 21
109.21259267112693
  0
LINE
  8
_1-1_
  6
CONTINUOUS
 62
    7
 10
184.62900024744033
 20
128.49973503810327
 11
183.39788815390148
 21
131.2355039491041
  0
LINE
  8
_1-1_
  6
CONTINUOUS
 62
    7
 10
183.39788815390148
 20
131.2355039491041
 11
187.77512336029929
 21
133.20526102918222
  0
LINE
  8
_1-1_
  6
CONTINUOUS
 62
    7
 10
187.77512336029929
 20
133.20526102918222
 11
189.00621070985588
 21
130.46949211818139
  0
LINE
  8
_1-1_
  6
CONTINUOUS
 62
    7
 10
189.00621070985588
 20
130.46949211818139
 11
184.62900024744033
 21
128.49973503810327
  0
LINE
  8
_1-1_
  6
CONTINUOUS
 62
    7
 10
227.48931386916752
 20
147.78690214906192
 11
226.25820177562866
 21
150.52264631608045
  0
LINE
  8
_1-1_
  6
CONTINUOUS
 62
    7
 10
226.25820177562866
 20
150.52264631608045
 11
230.63543698202648
 21
152.49241576814973
  0
LINE
  8
_1-1_
  6
CONTINUOUS
 62
    7
 10
230.63543698202648
 20
152.49241576814973
 11
231.86652433158307
 21
149.75664685714889
  0
LINE
  8
_1-1_
  6
CONTINUOUS
 62
    7
 10
231.86652433158307
 20
149.75664685714889
 11
227.48931386916752
 21
147.78690214906192
  0
LINE
  8
_1-1_
  6
CONTINUOUS
 62
    7
 10
226.25820177562866
 20
150.52264631608045
 11
231.86654907556533
 21
149.7566221131666
  0
LINE
  8
_1-1_
  6
CONTINUOUS
 62
    7
 10
183.39788815390148
 20
131.2355039491041
 11
189.00621070985588
 21
130.46949211818139
  0
LINE
  8
_1-1_
  6
CONTINUOUS
 62
    7
 10
140.53757453217429
 20
111.94836158212777
 11
146.14589708812866
 21
111.18234975120505
  0
LINE
  8
_1-b_
  6
CONTINUOUS
 62
    3
 10
102.92318310217004
 20
92.848494044912812
 11
104.61239291134444
 21
93.470236087248125
  0
LINE
  8
_1-b_
  6
CONTINUOUS
 62
    3
 10
102.23234348936387
 20
94.725386959555976
 11
102.92318310217004
 21
92.848494044912812
  0
LINE
  8
_1-1_
  6
CONTINUOUS
 62
    7
 10
141.76868662571314
 20
109.21259267112693
 11
140.53759927615653
 21
111.94836158212777
  0
LINE
  8
_1-1_
  6
CONTINUOUS
 62
    7
 10
140.53759927615653
 20
111.94836158212777
 11
144.91480973857205
 21
113.9181186622059
  0
LINE
  8
_1-1_
  6
CONTINUOUS
 62
    7
 10
144.91480973857205
 20
113.9181186622059
 11
146.1459218321109
 21
111.18234975120505
  0
LINE
  8
_1-1_
  6
CONTINUOUS
 62
    7
 10
146.1459218321109
 20
111.18234975120505
 11
141.76868662571314
 21
109.21259267112693
  0
LINE
  8
_1-1_
  6
CONTINUOUS
 62
    7
 10
140.53759927615653
 20
111.94836158212777
 11
146.1459218321109
 21
111.18234975120505
  0
LINE
  8
_1-b_
  6
CONTINUOUS
 62
    3
 10
145.78349672389726
 20
112.13563641188917
 11
147.47269416108054
 21
112.75737845422448
  0
LINE
  8
_1-b_
  6
CONTINUOUS
 62
    3
 10
145.0926694830822
 20
114.01252932653233
 11
145.78349672389726
 21
112.13563641188917
  0
LINE
  8
_1-1_
  6
CONTINUOUS
 62
    7
 10
140.53759927615653
 20
111.94837395411891
 11
144.91480973857205
 21
113.91813103419703
  0
LINE
  8
_1-1_
  6
CONTINUOUS
 62
    7
 10
184.62900024744033
 20
128.49973503810327
 11
183.39788815390148
 21
131.2355039491041
  0
LINE
  8
_1-1_
  6
CONTINUOUS
 62
    7
 10
183.39788815390148
 20
131.2355039491041
 11
187.77512336029929
 21
133.20526102918222
  0
LINE
  8
_1-1_
  6
CONTINUOUS
 62
    7
 10
187.77512336029929
 20
133.20526102918222
 11
189.00621070985588
 21
130.46949211818139
  0
LINE
  8
_1-1_
  6
CONTINUOUS
 62
    7
 10
189.00621070985588
 20
130.46949211818139
 11
184.62900024744033
 21
128.49973503810327
  0
LINE
  8
_1-1_
  6
CONTINUOUS
 62
    7
 10
183.39788815390148
 20
131.2355039491041
 11
189.00621070985588
 21
130.46949211818139
  0
LINE
  8
_1-b_
  6
CONTINUOUS
 62
    3
 10
132.25883192237697
 20
112.80027214747828
 11
187.95295836082715
 21
133.29967169350869
  0
LINE
  8
_1-b_
  6
CONTINUOUS
 62
    3
 10
188.64381034562444
 20
131.42277877886551
 11
190.33303252678999
 21
132.04452082120082
  0
LINE
  8
_1-b_
  6
CONTINUOUS
 62
    3
 10
132.97512072094116
 20
116.0475610318216
 11
187.17349817554421
 21
135.99641934447999
  0
LINE
  8
_1-b_
  6
CONTINUOUS
 62
    3
 10
132.0262632330822
 20
113.99336511226923
 11
132.44359523793861
 21
112.85952161300825
  0
LINE
  8
_1-1_
  6
CONTINUOUS
 62
    7
 10
183.39788815390148
 20
131.2355039491041
 11
187.77512336029929
 21
133.20526102918222
  0
LINE
  8
_1-1_
  6
CONTINUOUS
 62
    7
 10
187.77512336029929
 20
133.20526102918222
 11
189.00621070985588
 21
130.46949211818139
  0
LINE
  8
_1-1_
  6
CONTINUOUS
 62
    7
 10
227.48931386916752
 20
147.78687740507962
 11
226.25820177562866
 21
150.52264631608045
  0
LINE
  8
_1-1_
  6
CONTINUOUS
 62
    7
 10
226.25820177562866
 20
150.52264631608045
 11
230.63543698202648
 21
152.49241576814973
  0
LINE
  8
_1-1_
  6
CONTINUOUS
 62
    7
 10
230.63543698202648
 20
152.49241576814973
 11
231.86652433158307
 21
149.7566221131666
  0
LINE
  8
_1-1_
  6
CONTINUOUS
 62
    7
 10
231.86652433158307
 20
149.7566221131666
 11
227.48931386916752
 21
147.78687740507962
  0
LINE
  8
_1-1_
  6
CONTINUOUS
 62
    7
 10
226.25820177562866
 20
150.52264631608045
 11
231.86652433158307
 21
149.7566221131666
  0
LINE
  8
_1-1_
  6
CONTINUOUS
 62
    7
 10
183.39788815390148
 20
131.2355039491041
 11
189.00621070985588
 21
130.46949211818139
  0
LINE
  8
_1-1_
  6
CONTINUOUS
 62
    7
 10
183.39791289788374
 20
131.2355039491041
 11
187.77512336029929
 21
133.20526102918222
  0
LINE
  8
_1-1_
  6
CONTINUOUS
 62
    7
 10
187.77512336029929
 20
133.20526102918222
 11
189.00623545383814
 21
130.46949211818139
  0
LINE
  8
_1-1_
  6
CONTINUOUS
 62
    7
 10
183.39791289788374
 20
131.2355039491041
 11
189.00623545383814
 21
130.46949211818139
  0
LINE
  8
_1-b_
  6
CONTINUOUS
 62
    3
 10
188.64381034562444
 20
131.42277877886551
 11
190.33300778280773
 21
132.04452082120082
  0
LINE
  8
_1-b_
  6
CONTINUOUS
 62
    3
 10
187.95298310480942
 20
133.29967169350869
 11
188.64381034562444
 21
131.42277877886551
  0
LINE
  8
ADD_LINE
  6
DOT
 62
    3
 10
187.77512336029929
 20
133.20527340117337
 11
187.77512336029929
 21
133.66406394831233
  0
LINE
  8
ADD_LINE
  6
DOT
 62
    3
 10
187.77512336029929
 20
133.20527340117337
 11
187.77512336029929
 21
132.82223655573421
  0
LINE
  8
_1-1_
  6
CONTINUOUS
 62
    7
 10
183.39791289788374
 20
131.23551632109525
 11
187.77512336029929
 21
133.20527340117337
  0
LINE
  8
_1-1_
  6
CONTINUOUS
 62
    7
 10
227.48931386916752
 20
147.78687740507962
 11
226.25820177562866
 21
150.52264631608045
  0
LINE
  8
_1-1_
  6
CONTINUOUS
 62
    7
 10
226.25820177562866
 20
150.52264631608045
 11
230.63543698202648
 21
152.49241576814973
  0
LINE
  8
_1-1_
  6
CONTINUOUS
 62
    7
 10
230.63543698202648
 20
152.49241576814973
 11
231.86652433158307
 21
149.7566221131666
  0
LINE
  8
_1-1_
  6
CONTINUOUS
 62
    7
 10
231.86652433158307
 20
149.7566221131666
 11
227.48931386916752
 21
147.78687740507962
  0
LINE
  8
_1-1_
  6
CONTINUOUS
 62
    7
 10
226.25820177562866
 20
150.52264631608045
 11
231.86652433158307
 21
149.7566221131666
  0
LINE
  8
_1-b_
  6
CONTINUOUS
 62
    3
 10
175.11914554410419
 20
132.08741451445462
 11
230.81327198255434
 21
152.58681406048504
  0
LINE
  8
_1-b_
  6
CONTINUOUS
 62
    3
 10
231.50412396735166
 20
150.70990877385077
 11
233.19334614851718
 21
151.33167556016832
  0
LINE
  8
_1-b_
  6
CONTINUOUS
 62
    3
 10
230.81327198255434
 20
152.58681406048504
 11
231.50412396735166
 21
150.70990877385077
  0
LINE
  8
_1-b_
  6
CONTINUOUS
 62
    3
 10
175.83543434266835
 20
135.33470339879796
 11
230.03381179727143
 21
155.28356171145634
  0
LINE
  8
_1-b_
  6
CONTINUOUS
 62
    3
 10
174.88657685480939
 20
133.28050747924561
 11
175.3039088596658
 21
132.14666397998462
  0
LINE
  8
_1-1_
  6
CONTINUOUS
 62
    7
 10
227.48260824997411
 20
147.80174853841999
 11
226.25149615643525
 21
150.53751744942082
  0
LINE
  8
_1-1_
  6
CONTINUOUS
 62
    7
 10
226.25149615643525
 20
150.53751744942082
 11
230.62873136283307
 21
152.50726215750785
  0
LINE
  8
_1-1_
  6
CONTINUOUS
 62
    7
 10
230.62873136283307
 20
152.50726215750785
 11
231.85981871238965
 21
149.77151799048926
  0
LINE
  8
_1-1_
  6
CONTINUOUS
 62
    7
 10
231.85981871238965
 20
149.77151799048926
 11
227.48260824997411
 21
147.80174853841999
  0
LINE
  8
_1-1_
  6
CONTINUOUS
 62
    7
 10
226.25149615643525
 20
150.53751744942082
 11
231.85981871238965
 21
149.77151799048926
  0
LINE
  8
_1-1_
  6
CONTINUOUS
 62
    7
 10
227.48260824997411
 20
147.80174853841999
 11
226.25149615643525
 21
150.53751744942082
  0
LINE
  8
_1-1_
  6
CONTINUOUS
 62
    7
 10
226.25149615643525
 20
150.53751744942082
 11
230.62873136283307
 21
152.50726215750785
  0
LINE
  8
_1-1_
  6
CONTINUOUS
 62
    7
 10
230.62873136283307
 20
152.50726215750785
 11
231.85981871238965
 21
149.77151799048926
  0
LINE
  8
_1-1_
  6
CONTINUOUS
 62
    7
 10
231.85981871238965
 20
149.77151799048926
 11
227.48260824997411
 21
147.80174853841999
  0
LINE
  8
_1-1_
  6
CONTINUOUS
 62
    7
 10
226.25149615643525
 20
150.53751744942082
 11
231.85981871238965
 21
149.77151799048926
  0
LINE
  8
_1-b_
  6
CONTINUOUS
 62
    3
 10
231.49741834815825
 20
150.72480465117337
 11
233.18664052932377
 21
151.34652194952639
  0
LINE
  8
_1-b_
  6
CONTINUOUS
 62
    3
 10
230.80656636336093
 20
152.6016851938254
 11
231.49741834815825
 21
150.72480465117337
  0
LINE
  8
_1-1_
  6
CONTINUOUS
 62
    7
 10
226.25149615643525
 20
150.53751744942082
 11
230.62873136283307
 21
152.50726215750785
  0
LINE
  8
_1-1_
  6
CONTINUOUS
 62
    7
 10
230.62873136283307
 20
152.50726215750785
 11
231.85981871238965
 21
149.77151799048926
  0
LINE
  8
_1-1_
  6
CONTINUOUS
 62
    7
 10
226.25149615643525
 20
150.53751744942082
 11
231.85981871238965
 21
149.77151799048926
  0
LINE
  8
_1-1_
  6
CONTINUOUS
 62
    7
 10
226.25152090041752
 20
150.53751744942082
 11
230.62873136283307
 21
152.50726215750785
  0
LINE
  8
_1-1_
  6
CONTINUOUS
 62
    7
 10
230.62873136283307
 20
152.50726215750785
 11
231.85984345637192
 21
149.77151799048926
  0
LINE
  8
_1-1_
  6
CONTINUOUS
 62
    7
 10
226.25152090041752
 20
150.53751744942082
 11
231.85984345637192
 21
149.77151799048926
  0
LINE
  8
_1-b_
  6
CONTINUOUS
 62
    3
 10
231.49741834815825
 20
150.72480465117337
 11
233.1866157853415
 21
151.34652194952639
  0
LINE
  8
_1-b_
  6
CONTINUOUS
 62
    3
 10
230.80659110734319
 20
152.6016851938254
 11
231.49741834815825
 21
150.72480465117337
  0
LINE
  8
ADD_LINE
  6
DOT
 62
    3
 10
230.62873136283307
 20
152.50728690149009
 11
230.62873136283307
 21
152.9660650766379
  0
LINE
  8
ADD_LINE
  6
DOT
 62
    3
 10
230.62873136283307
 20
152.50728690149009
 11
230.62873136283307
 21
152.12425005605093
  0
LINE
  8
_1-1_
  6
CONTINUOUS
 62
    7
 10
226.25152090041752
 20
150.53754219340311
 11
230.62873136283307
 21
152.50728690149009
  0
LINE
  8
_1-b_
  6
CONTINUOUS
 62
    3
 10
229.85597679674353
 20
155.76332278356358
 11
230.02710617807801
 21
155.29843284479671
  0
LINE
  8
_1-b_
  6
CONTINUOUS
 62
    3
 10
229.85706553196314
 20
155.76371868727978
 11
230.03381179727143
 21
155.28356171145634
  0
LINE
  8
_1-b_
  6
CONTINUOUS
 62
    3
 10
229.8560015407258
 20
155.76329803958134
 11
230.02710617807801
 21
155.29843284479671
  0
LINE
  8
_1-b_
  6
CONTINUOUS
 62
    3
 10
231.35749112845807
 20
156.31597962741915
 11
233.1866157853415
 21
151.34652194952639
  0
LINE
  8
_1-b_
  6
CONTINUOUS
 62
    3
 10
231.35860460765991
 20
156.31637553113535
 11
233.19334614851718
 21
151.33167556016832
  0
LINE
  8
_1-b_
  6
CONTINUOUS
 62
    3
 10
231.35751587244033
 20
156.31597962741915
 11
233.18664052932377
 21
151.34652194952639
  0
LINE
  8
_1-b_
  6
CONTINUOUS
 62
    3
 10
187.00239353819202
 20
136.46128453926457
 11
187.17349817554421
 21
135.99641934447999
  0
LINE
  8
_1-b_
  6
CONTINUOUS
 62
    3
 10
188.50388312592429
 20
137.01396612710244
 11
190.33300778280773
 21
132.04452082120082
  0
LINE
  8
_1-b_
  6
CONTINUOUS
 62
    3
 10
187.00239353819202
 20
136.46128453926457
 11
187.17349817554421
 21
135.99641934447999
  0
LINE
  8
_1-b_
  6
CONTINUOUS
 62
    3
 10
188.50390786990656
 20
137.01396612710244
 11
190.33303252678999
 21
132.04452082120082
  0
LINE
  8
_1-b_
  6
CONTINUOUS
 62
    3
 10
144.14207991646481
 20
117.17415454427938
 11
144.313184553817
 21
116.70927697750361
  0
LINE
  8
_1-b_
  6
CONTINUOUS
 62
    3
 10
145.64356950419705
 20
117.72681138813495
 11
147.47269416108054
 21
112.75737845422448
  0
LINE
  8
_1-b_
  6
CONTINUOUS
 62
    3
 10
102.78328062645214
 20
98.439669021158593
 11
104.61239291134444
 21
93.470236087248125
  0
LINE
  8
_1-c_
  6
CONTINUOUS
 62
    7
 10
129.53927031975871
 20
120.75021672095801
 11
132.0262632330822
 21
113.99337748426036
  0
LINE
  8
_1-c_
  6
CONTINUOUS
 62
    7
 10
172.3995839414859
 20
140.03733434395207
 11
174.88657685480939
 21
133.28050747924561
  0
LINE
  8
_1-c_
  6
CONTINUOUS
 62
    7
 10
173.34841668536262
 20
142.09153026350447
 11
215.84442465622411
 21
157.73309223563285
  0
LINE
  8
_1-c_
  6
CONTINUOUS
 62
    7
 10
130.48811543562653
 20
122.80440026851923
 11
172.98517502573424
 21
138.44634577237269
  0
LINE
  8
_1-b_
  6
CONTINUOUS
 62
    3
 10
100.68768802457291
 20
97.668349606040351
 11
145.0926694830822
 21
114.01252932653233
  0
LINE
  8
_1-b_
  6
CONTINUOUS
 62
    3
 10
99.535830906224092
 20
100.2280279672629
 11
144.313184553817
 21
116.70927697750361
  0
LINE
  8
_1-c_
  6
CONTINUOUS
 62
    7
 10
96.573926741316996
 20
106.81006334125995
 11
130.12487377599817
 21
119.15920340539635
  0
LINE
  8
_1-b_
  6
CONTINUOUS
 62
    3
 10
229.85597679674353
 20
155.76332278356358
 11
231.35749112845807
 21
156.3159919994103
  0
LINE
  8
_1-b_
  6
CONTINUOUS
 62
    7
 10
215.84442465622411
 20
157.73309223563285
 11
229.04721973646059
 21
162.59266188829332
  0
LINE
  8
_1-b_
  6
CONTINUOUS
 62
    7
 10
231.35749112845807
 20
156.31597962741915
 11
229.04721973646059
 21
162.59266188829332
  0
LINE
  8
_1-0_
  6
CONTINUOUS
 62
    7
 10
105.17327712930265
 20
87.70037244308638
 11
235.13513513513516
 21
146.18320361987966
  0
LINE
  8
_1-0_
  6
CONTINUOUS
 62
    7
 10
103.94218977974606
 20
90.436128982096093
 11
235.13513513513516
 21
149.47297792176943
  0
LINE
  8
_1-0_
  6
CONTINUOUS
 62
    7
 10
103.28560821038373
 20
91.895207384228698
 11
232.30857557472075
 21
149.95555135857416
  0
LINE
  8
_1-0_
  6
CONTINUOUS
 62
    7
 10
103.53181083390568
 20
91.348062262422317
 11
232.5547781982427
 21
149.40841242276332
  0
ARC
  8
_1-b_
  6
CONTINUOUS
 62
    3
 10
133.52777756479674
 20
114.54603432811594
 40
1.5999999239638045
 50
110.20680236816406
 51
200.20738220214844
  0
ARC
  8
_1-b_
  6
CONTINUOUS
 62
    3
 10
176.38809118652392
 20
133.83317669509228
 40
1.5999999239638045
 50
110.20680236816406
 51
200.20738220214844
  0
ARC
  8
_1-c_
  6
CONTINUOUS
 62
    7
 10
131.04078465147325
 20
121.30287356481358
 40
1.5999999239638045
 50
110.20722961425781
 51
200.20695495605469
  0
ARC
  8
_1-c_
  6
CONTINUOUS
 62
    7
 10
173.90109827320043
 20
140.58999118780764
 40
1.5999999239638045
 50
110.20748901367187
 51
200.20695495605469
  0
LINE
  8
_1-0_
  6
CONTINUOUS
 62
    7
 10
232.30857557472075
 20
149.95555135857416
 11
232.5547781982427
 21
149.40841242276332
  0
LINE
  8
_1-3_
  6
CONTINUOUS
 62
    7
 10
213.92694421716641
 20
157.48446211464864
 11
212.58530075485643
 21
160.16773666727744
  0
LINE
  8
_1-3_
  6
CONTINUOUS
 62
    7
 10
212.58530075485643
 20
160.16773666727744
 11
228.68499755859375
 21
168.21758506914614
  0
LINE
  8
_1-3_
  6
CONTINUOUS
 62
    7
 10
228.68499755859375
 20
168.21758506914614
 11
230.02664102090372
 21
165.53431051651734
  0
LINE
  8
_1-3_
  6
CONTINUOUS
 62
    7
 10
230.02664102090372
 20
165.53431051651734
 11
213.92694421716641
 21
157.48446211464864
  0
LINE
  8
_1-3_
  6
CONTINUOUS
 62
    7
 10
212.58530075485643
 20
160.16773666727744
 11
230.02664102090372
 21
165.53431051651734
  0
LINE
  8
_1-3_
  6
CONTINUOUS
 62
    3
 10
211.50861585462417
 20
160.46272205183192
 11
212.11145349451016
 21
156.39343807669468
  0
LINE
  8
_1-3_
  6
CONTINUOUS
 62
    3
 10
212.11145349451016
 20
156.39343807669468
 11
212.71431587837839
 21
157.59915047244004
  0
LINE
  8
_1-3_
  6
CONTINUOUS
 62
    3
 10
211.50861585462417
 20
160.46272205183192
 11
233.45261857316302
 21
171.43472341110134
  0
LINE
  8
_1-3_
  6
CONTINUOUS
 62
    3
 10
233.45261857316302
 20
171.43472341110134
 11
234.25630311708193
 21
171.83656568306083
  0
LINE
  8
_1-3_
  6
CONTINUOUS
 62
    3
 10
234.25630311708193
 20
171.83656568306083
 11
234.25630311708193
 21
201.43472341110134
  0
LINE
  8
_1-3_
  6
CONTINUOUS
 62
    7
 10
229.65629783836573
 20
170.96317734110556
 11
227.25630476668076
 21
170.96317734110556
  0
LINE
  8
_1-3_
  6
CONTINUOUS
 62
    7
 10
229.65629783836573
 20
175.3208648015152
 11
229.65629783836573
 21
183.320866451114
  0
LINE
  8
_1-3_
  6
CONTINUOUS
 62
    7
 10
229.65629783836573
 20
183.320866451114
 11
233.65631103515625
 21
183.320866451114
  0
LINE
  8
_1-3_
  6
CONTINUOUS
 62
    7
 10
233.65631103515625
 20
183.320866451114
 11
233.65631103515625
 21
175.3208648015152
  0
LINE
  8
_1-3_
  6
CONTINUOUS
 62
    7
 10
233.65631103515625
 20
175.3208648015152
 11
229.65629783836573
 21
175.3208648015152
  0
LINE
  8
_1-3_
  6
CONTINUOUS
 62
    7
 10
233.65631103515625
 20
183.320866451114
 11
229.65629783836573
 21
175.3208648015152
  0
LINE
  8
_1-2_
  6
CONTINUOUS
 62
    7
 10
225.30680063608531
 20
165.44467544076775
 11
206.22943775073904
 21
217.85930870195864
  0
LINE
  8
_1-2_
  6
CONTINUOUS
 62
    7
 10
211.91124993401607
 20
157.74484304000759
 11
196.60123258023648
 21
199.80877159258364
  0
LINE
  8
_1-2_
  6
CONTINUOUS
 62
    7
 10
206.22943775073904
 20
217.85930870195864
 11
199.85761487806167
 21
217.85930870195864
  0
LINE
  8
_1-2_
  6
CONTINUOUS
 62
    7
 10
196.60123258023648
 20
199.80877159258364
 11
192.55669258736276
 21
199.80877159258364
  0
LINE
  8
_1-2_
  6
CONTINUOUS
 62
    7
 10
241.38368348817568
 20
171.83656568306083
 11
258.30742913323479
 21
171.83656568306083
  0
LINE
  8
_1-2_
  6
CONTINUOUS
 62
    7
 10
241.38368348817568
 20
201.43472341110134
 11
258.30742913323479
 21
201.43472341110134
  0
LINE
  8
_1-2_
  6
CONTINUOUS
 62
    7
 10
198.10107669314823
 20
162.87878633999702
 11
191.09651307801943
 21
162.87878633999702
  0
LINE
  8
_1-3_
  6
CONTINUOUS
 62
    7
 10
229.65629783836573
 20
170.96317734110556
 11
229.65629783836573
 21
224.45993917862671
  0
LINE
  8
_1-3_
  6
CONTINUOUS
 62
    7
 10
227.25630476668076
 20
170.96317734110556
 11
227.25630476668076
 21
224.45993917862671
  0
LINE
  8
_1-6_
  6
CONTINUOUS
 62
    7
 10
227.42698875633448
 20
197.03786622676859
 11
215.60688740498313
 21
229.51332844435728
  0
LINE
  8
_1-6_
  6
CONTINUOUS
 62
    7
 10
215.60688740498313
 20
229.51332844435728
 11
211.40486433699326
 21
229.51332844435728
  0
CIRCLE
  8
_1-2_
  6
CONTINUOUS
 62
    7
 10
216.57059128220018
 20
151.31078905193749
 40
0.2036608554221488
  0
CIRCLE
  8
_1-2_
  6
CONTINUOUS
 62
    7
 10
216.78999617293076
 20
152.26147759448395
 40
0.2036608554221488
  0
CIRCLE
  8
_1-2_
  6
CONTINUOUS
 62
    7
 10
219.78832347972974
 20
152.11521591532431
 40
0.2036608554221488
  0
CIRCLE
  8
_1-2_
  6
CONTINUOUS
 62
    7
 10
229.07582875844597
 20
155.30162223130827
 40
0.2036608554221488
  0
CIRCLE
  8
_1-2_
  6
CONTINUOUS
 62
    7
 10
225.71185962573904
 20
157.0567500092327
 40
0.2036608554221488
  0
CIRCLE
  8
_1-2_
  6
CONTINUOUS
 62
    7
 10
226.29690634237755
 20
157.49552267472046
 40
0.2036608554221488
  0
CIRCLE
  8
_1-2_
  6
CONTINUOUS
 62
    7
 10
225.71185962573904
 20
157.49552267472046
 40
0.2036608554221488
  0
CIRCLE
  8
_1-2_
  6
CONTINUOUS
 62
    7
 10
224.3223860457137
 20
157.64178435388004
 40
0.2036608554221488
  0
CIRCLE
  8
_1-2_
  6
CONTINUOUS
 62
    7
 10
223.079174144848
 20
156.69109581133358
 40
0.2036608554221488
  0
CIRCLE
  8
_1-2_
  6
CONTINUOUS
 62
    7
 10
222.93291246568836
 20
155.44788391046791
 40
0.2036608554221488
  0
CIRCLE
  8
_1-2_
  6
CONTINUOUS
 62
    7
 10
222.27474728146117
 20
155.95979978752661
 40
0.2036608554221488
  0
CIRCLE
  8
_1-2_
  6
CONTINUOUS
 62
    7
 10
221.03153538059544
 20
155.74040726878718
 40
0.2036608554221488
  0
CIRCLE
  8
_1-2_
  6
CONTINUOUS
 62
    7
 10
220.30022698479732
 20
155.30162223130827
 40
0.2036608554221488
  0
CIRCLE
  8
_1-2_
  6
CONTINUOUS
 62
    7
 10
218.91075340477198
 20
154.49719536792145
 40
0.2036608554221488
  0
CIRCLE
  8
_1-2_
  6
CONTINUOUS
 62
    7
 10
217.44816135715794
 20
153.91214865128296
 40
0.2036608554221488
  0
CIRCLE
  8
_1-2_
  6
CONTINUOUS
 62
    7
 10
217.37501814558701
 20
152.81519842957687
 40
0.2036608554221488
  0
CIRCLE
  8
_1-2_
  6
CONTINUOUS
 62
    7
 10
219.05701508393159
 20
153.18085262747593
 40
0.2036608554221488
  0
CIRCLE
  8
_1-2_
  6
CONTINUOUS
 62
    7
 10
220.44648866395693
 20
154.13154117002239
 40
0.2036608554221488
  0
CIRCLE
  8
_1-2_
  6
CONTINUOUS
 62
    7
 10
227.75949838999156
 20
155.81353810836697
 40
0.2036608554221488
  0
CIRCLE
  8
_1-2_
  6
CONTINUOUS
 62
    7
 10
224.3223860457137
 20
155.95979978752661
 40
0.2036608554221488
  0
CIRCLE
  8
_1-2_
  6
CONTINUOUS
 62
    7
 10
226.73566663587417
 20
158.08056939135895
 40
0.2036608554221488
  0
CIRCLE
  8
_1-2_
  6
CONTINUOUS
 62
    7
 10
233.17113103093328
 20
153.40024514621535
 40
0.2036608554221488
  0
CIRCLE
  8
_1-2_
  6
CONTINUOUS
 62
    7
 10
231.15147771062078
 20
159.7987420317728
 40
0.2036608554221488
  0
CIRCLE
  8
_1-2_
  6
CONTINUOUS
 62
    7
 10
231.15147771062078
 20
162.13881755040666
 40
0.2036608554221488
  0
CIRCLE
  8
_1-2_
  6
CONTINUOUS
 62
    7
 10
231.15147771062078
 20
165.73894324983655
 40
0.2036608554221488
  0
CIRCLE
  8
_1-2_
  6
CONTINUOUS
 62
    7
 10
232.23152779244089
 20
162.49884249234077
 40
0.2036608554221488
  0
CIRCLE
  8
_1-2_
  6
CONTINUOUS
 62
    7
 10
226.83132687130492
 20
162.49884249234077
 40
0.2036608554221488
  0
CIRCLE
  8
_1-2_
  6
CONTINUOUS
 62
    7
 10
228.63140209301099
 20
161.41879241052067
 40
0.2036608554221488
  0
CIRCLE
  8
_1-2_
  6
CONTINUOUS
 62
    7
 10
229.35142723289698
 20
159.61874193279687
 40
0.2036608554221488
  0
CIRCLE
  8
_1-2_
  6
CONTINUOUS
 62
    7
 10
231.87150285050677
 20
159.43872946182984
 40
0.2036608554221488
  0
CIRCLE
  8
_1-2_
  6
CONTINUOUS
 62
    7
 10
232.05151532147383
 20
158.35869175200082
 40
0.2036608554221488
  0
CIRCLE
  8
_1-2_
  6
CONTINUOUS
 62
    7
 10
232.59152799039276
 20
154.39855348262796
 40
0.2036608554221488
  0
CIRCLE
  8
_1-2_
  6
CONTINUOUS
 62
    7
 10
229.89143990181589
 20
157.27865404217187
 40
0.2036608554221488
  0
CIRCLE
  8
_1-2_
  6
CONTINUOUS
 62
    7
 10
229.89143990181589
 20
162.31883002137374
 40
0.2036608554221488
  0
CIRCLE
  8
_1-2_
  6
CONTINUOUS
 62
    7
 10
232.77154046135982
 20
164.47890544103166
 40
0.2036608554221488
  0
CIRCLE
  8
_1-2_
  6
CONTINUOUS
 62
    7
 10
233.13154065931167
 20
162.31883002137374
 40
0.2036608554221488
  0
CIRCLE
  8
_1-2_
  6
CONTINUOUS
 62
    7
 10
228.63140209301099
 20
162.85884269029265
 40
0.2036608554221488
  0
CIRCLE
  8
_1-2_
  6
CONTINUOUS
 62
    7
 10
228.81138981999578
 20
163.75888030114567
 40
0.2036608554221488
  0
TEXT
  8
_1-6_
 62
    7
 10
177.55662041741448
 20
216.00217385715285
 40
2.5
 41
1
 50
0
  1
雨押え板　15ｘ90
  0
TEXT
  8
_1-6_
 62
    7
 10
179.92330396497573
 20
198.16433601931504
 40
2.5
 41
1
 50
0
  1
水切鉄板
  0
TEXT
  8
_1-6_
 62
    7
 10
179.92330396497573
 20
161.67784953282853
 40
2.5
 41
1
 50
0
  1
面戸漆喰
  0
TEXT
  8
_1-6_
 62
    7
 10
205.91785121608427
 20
228.4236776974189
 40
2.5
 41
1
 50
0
  1
外壁
  0
TEXT
  8
_1-6_
 62
    7
 10
183.14983677219701
 20
157.82508777448817
 40
2.5
 41
1
 50
0
  1
及び葺き土
  0
LINE
  8
_1-2_
  6
CONTINUOUS
 62
    7
 10
258.30742913323479
 20
201.43472341110134
 11
241.38368348817568
 21
201.43472341110134
  0
LINE
  8
_1-2_
  6
CONTINUOUS
 62
    7
 10
258.30742913323479
 20
211.43472341110134
 11
241.38368348817568
 21
211.43472341110134
  0
LINE
  8
_1-2_
  6
CONTINUOUS
 62
    7
 10
271.51237299536234
 20
211.43472341110134
 11
241.38368348817568
 21
211.43472341110134
  0
LINE
  8
_1-2_
  6
CONTINUOUS
 62
    7
 10
258.30742913323479
 20
171.83656568306083
 11
258.30742913323479
 21
201.43472341110134
  0
TEXT
  8
_1-2_
 62
    7
 10
257.80742748363599
 20
184.76064454708109
 40
2.5
 41
1
 50
90
  1
150
  0
POINT
  8
_1-2_
 62
    7
 10
258.30742913323479
 20
171.83656568306083
  0
POINT
  8
_1-2_
 62
    7
 10
258.30742913323479
 20
201.43472341110134
  0
POINT
  8
_1-2_
 62
    7
 10
258.30742913323479
 20
201.43472341110134
  0
POINT
  8
_1-2_
 62
    7
 10
258.30742913323479
 20
211.43472341110134
  0
LINE
  8
_1-2_
  6
CONTINUOUS
 62
    7
 10
258.30742913323479
 20
201.43472341110134
 11
258.30742913323479
 21
211.43472341110134
  0
TEXT
  8
_1-2_
 62
    7
 10
257.80742913323479
 20
205.18472341110134
 40
2.5
 41
1
 50
90
  1
50
  0
POINT
  8
_1-2_
 62
    7
 10
271.51237299536234
 20
211.43472341110134
  0
TEXT
  8
_1-2_
 62
    7
 10
274.08917339888751
 20
208.28644258025548
 40
3
 41
1
 50
0
  1
下葺き材立上げ長さは、300ｍｍ以上かつ
  0
TEXT
  8
_1-2_
 62
    7
 10
274.47579647215611
 20
202.6393585760853
 40
3
 41
1
 50
0
  1
雨押え板上端より50mm以上とする
  0
ARC
  8
_1-2_
  6
CONTINUOUS
 62
    6
 10
204.5223259495672
 20
153.67520195518466
 40
11.984084220585748
 50
341.79697906961371
 51
22.743319993910699
  0
CIRCLE
  8
_1-2_
  6
CONTINUOUS
 62
    7
 10
219.07957673172069
 20
156.1623550469894
 40
0.2036608554221488
  0
CIRCLE
  8
_1-2_
  6
CONTINUOUS
 62
    7
 10
219.29898162245127
 20
157.11304358953583
 40
0.2036608554221488
  0
CIRCLE
  8
_1-2_
  6
CONTINUOUS
 62
    7
 10
221.41973885429246
 20
159.34876136297333
 40
0.2036608554221488
  0
CIRCLE
  8
_1-2_
  6
CONTINUOUS
 62
    7
 10
219.95714680667845
 20
158.76371464633485
 40
0.2036608554221488
  0
CIRCLE
  8
_1-2_
  6
CONTINUOUS
 62
    7
 10
219.88400359510752
 20
157.66676442462875
 40
0.2036608554221488
  0
CIRCLE
  8
_1-2_
  6
CONTINUOUS
 62
    7
 10
218.56767322665308
 20
156.42355252376305
 40
0.2036608554221488
  0
CIRCLE
  8
_1-2_
  6
CONTINUOUS
 62
    7
 10
218.64081643822408
 20
157.81302610378839
 40
0.2036608554221488
  0
CIRCLE
  8
_1-2_
  6
CONTINUOUS
 62
    7
 10
224.93476768818928
 20
153.84751211071111
 40
0.2036608554221488
  0
CIRCLE
  8
_1-2_
  6
CONTINUOUS
 62
    7
 10
225.15417257891986
 20
154.79820065325754
 40
0.2036608554221488
  0
CIRCLE
  8
_1-2_
  6
CONTINUOUS
 62
    7
 10
227.27492981076108
 20
157.03391842669504
 40
0.2036608554221488
  0
CIRCLE
  8
_1-2_
  6
CONTINUOUS
 62
    7
 10
225.81233776314704
 20
156.44887171005655
 40
0.2036608554221488
  0
CIRCLE
  8
_1-2_
  6
CONTINUOUS
 62
    7
 10
225.73919455157611
 20
155.35192148835046
 40
0.2036608554221488
  0
CIRCLE
  8
_1-2_
  6
CONTINUOUS
 62
    7
 10
224.4228641831217
 20
154.10870958748475
 40
0.2036608554221488
  0
CIRCLE
  8
_1-2_
  6
CONTINUOUS
 62
    7
 10
224.49600739469267
 20
155.49818316751009
 40
0.2036608554221488
  0
CIRCLE
  8
_1-2_
  6
CONTINUOUS
 62
    7
 10
225.00285130396216
 20
159.08995052522368
 40
0.2036608554221488
  0
CIRCLE
  8
_1-2_
  6
CONTINUOUS
 62
    7
 10
225.22225619469273
 20
160.04063906777014
 40
0.2036608554221488
  0
CIRCLE
  8
_1-2_
  6
CONTINUOUS
 62
    7
 10
227.34301342653396
 20
162.27635684120764
 40
0.2036608554221488
  0
CIRCLE
  8
_1-2_
  6
CONTINUOUS
 62
    7
 10
225.88042137891992
 20
161.69131012456916
 40
0.2036608554221488
  0
CIRCLE
  8
_1-2_
  6
CONTINUOUS
 62
    7
 10
225.80727816734898
 20
160.59435990286306
 40
0.2036608554221488
  0
CIRCLE
  8
_1-2_
  6
CONTINUOUS
 62
    7
 10
224.49094779889458
 20
159.35114800199733
 40
0.2036608554221488
  0
CIRCLE
  8
_1-2_
  6
CONTINUOUS
 62
    7
 10
224.56409101046555
 20
160.7406215820227
 40
0.2036608554221488
  0
CIRCLE
  8
_1-2_
  6
CONTINUOUS
 62
    7
 10
227.93044678219647
 20
158.2048635201761
 40
0.2036608554221488
  0
CIRCLE
  8
_1-2_
  6
CONTINUOUS
 62
    7
 10
228.14985167292704
 20
159.15555206272256
 40
0.2036608554221488
  0
CIRCLE
  8
_1-2_
  6
CONTINUOUS
 62
    7
 10
230.27060890476827
 20
161.39126983616006
 40
0.2036608554221488
  0
CIRCLE
  8
_1-2_
  6
CONTINUOUS
 62
    7
 10
228.80801685715423
 20
160.80622311952158
 40
0.2036608554221488
  0
CIRCLE
  8
_1-2_
  6
CONTINUOUS
 62
    7
 10
228.73487364558329
 20
159.70927289781548
 40
0.2036608554221488
  0
CIRCLE
  8
_1-2_
  6
CONTINUOUS
 62
    7
 10
227.41854327712889
 20
158.46606099694975
 40
0.2036608554221488
  0
CIRCLE
  8
_1-2_
  6
CONTINUOUS
 62
    7
 10
227.49168648869986
 20
159.85553457697512
 40
0.2036608554221488
  0
CIRCLE
  8
_1-2_
  6
CONTINUOUS
 62
    7
 10
217.51365356894419
 20
156.02618781544362
 40
0.2036608554221488
  0
CIRCLE
  8
_1-2_
  6
CONTINUOUS
 62
    7
 10
217.73305845967477
 20
156.97687635799005
 40
0.2036608554221488
  0
CIRCLE
  8
_1-2_
  6
CONTINUOUS
 62
    7
 10
219.85381569151599
 20
159.21259413142755
 40
0.2036608554221488
  0
CIRCLE
  8
_1-2_
  6
CONTINUOUS
 62
    7
 10
218.39122364390195
 20
158.62754741478906
 40
0.2036608554221488
  0
CIRCLE
  8
_1-2_
  6
CONTINUOUS
 62
    7
 10
218.31808043233102
 20
157.53059719308297
 40
0.2036608554221488
  0
CIRCLE
  8
_1-2_
  6
CONTINUOUS
 62
    7
 10
217.00175006387661
 20
156.28738529221727
 40
0.2036608554221488
  0
CIRCLE
  8
_1-2_
  6
CONTINUOUS
 62
    7
 10
217.07489327544758
 20
157.6768588722426
 40
0.2036608554221488
  0
CIRCLE
  8
_1-2_
  6
CONTINUOUS
 62
    7
 10
222.41567390459232
 20
156.0942714312165
 40
0.2036608554221488
  0
CIRCLE
  8
_1-2_
  6
CONTINUOUS
 62
    7
 10
222.6350787953229
 20
157.04495997376293
 40
0.2036608554221488
  0
CIRCLE
  8
_1-2_
  6
CONTINUOUS
 62
    7
 10
224.75583602716412
 20
159.28067774720043
 40
0.2036608554221488
  0
CIRCLE
  8
_1-2_
  6
CONTINUOUS
 62
    7
 10
223.29324397955008
 20
158.69563103056194
 40
0.2036608554221488
  0
CIRCLE
  8
_1-2_
  6
CONTINUOUS
 62
    7
 10
223.22010076797915
 20
157.59868080885585
 40
0.2036608554221488
  0
CIRCLE
  8
_1-2_
  6
CONTINUOUS
 62
    7
 10
221.90377039952475
 20
156.35546890799014
 40
0.2036608554221488
  0
CIRCLE
  8
_1-2_
  6
CONTINUOUS
 62
    7
 10
221.97691361109571
 20
157.74494248801548
 40
0.2036608554221488
  0
CIRCLE
  8
_1-2_
  6
CONTINUOUS
 62
    7
 10
222.00717220995497
 20
152.69009064257199
 40
0.2036608554221488
  0
CIRCLE
  8
_1-2_
  6
CONTINUOUS
 62
    7
 10
222.22657710068555
 20
153.64077918511842
 40
0.2036608554221488
  0
CIRCLE
  8
_1-2_
  6
CONTINUOUS
 62
    7
 10
224.34733433252677
 20
155.87649695855592
 40
0.2036608554221488
  0
CIRCLE
  8
_1-2_
  6
CONTINUOUS
 62
    7
 10
222.88474228491273
 20
155.29145024191743
 40
0.2036608554221488
  0
CIRCLE
  8
_1-2_
  6
CONTINUOUS
 62
    7
 10
222.8115990733418
 20
154.19450002021134
 40
0.2036608554221488
  0
CIRCLE
  8
_1-2_
  6
CONTINUOUS
 62
    7
 10
221.49526870488739
 20
152.95128811934563
 40
0.2036608554221488
  0
CIRCLE
  8
_1-2_
  6
CONTINUOUS
 62
    7
 10
221.56841191645836
 20
154.34076169937097
 40
0.2036608554221488
  0
LINE
  8
_1-1_
  6
DASHED1
 62
    3
 10
103.61388662307375
 20
91.165674369157955
 11
234.52294426995357
 21
150.07477631440034
  0
LINE
  8
_1-3_
  6
DASHED1
 62
    3
 10
234.52294426995357
 20
150.07477631440034
 11
234.52294426995357
 21
211.43472341110134
  0
LINE
  8
_1-2_
  6
CONTINUOUS
 62
    7
 10
203.3179194074994
 20
148.54561405053653
 11
198.10107669314823
 21
162.87878633999702
  0
LINE
  8
_1-2_
  6
CONTINUOUS
 62
    7
 10
203.3179194074994
 20
148.54561405053653
 11
217.95991376820641
 21
154.85681851635852
  0
LINE
  8
_1-2_
  6
CONTINUOUS
 62
    7
 10
74.288701852211943
 20
152.73297284100508
 11
121.06129414326436
 21
152.73297284100508
  0
LINE
  8
_1-2_
  6
CONTINUOUS
 62
    7
 10
69.896546024509234
 20
159.41668123812289
 11
118.62862664300043
 21
159.41668123812289
  0
LINE
  8
_1-2_
  6
CONTINUOUS
 62
    7
 10
54.046602605748689
 20
172.59313634923987
 11
113.83278511665964
 21
172.59313634923987
  0
LINE
  8
_1-2_
  6
CONTINUOUS
 62
    7
 10
52.786564796943793
 20
184.38980514938768
 11
109.53915982633025
 21
184.38980514938768
  0
TEXT
  8
_1-5_
 62
    7
 10
44.338133111779626
 20
183.65780392208615
 40
2.5
 41
1
 50
0
  1
桟瓦
  0
TEXT
  8
_1-5_
 62
    7
 10
44.022605066950121
 20
178.26098055452914
 40
2.5
 41
1
 50
0
  1
瓦桟　
  0
TEXT
  8
_1-5_
 62
    7
 10
44.024163937832697
 20
171.26098220412797
 40
2.5
 41
1
 50
0
  1
流し桟
  0
TEXT
  8
_1-5_
 62
    7
 10
44.024164968831968
 20
164.26098385372677
 40
2.5
 41
1
 50
0
  1
下葺き材
  0
TEXT
  8
_1-5_
 62
    7
 10
58.470071943005848
 20
158.36449288033151
 40
2.5
 41
1
 50
0
  1
ｔ＝12
  0
TEXT
  8
_1-4_
 62
    7
 10
44.467129677314887
 20
158.47361384211359
 40
2.5
 41
1
 50
0
  1
化粧野地板
  0
TEXT
  8
_1-4_
 62
    7
 10
62.232988301747412
 20
151.24124475427575
 40
2.5
 41
1
 50
0
  1
60ｘ60
  0
TEXT
  8
_1-6_
 62
    7
 10
58.028663012407776
 20
164.26098385372677
 40
2.5
 41
1
 50
0
  1
ゴムアス系ルーフィング
  0
TEXT
  8
_1-6_
 62
    7
 10
44.218269137698115
 20
151.24124475427575
 40
2.5
 41
1
 50
0
  1
化粧垂木
  0
TEXT
  8
_1-6_
 62
    7
 10
58.028664043407019
 20
178.26098055452914
 40
2.5
 41
1
 50
0
  1
15×30　（樹脂桟木）
  0
TEXT
  8
_1-2_
 62
    7
 10
57.60186922505045
 20
174.92700761888082
 40
2.5
 41
1
 50
0
  1
※　地域により瓦桟木の大きさは、異なります
  0
LINE
  8
_1-2_
  6
CONTINUOUS
 62
    7
 10
111.81362667599241
 20
165.14556884765625
 11
92.815576130115346
 21
165.14556884765625
  0
LINE
  8
_1-2_
  6
CONTINUOUS
 62
    7
 10
271.51237299536234
 20
150.07477631440034
 11
241.38368348817568
 21
150.07477631440034
  0
POINT
  8
_1-2_
 62
    7
 10
271.51237299536234
 20
150.07477631440034
  0
LINE
  8
_1-2_
  6
CONTINUOUS
 62
    7
 10
271.51237299536234
 20
211.43472341110134
 11
271.51237299536234
 21
150.07477631440034
  0
TEXT
  8
_1-2_
 62
    7
 10
271.01237299536234
 20
175.75474986275083
 40
2.5
 41
1
 50
90
  1
300 以上
  0
ENDSEC
  0
EOF
