  0
SECTION
  2
HEADER
  9
$ACADVER
  1
AC1009
  9
$INSBASE
 10
0
 20
0
 30
0
  9
$EXTMIN
 10
0
 20
0
  9
$EXTMAX
 10
420
 20
297
  9
$LIMMIN
 10
0
 20
0
  9
$LIMMAX
 10
420
 20
297
  9
$LTSCALE
 40
1
  0
ENDSEC
  0
SECTION
  2
TABLES
  0
TABLE
  2
LTYPE
 70
     9
  0
LTYPE
  2
CONTINUOUS
 70
    64
  3
実線
 72
    65
 73
     0
 40
0.0
  0
LTYPE
  2
DASHED1
 70
    64
  3
--  --  --  --  --  --  --  --  
 72
    65
 73
     2
 40
2.5
 49
1.25
 49
-1.25
  0
LTYPE
  2
DASHED2
 70
    64
  3
----    ----    ----    ----    
 72
    65
 73
     2
 40
5.0
 49
2.5
 49
-2.5
  0
LTYPE
  2
DASHED3
 70
    64
  3
------  ------  ------  ------  
 72
    65
 73
     2
 40
5.0
 49
3.75
 49
-1.25
  0
LTYPE
  2
CENTER1
 70
    64
  3
----- - ----- - ----- - ----- - 
 72
    65
 73
     4
 40
10.0
 49
6.25
 49
-1.25
 49
1.25
 49
-1.25
  0
LTYPE
  2
CENTER2
 70
    64
  3
----------  --  ----------  --  
 72
    65
 73
     4
 40
20.0
 49
12.5
 49
-2.5
 49
2.5
 49
-2.5
  0
LTYPE
  2
PHANTOM1
 70
    64
  3
--- - - --- - - --- - - --- - - 
 72
    65
 73
     6
 40
10.0
 49
3.25
 49
-1.25
 49
1.25
 49
-1.25
 49
1.25
 49
-1.25
  0
LTYPE
  2
PHANTOM2
 70
    64
  3
--------  -  -  --------  -  -  
 72
    65
 73
     6
 40
20.0
 49
10.0
 49
-2.5
 49
1.25
 49
-2.5
 49
1.25
 49
-2.5
  0
LTYPE
  2
DOT
 70
    64
  3
-   -   -   -   -   -   -   -   
 72
    65
 73
     2
 40
2.5
 49
0.625
 49
-1.875
  0
LTYPE
  2
DUMMY
 70
    64
  3
ダミー
 72
    65
 73
     0
 40
0.0
  0
LTYPE
  2
RAND1
 70
    64
  3
ランダム線1
 72
    65
 73
     4
 40
10.0
 49
1.0
 49
-2.0
 49
3.0
 49
-4.0
  0
LTYPE
  2
RAND2
 70
    64
  3
ランダム線2
 72
    65
 73
     4
 40
14.0
 49
2.0
 49
-3.0
 49
4.0
 49
-5.0
  0
LTYPE
  2
RAND3
 70
    64
  3
ランダム線3
 72
    65
 73
     4
 40
18.0
 49
3.0
 49
-4.0
 49
5.0
 49
-6.0
  0
LTYPE
  2
RAND4
 70
    64
  3
ランダム線4
 72
    65
 73
     4
 40
22.0
 49
4.0
 49
-5.0
 49
6.0
 49
-7.0
  0
LTYPE
  2
RAND5
 70
    64
  3
ランダム線5
 72
    65
 73
     4
 40
26.0
 49
5.0
 49
-6.0
 49
7.0
 49
-8.0
  0
LTYPE
  2
LONG1
 70
    64
  3
----------  --  ----------  --  
 72
    65
 73
     4
 40
40.0
 49
32.5
 49
-2.5
 49
2.5
 49
-2.5
  0
LTYPE
  2
LONG2
 70
    64
  3
--------  -  -  --------  -  -  
 72
    65
 73
     6
 40
40.0
 49
30.0
 49
-2.5
 49
1.25
 49
-2.5
 49
1.25
 49
-2.5
  0
LTYPE
  2
LONG3
 70
    64
  3
+++++++++++++++..+++++++++++++++
 72
    65
 73
     2
 40
40.0
 49
37.5
 49
-2.5
  0
LTYPE
  2
LONG4
 70
    64
  3
+++++++++++++++..+++++++++++++++
 72
    65
 73
     2
 40
80.0
 49
75.0
 49
-5.0
  0
LTYPE
  2
LONG5
 70
    64
  3
----------  --  ----------  --  
 72
    65
 73
     4
 40
60.0
 49
37.5
 49
-7.5
 49
7.5
 49
-7.5
  0
LTYPE
  2
dashed
 70
   64
  3
-------   -------------   ------
 72
   65
 73
    2
 40
7.5
 49
6
 49
-1.5
  0
LTYPE
  2
dashed_spaced
 70
   64
  3
----        --------        ----
 72
   65
 73
    2
 40
12
 49
6
 49
-6
  0
LTYPE
  2
long_dashed_dotted
 70
   64
  3
------------- --- --------------
 72
   65
 73
    4
 40
15.25
 49
12
 49
-1.5
 49
0.25
 49
-1.5
  0
LTYPE
  2
long_dashed_double-dotted
 70
   64
  3
----------- --- --- ------------
 72
   65
 73
    6
 40
17
 49
12
 49
-1.5
 49
0.25
 49
-1.5
 49
0.25
 49
-1.5
  0
LTYPE
  2
long_dashed_triplicate-dotted
 70
   64
  3
--------- --- --- --- ----------
 72
   65
 73
    8
 40
18.75
 49
12
 49
-1.5
 49
0.25
 49
-1.5
 49
0.25
 49
-1.5
 49
0.25
 49
-1.5
  0
LTYPE
  2
dotted
 70
   64
  3
   -       -       -       -    
 72
   65
 73
    2
 40
1.75
 49
0.25
 49
-1.5
  0
LTYPE
  2
chain
 70
   64
  3
-------------- -- --------------
 72
   65
 73
    4
 40
18.5
 49
12
 49
-1.5
 49
3.5
 49
-1.5
  0
LTYPE
  2
chain_double_dash
 70
   64
  3
------------ -- -- -------------
 72
   65
 73
    6
 40
23.5
 49
12
 49
-1.5
 49
3.5
 49
-1.5
 49
3.5
 49
-1.5
  0
LTYPE
  2
dashed_dotted
 70
   64
  3
-----------     -     ----------
 72
   65
 73
    4
 40
9.25
 49
6
 49
-1.5
 49
0.25
 49
-1.5
  0
LTYPE
  2
double-dashed_dotted
 70
   64
  3
------   -----------   -   -----
 72
   65
 73
    6
 40
16.75
 49
6
 49
-1.5
 49
6
 49
-1.5
 49
0.25
 49
-1.5
  0
LTYPE
  2
dashed_double-dotted
 70
   64
  3
---------    -    -    ---------
 72
   65
 73
    6
 40
11
 49
6
 49
-1.5
 49
0.25
 49
-1.5
 49
0.25
 49
-1.5
  0
LTYPE
  2
double-dashed_double-dotted
 70
   64
  3
-----   ---------   -   -   ----
 72
   65
 73
    8
 40
18.5
 49
6
 49
-1.5
 49
6
 49
-1.5
 49
0.25
 49
-1.5
 49
0.25
 49
-1.5
  0
LTYPE
  2
dashed_triplicate-dotted
 70
   64
  3
-------    -    -    -    ------
 72
   65
 73
    8
 40
12.75
 49
6
 49
-1.5
 49
0.25
 49
-1.5
 49
0.25
 49
-1.5
 49
0.25
 49
-1.5
  0
LTYPE
  2
double-dashed_triplicate-dotted
 70
   64
  3
-----  ---------  -  -  -  -----
 72
   65
 73
   10
 40
20.25
 49
6
 49
-1.5
 49
6
 49
-1.5
 49
0.25
 49
-1.5
 49
0.25
 49
-1.5
 49
0.25
 49
-1.5
  0
LTYPE
  2
undefined
 70
   64
  3
--------------------------------
 72
   65
 73
    0
 40
0
  0
ENDTAB
  0
TABLE
  2
STYLE
  5
3
100
AcDbSymbolTable
 70
     1
  0
STYLE
  5
10
100
AcDbSymbolTableRecord
100
AcDbTextStyleTableRecord
  2
STANDARD
 70
     0
 40
0.0
 41
1.0
 50
0.0
 71
     0
 42
0.2
  3
txt
  4
bigfont.shx
  0
STYLE
  5
26
100
AcDbSymbolTableRecord
100
AcDbTextStyleTableRecord
  2
TATEGAKI
 70
    68
 40
0.0
 41
1.0
 50
0.0
 71
     0
 42
1.0
  3
txt
  4
bigfont.shx
  0
ENDTAB
  0
TABLE
  2
LAYER
 70
   12
  0
LAYER
  2
_0-0_
 70
   64
 62
    7
  6
CONTINUOUS
  0
LAYER
  2
_1-0_
 70
   64
 62
    7
  6
CONTINUOUS
  0
LAYER
  2
_1-1_
 70
   64
 62
    7
  6
CONTINUOUS
  0
LAYER
  2
_1-2_
 70
   64
 62
    7
  6
CONTINUOUS
  0
LAYER
  2
_1-3_
 70
   64
 62
    7
  6
CONTINUOUS
  0
LAYER
  2
_1-4_
 70
   64
 62
    7
  6
CONTINUOUS
  0
LAYER
  2
_1-5_
 70
   64
 62
    7
  6
CONTINUOUS
  0
LAYER
  2
_1-6_
 70
   64
 62
    7
  6
CONTINUOUS
  0
LAYER
  2
_1-a_
 70
   64
 62
    7
  6
CONTINUOUS
  0
LAYER
  2
_1-b_
 70
   64
 62
    7
  6
CONTINUOUS
  0
LAYER
  2
_1-c_
 70
   64
 62
    7
  6
CONTINUOUS
  0
LAYER
  2
ADD_LINE
 70
   64
 62
    7
  6
CONTINUOUS
  0
ENDTAB
  0
ENDSEC
  0
SECTION
  2
BLOCKS
  0
ENDSEC
  0
SECTION
  2
ENTITIES
  0
LINE
  8
_1-2_
  6
CONTINUOUS
 62
    7
 10
176.99288857949747
 20
177.04925537109375
 11
186.99289682749156
 21
177.04925537109375
  0
LINE
  8
_1-2_
  6
CONTINUOUS
 62
    7
 10
177.39288742477831
 20
176.64925652581294
 11
186.59289798221073
 21
176.64925652581294
  0
LINE
  8
_0-0_
  6
CONTINUOUS
 62
    5
 10
6.7567526327597136
 20
280.13513513513516
 11
406.75677325274495
 21
280.13513513513516
  0
LINE
  8
_0-0_
  6
CONTINUOUS
 62
    5
 10
406.75677325274495
 20
10.13513513513513
 11
6.7567526327597136
 21
10.13513513513513
  0
LINE
  8
_0-0_
  6
CONTINUOUS
 62
    5
 10
406.75677325274495
 20
30.135133073136615
 11
6.7567402607685949
 21
30.135133073136615
  0
LINE
  8
_0-0_
  6
CONTINUOUS
 62
    5
 10
371.75678150073907
 20
10.13513513513513
 11
371.75678150073907
 21
30.135133073136615
  0
LINE
  8
_0-0_
  6
CONTINUOUS
 62
    5
 10
137.02703939901818
 20
30.135133073136615
 11
137.02703939901818
 21
10.13513513513513
  0
LINE
  8
_0-0_
  6
CONTINUOUS
 62
    5
 10
214.86486486486487
 20
30.135133073136615
 11
214.86486486486487
 21
10.13513513513513
  0
LINE
  8
_0-0_
  6
CONTINUOUS
 62
    5
 10
137.02703939901818
 20
20.135134104135886
 11
214.86486486486487
 21
20.135134104135886
  0
LINE
  8
_0-0_
  6
CONTINUOUS
 62
    5
 10
396.48648648648651
 20
25.945945945945951
 11
383.91891891891896
 21
13.378379924877265
  0
LINE
  8
_1-1_
  6
CONTINUOUS
 62
    7
 10
40.483542777396536
 20
109.3699852195946
 11
44.860765611803203
 21
111.33974229967272
  0
LINE
  8
_1-1_
  6
CONTINUOUS
 62
    7
 10
44.860765611803203
 20
111.33974229967272
 11
46.091865333350938
 21
108.60397338867187
  0
LINE
  8
_1-1_
  6
CONTINUOUS
 62
    7
 10
46.091865333350938
 20
108.60397338867187
 11
41.714642498944272
 21
106.63421630859375
  0
LINE
  8
_1-1_
  6
CONTINUOUS
 62
    7
 10
84.574956120671459
 20
125.9213586755701
 11
83.343844027132604
 21
128.65712758657097
  0
LINE
  8
_1-1_
  6
CONTINUOUS
 62
    7
 10
83.343844027132604
 20
128.65712758657097
 11
87.721079233530403
 21
130.62688466664909
  0
LINE
  8
_1-1_
  6
CONTINUOUS
 62
    7
 10
87.721079233530403
 20
130.62688466664909
 11
88.952166583086992
 21
127.89111575564823
  0
LINE
  8
_1-1_
  6
CONTINUOUS
 62
    7
 10
88.952166583086992
 20
127.89111575564823
 11
84.574956120671459
 21
125.9213586755701
  0
LINE
  8
_1-1_
  6
CONTINUOUS
 62
    7
 10
127.43526974239866
 20
145.20850104254646
 11
126.20415764885981
 21
147.94426995354732
  0
LINE
  8
_1-1_
  6
CONTINUOUS
 62
    7
 10
126.20415764885981
 20
147.94426995354732
 11
130.5813928552576
 21
149.91402703362544
  0
LINE
  8
_1-1_
  6
CONTINUOUS
 62
    7
 10
130.5813928552576
 20
149.91402703362544
 11
131.81248020481419
 21
147.17825812262458
  0
LINE
  8
_1-1_
  6
CONTINUOUS
 62
    7
 10
131.81248020481419
 20
147.17825812262458
 11
127.43526974239866
 21
145.20850104254646
  0
LINE
  8
_1-1_
  6
CONTINUOUS
 62
    7
 10
170.29558336412586
 20
164.49566815350508
 11
169.06447127058701
 21
167.23141232052365
  0
LINE
  8
_1-1_
  6
CONTINUOUS
 62
    7
 10
173.44170647698482
 20
169.20118177259292
 11
174.67279382654141
 21
166.46541286159206
  0
LINE
  8
_1-1_
  6
CONTINUOUS
 62
    7
 10
174.67279382654141
 20
166.46541286159206
 11
170.29558336412586
 21
164.49566815350508
  0
LINE
  8
_1-1_
  6
CONTINUOUS
 62
    7
 10
126.20415764885981
 20
147.94426995354732
 11
131.81248020481419
 21
147.17825812262458
  0
LINE
  8
_1-1_
  6
CONTINUOUS
 62
    7
 10
83.343844027132604
 20
128.65712758657097
 11
88.952166583086992
 21
127.89111575564823
  0
LINE
  8
_1-b_
  6
CONTINUOUS
 62
    3
 10
45.729452597128386
 20
109.557260049356
 11
47.418662406302786
 21
110.1790020916913
  0
LINE
  8
_1-b_
  6
CONTINUOUS
 62
    3
 10
45.038612984322214
 20
111.43415296399917
 11
45.729452597128386
 21
109.557260049356
  0
LINE
  8
_1-1_
  6
CONTINUOUS
 62
    7
 10
40.483555149387655
 20
109.36999759158573
 11
44.86077798379435
 21
111.33975467166385
  0
LINE
  8
_1-1_
  6
CONTINUOUS
 62
    7
 10
84.574956120671459
 20
125.9213586755701
 11
83.34386877111487
 21
128.65712758657097
  0
LINE
  8
_1-1_
  6
CONTINUOUS
 62
    7
 10
83.34386877111487
 20
128.65712758657097
 11
87.721079233530403
 21
130.62688466664909
  0
LINE
  8
_1-1_
  6
CONTINUOUS
 62
    7
 10
87.721079233530403
 20
130.62688466664909
 11
88.952191327069258
 21
127.89111575564823
  0
LINE
  8
_1-1_
  6
CONTINUOUS
 62
    7
 10
88.952191327069258
 20
127.89111575564823
 11
84.574956120671459
 21
125.9213586755701
  0
LINE
  8
_1-1_
  6
CONTINUOUS
 62
    7
 10
83.34386877111487
 20
128.65712758657097
 11
88.952191327069258
 21
127.89111575564823
  0
LINE
  8
_1-b_
  6
CONTINUOUS
 62
    3
 10
88.589766218855573
 20
128.84440241633234
 11
90.278963656038854
 21
129.46614445866766
  0
LINE
  8
_1-b_
  6
CONTINUOUS
 62
    3
 10
87.898938978040547
 20
130.72129533097552
 11
88.589766218855573
 21
128.84440241633234
  0
LINE
  8
_1-b_
  6
CONTINUOUS
 62
    3
 10
32.921076594172291
 20
113.46918466928844
 11
87.119454048775339
 21
133.4180429819468
  0
LINE
  8
_1-1_
  6
CONTINUOUS
 62
    7
 10
83.34386877111487
 20
128.65713995856208
 11
87.721079233530403
 21
130.62689703864021
  0
LINE
  8
_1-1_
  6
CONTINUOUS
 62
    7
 10
127.43526974239866
 20
145.20850104254646
 11
126.20415764885981
 21
147.94426995354732
  0
LINE
  8
_1-1_
  6
CONTINUOUS
 62
    7
 10
126.20415764885981
 20
147.94426995354732
 11
130.5813928552576
 21
149.91402703362544
  0
LINE
  8
_1-1_
  6
CONTINUOUS
 62
    7
 10
130.5813928552576
 20
149.91402703362544
 11
131.81248020481419
 21
147.17825812262458
  0
LINE
  8
_1-1_
  6
CONTINUOUS
 62
    7
 10
131.81248020481419
 20
147.17825812262458
 11
127.43526974239866
 21
145.20850104254646
  0
LINE
  8
_1-1_
  6
CONTINUOUS
 62
    7
 10
126.20415764885981
 20
147.94426995354732
 11
131.81248020481419
 21
147.17825812262458
  0
LINE
  8
_1-b_
  6
CONTINUOUS
 62
    3
 10
75.065101417335313
 20
129.50903815192146
 11
130.75922785578547
 21
150.00843769795188
  0
LINE
  8
_1-b_
  6
CONTINUOUS
 62
    3
 10
131.45007984058279
 20
148.1315447833087
 11
133.13930202174831
 21
148.75328682564401
  0
LINE
  8
_1-b_
  6
CONTINUOUS
 62
    3
 10
130.75922785578547
 20
150.00843769795188
 11
131.45007984058279
 21
148.1315447833087
  0
LINE
  8
_1-b_
  6
CONTINUOUS
 62
    3
 10
75.781390215899478
 20
132.75632703626479
 11
129.97976767050255
 21
152.70518534892315
  0
LINE
  8
_1-b_
  6
CONTINUOUS
 62
    3
 10
74.832532728040547
 20
130.70213111671242
 11
75.249864732896981
 21
129.56828761745143
  0
LINE
  8
_1-1_
  6
CONTINUOUS
 62
    7
 10
126.20415764885981
 20
147.94426995354732
 11
130.5813928552576
 21
149.91402703362544
  0
LINE
  8
_1-1_
  6
CONTINUOUS
 62
    7
 10
130.5813928552576
 20
149.91402703362544
 11
131.81248020481419
 21
147.17825812262458
  0
LINE
  8
_1-1_
  6
CONTINUOUS
 62
    7
 10
170.29558336412586
 20
164.49564340952281
 11
169.06447127058701
 21
167.23141232052365
  0
LINE
  8
_1-1_
  6
CONTINUOUS
 62
    7
 10
173.44170647698482
 20
169.20118177259292
 11
174.67279382654141
 21
166.46538811760982
  0
LINE
  8
_1-1_
  6
CONTINUOUS
 62
    7
 10
174.67279382654141
 20
166.46538811760982
 11
170.29558336412586
 21
164.49564340952281
  0
LINE
  8
_1-1_
  6
CONTINUOUS
 62
    7
 10
126.20415764885981
 20
147.94426995354732
 11
131.81248020481419
 21
147.17825812262458
  0
LINE
  8
_1-1_
  6
CONTINUOUS
 62
    7
 10
126.20418239284207
 20
147.94426995354732
 11
130.5813928552576
 21
149.91402703362544
  0
LINE
  8
_1-1_
  6
CONTINUOUS
 62
    7
 10
130.5813928552576
 20
149.91402703362544
 11
131.81250494879646
 21
147.17825812262458
  0
LINE
  8
_1-1_
  6
CONTINUOUS
 62
    7
 10
126.20418239284207
 20
147.94426995354732
 11
131.81250494879646
 21
147.17825812262458
  0
LINE
  8
_1-b_
  6
CONTINUOUS
 62
    3
 10
131.45007984058279
 20
148.1315447833087
 11
133.13927727776604
 21
148.75328682564401
  0
LINE
  8
_1-b_
  6
CONTINUOUS
 62
    3
 10
130.75925259976773
 20
150.00843769795188
 11
131.45007984058279
 21
148.1315447833087
  0
LINE
  8
ADD_LINE
  6
DOT
 62
    3
 10
130.5813928552576
 20
149.91403940561656
 11
130.5813928552576
 21
150.3728299527555
  0
LINE
  8
ADD_LINE
  6
DOT
 62
    3
 10
130.5813928552576
 20
149.91403940561656
 11
130.5813928552576
 21
149.53100256017737
  0
LINE
  8
_1-1_
  6
CONTINUOUS
 62
    7
 10
126.20418239284207
 20
147.94428232553844
 11
130.5813928552576
 21
149.91403940561656
  0
LINE
  8
_1-1_
  6
CONTINUOUS
 62
    7
 10
170.29558336412586
 20
164.49564340952281
 11
169.06447127058701
 21
167.23141232052365
  0
LINE
  8
_1-1_
  6
CONTINUOUS
 62
    7
 10
173.44170647698482
 20
169.20118177259292
 11
174.67279382654141
 21
166.46538811760982
  0
LINE
  8
_1-1_
  6
CONTINUOUS
 62
    7
 10
174.67279382654141
 20
166.46538811760982
 11
170.29558336412586
 21
164.49564340952281
  0
LINE
  8
_1-b_
  6
CONTINUOUS
 62
    3
 10
117.9254150390625
 20
148.79618051889781
 11
173.61954147751268
 21
169.29558006492823
  0
LINE
  8
_1-b_
  6
CONTINUOUS
 62
    3
 10
118.64170383762669
 20
152.04346940324115
 11
172.84008129222974
 21
171.99232771589951
  0
LINE
  8
_1-b_
  6
CONTINUOUS
 62
    3
 10
117.69284634976775
 20
149.98927348368878
 11
118.11017835462417
 21
148.85542998442779
  0
LINE
  8
_1-1_
  6
CONTINUOUS
 62
    7
 10
169.05776565139359
 20
167.24628345386404
 11
173.43500085779141
 21
169.21602816195102
  0
LINE
  8
_1-1_
  6
CONTINUOUS
 62
    7
 10
173.43500085779141
 20
169.21602816195102
 11
174.666088207348
 21
166.48028399493245
  0
LINE
  8
_1-1_
  6
CONTINUOUS
 62
    7
 10
169.05776565139359
 20
167.24628345386404
 11
173.43500085779141
 21
169.21602816195102
  0
LINE
  8
_1-1_
  6
CONTINUOUS
 62
    7
 10
173.43500085779141
 20
169.21602816195102
 11
174.666088207348
 21
166.48028399493245
  0
LINE
  8
_1-1_
  6
CONTINUOUS
 62
    7
 10
169.05776565139359
 20
167.24628345386404
 11
174.666088207348
 21
166.48028399493245
  0
LINE
  8
_1-1_
  6
CONTINUOUS
 62
    7
 10
169.05776565139359
 20
167.24628345386404
 11
173.43500085779141
 21
169.21602816195102
  0
LINE
  8
_1-1_
  6
CONTINUOUS
 62
    7
 10
173.43500085779141
 20
169.21602816195102
 11
174.666088207348
 21
166.48028399493245
  0
LINE
  8
_1-1_
  6
CONTINUOUS
 62
    7
 10
169.05776565139359
 20
167.24628345386404
 11
174.666088207348
 21
166.48028399493245
  0
LINE
  8
_1-1_
  6
CONTINUOUS
 62
    7
 10
169.05779039537586
 20
167.24628345386404
 11
173.43500085779141
 21
169.21602816195102
  0
LINE
  8
_1-1_
  6
CONTINUOUS
 62
    7
 10
173.43500085779141
 20
169.21602816195102
 11
174.66611295133023
 21
166.48028399493245
  0
LINE
  8
_1-1_
  6
CONTINUOUS
 62
    7
 10
169.05779039537586
 20
167.2463081978463
 11
173.43500085779141
 21
169.21605290593328
  0
LINE
  8
_1-b_
  6
CONTINUOUS
 62
    3
 10
172.66224629170188
 20
172.47208878800677
 11
172.83337567303633
 21
172.00719884923987
  0
LINE
  8
_1-b_
  6
CONTINUOUS
 62
    3
 10
172.66227103568414
 20
172.47206404402451
 11
172.83337567303633
 21
172.00719884923987
  0
LINE
  8
_1-b_
  6
CONTINUOUS
 62
    3
 10
129.80866303315034
 20
153.17005054370779
 11
129.97976767050255
 21
152.70518534892315
  0
LINE
  8
_1-b_
  6
CONTINUOUS
 62
    3
 10
131.3101526208826
 20
153.72273213154563
 11
133.13927727776604
 21
148.75328682564401
  0
LINE
  8
_1-b_
  6
CONTINUOUS
 62
    3
 10
129.80866303315034
 20
153.17005054370779
 11
129.97976767050255
 21
152.70518534892315
  0
LINE
  8
_1-b_
  6
CONTINUOUS
 62
    3
 10
131.31017736486487
 20
153.72273213154563
 11
133.13930202174831
 21
148.75328682564401
  0
LINE
  8
_1-b_
  6
CONTINUOUS
 62
    3
 10
86.948349411423152
 20
133.88292054872255
 11
87.119454048775339
 21
133.4180429819468
  0
LINE
  8
_1-b_
  6
CONTINUOUS
 62
    3
 10
88.449838999155403
 20
134.43557739257812
 11
90.278963656038854
 21
129.46614445866766
  0
LINE
  8
_1-b_
  6
CONTINUOUS
 62
    3
 10
44.088023417704818
 20
114.59577818174621
 11
44.259140427048152
 21
114.13090061497044
  0
LINE
  8
_1-b_
  6
CONTINUOUS
 62
    3
 10
45.589550121410468
 20
115.14843502560178
 11
47.418662406302786
 21
110.1790020916913
  0
LINE
  8
_1-c_
  6
CONTINUOUS
 62
    7
 10
72.345539814717085
 20
137.4589827254012
 11
74.832532728040547
 21
130.70214348870354
  0
LINE
  8
_1-c_
  6
CONTINUOUS
 62
    7
 10
115.20585343644426
 20
156.74610034839529
 11
117.69284634976775
 21
149.98927348368878
  0
LINE
  8
_1-c_
  6
CONTINUOUS
 62
    7
 10
73.294384930584897
 20
139.51316627296242
 11
115.79144452069258
 21
155.15511177681589
  0
LINE
  8
_1-4_
  6
CONTINUOUS
 62
    7
 10
106.21621621621622
 20
149.18918918918919
 11
91.144483411634297
 21
175.29417708113388
  0
LINE
  8
_1-4_
  6
CONTINUOUS
 62
    7
 10
91.144483411634297
 20
175.29417708113388
 11
83.513513513513516
 21
175.29417708113388
  0
LINE
  8
_1-b_
  6
CONTINUOUS
 62
    3
 10
33.243243243243228
 20
107.0926233240076
 11
45.038612984322214
 21
111.43415296399917
  0
LINE
  8
_1-b_
  6
CONTINUOUS
 62
    3
 10
33.243243243243228
 20
110.0762650773332
 11
44.259140427048152
 21
114.13090061497044
  0
LINE
  8
_1-b_
  6
CONTINUOUS
 62
    3
 10
33.243243243243228
 20
110.6041160789696
 11
87.898938978040547
 21
130.72129533097552
  0
LINE
  8
_1-c_
  6
CONTINUOUS
 62
    7
 10
33.243243243243228
 20
121.26000069283151
 11
72.931143270956511
 21
135.86796940983953
  0
LINE
  8
_1-0_
  6
CONTINUOUS
 62
    7
 10
33.243243243243228
 20
84.618790085251277
 11
181.99290507548565
 21
151.55613667256125
  0
LINE
  8
_1-0_
  6
CONTINUOUS
 62
    7
 10
33.243243243243228
 20
97.777800688872475
 11
181.99290507548565
 21
164.71514727618245
  0
LINE
  8
_1-1_
  6
DASHED1
 62
    3
 10
33.243243243243228
 20
101.9448233939506
 11
181.99290507548565
 21
168.88218235325169
  0
LINE
  8
_1-b_
  6
CONTINUOUS
 62
    3
 10
173.92709680505703
 20
173.67113268053211
 11
175.99961564347552
 21
168.04044156461148
  0
LINE
  8
_1-1_
  6
CONTINUOUS
 62
    3
 10
172.42555772936024
 20
173.11846346468539
 11
173.92709680505703
 21
173.67113268053211
  0
LINE
  8
_1-b_
  6
CONTINUOUS
 62
    3
 10
172.42555772936024
 20
173.11846346468539
 11
172.84008129222974
 21
171.99232771589951
  0
LINE
  8
_1-1_
  6
CONTINUOUS
 62
    7
 10
172.42555772936024
 20
173.11846346468539
 11
169.95728363861909
 21
178.60349912901182
  0
LINE
  8
_1-1_
  6
CONTINUOUS
 62
    7
 10
323.50227974556589
 20
109.3699852195946
 11
319.12504453916807
 21
111.33974229967272
  0
LINE
  8
_1-1_
  6
CONTINUOUS
 62
    7
 10
319.12504453916807
 20
111.33974229967272
 11
317.89395718961151
 21
108.60397338867187
  0
LINE
  8
_1-1_
  6
CONTINUOUS
 62
    7
 10
317.89395718961151
 20
108.60397338867187
 11
322.27116765202703
 21
106.63421630859375
  0
LINE
  8
_1-1_
  6
CONTINUOUS
 62
    7
 10
279.41085403029984
 20
125.9213586755701
 11
280.6419661238387
 21
128.65712758657097
  0
LINE
  8
_1-1_
  6
CONTINUOUS
 62
    7
 10
280.6419661238387
 20
128.65712758657097
 11
276.26473091744089
 21
130.62688466664909
  0
LINE
  8
_1-1_
  6
CONTINUOUS
 62
    7
 10
276.26473091744089
 20
130.62688466664909
 11
275.03364356788433
 21
127.89111575564823
  0
LINE
  8
_1-1_
  6
CONTINUOUS
 62
    7
 10
275.03364356788433
 20
127.89111575564823
 11
279.41085403029984
 21
125.9213586755701
  0
LINE
  8
_1-1_
  6
CONTINUOUS
 62
    7
 10
236.55054040857266
 20
145.20850104254646
 11
237.78165250211151
 21
147.94426995354732
  0
LINE
  8
_1-1_
  6
CONTINUOUS
 62
    7
 10
237.78165250211151
 20
147.94426995354732
 11
233.4044172957137
 21
149.91402703362544
  0
LINE
  8
_1-1_
  6
CONTINUOUS
 62
    7
 10
233.4044172957137
 20
149.91402703362544
 11
232.17332994615711
 21
147.17825812262458
  0
LINE
  8
_1-1_
  6
CONTINUOUS
 62
    7
 10
232.17332994615711
 20
147.17825812262458
 11
236.55054040857266
 21
145.20850104254646
  0
LINE
  8
_1-1_
  6
CONTINUOUS
 62
    7
 10
190.54410367398648
 20
169.20118177259292
 11
189.3130163244299
 21
166.46541286159206
  0
LINE
  8
_1-1_
  6
CONTINUOUS
 62
    7
 10
189.3130163244299
 20
166.46541286159206
 11
193.69022678684544
 21
164.49566815350508
  0
LINE
  8
_1-1_
  6
CONTINUOUS
 62
    7
 10
237.78165250211151
 20
147.94426995354732
 11
232.17332994615711
 21
147.17825812262458
  0
LINE
  8
_1-1_
  6
CONTINUOUS
 62
    7
 10
280.6419661238387
 20
128.65712758657097
 11
275.03364356788433
 21
127.89111575564823
  0
LINE
  8
_1-b_
  6
CONTINUOUS
 62
    3
 10
318.25635755384292
 20
109.557260049356
 11
316.5671353726774
 21
110.1790020916913
  0
LINE
  8
_1-b_
  6
CONTINUOUS
 62
    3
 10
318.94720953864021
 20
111.43415296399917
 11
318.25635755384292
 21
109.557260049356
  0
LINE
  8
_1-1_
  6
CONTINUOUS
 62
    7
 10
323.50225500158365
 20
109.36999759158573
 11
319.12501979518584
 21
111.33975467166385
  0
LINE
  8
_1-1_
  6
CONTINUOUS
 62
    7
 10
279.41085403029984
 20
125.9213586755701
 11
280.64194137985646
 21
128.65712758657097
  0
LINE
  8
_1-1_
  6
CONTINUOUS
 62
    7
 10
280.64194137985646
 20
128.65712758657097
 11
276.26473091744089
 21
130.62688466664909
  0
LINE
  8
_1-1_
  6
CONTINUOUS
 62
    7
 10
276.26473091744089
 20
130.62688466664909
 11
275.03361882390203
 21
127.89111575564823
  0
LINE
  8
_1-1_
  6
CONTINUOUS
 62
    7
 10
275.03361882390203
 20
127.89111575564823
 11
279.41085403029984
 21
125.9213586755701
  0
LINE
  8
_1-1_
  6
CONTINUOUS
 62
    7
 10
280.64194137985646
 20
128.65712758657097
 11
275.03361882390203
 21
127.89111575564823
  0
LINE
  8
_1-b_
  6
CONTINUOUS
 62
    3
 10
275.39604393211573
 20
128.84440241633234
 11
273.70684649493245
 21
129.46614445866766
  0
LINE
  8
_1-b_
  6
CONTINUOUS
 62
    3
 10
276.08687117293078
 20
130.72129533097552
 11
275.39604393211573
 21
128.84440241633234
  0
LINE
  8
_1-b_
  6
CONTINUOUS
 62
    3
 10
331.06473355679901
 20
113.46918466928844
 11
276.86635610219594
 21
133.4180429819468
  0
LINE
  8
_1-1_
  6
CONTINUOUS
 62
    7
 10
280.64194137985646
 20
128.65713995856208
 11
276.26473091744089
 21
130.62689703864021
  0
LINE
  8
_1-1_
  6
CONTINUOUS
 62
    7
 10
236.55054040857266
 20
145.20850104254646
 11
237.78165250211151
 21
147.94426995354732
  0
LINE
  8
_1-1_
  6
CONTINUOUS
 62
    7
 10
237.78165250211151
 20
147.94426995354732
 11
233.4044172957137
 21
149.91402703362544
  0
LINE
  8
_1-1_
  6
CONTINUOUS
 62
    7
 10
233.4044172957137
 20
149.91402703362544
 11
232.17332994615711
 21
147.17825812262458
  0
LINE
  8
_1-1_
  6
CONTINUOUS
 62
    7
 10
232.17332994615711
 20
147.17825812262458
 11
236.55054040857266
 21
145.20850104254646
  0
LINE
  8
_1-1_
  6
CONTINUOUS
 62
    7
 10
237.78165250211151
 20
147.94426995354732
 11
232.17332994615711
 21
147.17825812262458
  0
LINE
  8
_1-b_
  6
CONTINUOUS
 62
    3
 10
288.92070873363599
 20
129.50903815192146
 11
233.22658229518584
 21
150.00843769795188
  0
LINE
  8
_1-b_
  6
CONTINUOUS
 62
    3
 10
232.53573031038852
 20
148.1315447833087
 11
230.846508129223
 21
148.75328682564401
  0
LINE
  8
_1-b_
  6
CONTINUOUS
 62
    3
 10
233.22658229518584
 20
150.00843769795188
 11
232.53573031038852
 21
148.1315447833087
  0
LINE
  8
_1-b_
  6
CONTINUOUS
 62
    3
 10
288.20441993507183
 20
132.75632703626479
 11
234.00604248046875
 21
152.70518534892315
  0
LINE
  8
_1-b_
  6
CONTINUOUS
 62
    3
 10
289.15327742293078
 20
130.70213111671242
 11
288.73594541807432
 21
129.56828761745143
  0
LINE
  8
_1-1_
  6
CONTINUOUS
 62
    7
 10
237.78165250211151
 20
147.94426995354732
 11
233.4044172957137
 21
149.91402703362544
  0
LINE
  8
_1-1_
  6
CONTINUOUS
 62
    7
 10
233.4044172957137
 20
149.91402703362544
 11
232.17332994615711
 21
147.17825812262458
  0
LINE
  8
_1-1_
  6
CONTINUOUS
 62
    7
 10
193.69022678684544
 20
164.49564340952281
 11
194.9213388803843
 21
167.23141232052365
  0
LINE
  8
_1-1_
  6
CONTINUOUS
 62
    7
 10
190.54410367398648
 20
169.20118177259292
 11
189.3130163244299
 21
166.46538811760982
  0
LINE
  8
_1-1_
  6
CONTINUOUS
 62
    7
 10
237.78165250211151
 20
147.94426995354732
 11
232.17332994615711
 21
147.17825812262458
  0
LINE
  8
_1-1_
  6
CONTINUOUS
 62
    7
 10
237.78162775812925
 20
147.94426995354732
 11
233.4044172957137
 21
149.91402703362544
  0
LINE
  8
_1-1_
  6
CONTINUOUS
 62
    7
 10
233.4044172957137
 20
149.91402703362544
 11
232.17330520217484
 21
147.17825812262458
  0
LINE
  8
_1-1_
  6
CONTINUOUS
 62
    7
 10
237.78162775812925
 20
147.94426995354732
 11
232.17330520217484
 21
147.17825812262458
  0
LINE
  8
_1-b_
  6
CONTINUOUS
 62
    3
 10
232.53573031038852
 20
148.1315447833087
 11
230.84653287320526
 21
148.75328682564401
  0
LINE
  8
_1-b_
  6
CONTINUOUS
 62
    3
 10
233.22655755120357
 20
150.00843769795188
 11
232.53573031038852
 21
148.1315447833087
  0
LINE
  8
ADD_LINE
  6
DOT
 62
    3
 10
233.4044172957137
 20
149.91403940561656
 11
233.4044172957137
 21
150.3728299527555
  0
LINE
  8
ADD_LINE
  6
DOT
 62
    3
 10
233.4044172957137
 20
149.91403940561656
 11
233.4044172957137
 21
149.53100256017737
  0
LINE
  8
_1-1_
  6
CONTINUOUS
 62
    7
 10
237.78162775812925
 20
147.94428232553844
 11
233.4044172957137
 21
149.91403940561656
  0
LINE
  8
_1-1_
  6
CONTINUOUS
 62
    7
 10
193.69022678684544
 20
164.49564340952281
 11
194.9213388803843
 21
167.23141232052365
  0
LINE
  8
_1-1_
  6
CONTINUOUS
 62
    7
 10
190.54410367398648
 20
169.20118177259292
 11
189.3130163244299
 21
166.46538811760982
  0
LINE
  8
_1-1_
  6
CONTINUOUS
 62
    7
 10
189.3130163244299
 20
166.46538811760982
 11
193.69022678684544
 21
164.49564340952281
  0
LINE
  8
_1-b_
  6
CONTINUOUS
 62
    3
 10
246.0603951119088
 20
148.79618051889781
 11
190.36626867345862
 21
169.29558006492823
  0
LINE
  8
_1-b_
  6
CONTINUOUS
 62
    3
 10
245.34410631334461
 20
152.04346940324115
 11
191.14572885874156
 21
171.99232771589951
  0
LINE
  8
_1-b_
  6
CONTINUOUS
 62
    3
 10
246.29296380120357
 20
149.98927348368878
 11
245.87563179634714
 21
148.85542998442779
  0
LINE
  8
_1-1_
  6
CONTINUOUS
 62
    7
 10
194.92804449957771
 20
167.24628345386404
 11
190.5508092931799
 21
169.21602816195102
  0
LINE
  8
_1-1_
  6
CONTINUOUS
 62
    7
 10
190.5508092931799
 20
169.21602816195102
 11
189.31972194362334
 21
166.48028399493245
  0
LINE
  8
_1-1_
  6
CONTINUOUS
 62
    7
 10
193.69693240603885
 20
164.51051454286318
 11
194.92804449957771
 21
167.24628345386404
  0
LINE
  8
_1-1_
  6
CONTINUOUS
 62
    7
 10
194.92804449957771
 20
167.24628345386404
 11
190.5508092931799
 21
169.21602816195102
  0
LINE
  8
_1-1_
  6
CONTINUOUS
 62
    7
 10
190.5508092931799
 20
169.21602816195102
 11
189.31972194362334
 21
166.48028399493245
  0
LINE
  8
_1-1_
  6
CONTINUOUS
 62
    7
 10
194.92804449957771
 20
167.24628345386404
 11
190.5508092931799
 21
169.21602816195102
  0
LINE
  8
_1-1_
  6
CONTINUOUS
 62
    7
 10
190.5508092931799
 20
169.21602816195102
 11
189.31972194362334
 21
166.48028399493245
  0
LINE
  8
_1-1_
  6
CONTINUOUS
 62
    7
 10
190.5508092931799
 20
169.21602816195102
 11
189.31969719964107
 21
166.48028399493245
  0
LINE
  8
_1-b_
  6
CONTINUOUS
 62
    3
 10
189.68212230785474
 20
167.43357065561656
 11
187.99292487067146
 21
168.05528795396961
  0
LINE
  8
_1-b_
  6
CONTINUOUS
 62
    3
 10
191.32356385926943
 20
172.47208878800677
 11
191.15243447793497
 21
172.00719884923987
  0
LINE
  8
_1-b_
  6
CONTINUOUS
 62
    3
 10
191.32353911528716
 20
172.47206404402451
 11
191.15243447793497
 21
172.00719884923987
  0
LINE
  8
_1-b_
  6
CONTINUOUS
 62
    3
 10
189.8220495275549
 20
173.02474563186234
 11
187.99292487067146
 21
168.05528795396961
  0
LINE
  8
_1-b_
  6
CONTINUOUS
 62
    3
 10
189.82202478357266
 20
173.02474563186234
 11
187.99290012668919
 21
168.05528795396961
  0
LINE
  8
_1-b_
  6
CONTINUOUS
 62
    3
 10
234.17714711782097
 20
153.17005054370779
 11
234.00604248046875
 21
152.70518534892315
  0
LINE
  8
_1-b_
  6
CONTINUOUS
 62
    3
 10
232.6756575300887
 20
153.72273213154563
 11
230.84653287320526
 21
148.75328682564401
  0
LINE
  8
_1-b_
  6
CONTINUOUS
 62
    3
 10
234.17714711782097
 20
153.17005054370779
 11
234.00604248046875
 21
152.70518534892315
  0
LINE
  8
_1-b_
  6
CONTINUOUS
 62
    3
 10
232.67563278610643
 20
153.72273213154563
 11
230.846508129223
 21
148.75328682564401
  0
LINE
  8
_1-b_
  6
CONTINUOUS
 62
    3
 10
277.03746073954818
 20
133.88292054872255
 11
276.86635610219594
 21
133.4180429819468
  0
LINE
  8
_1-b_
  6
CONTINUOUS
 62
    3
 10
275.53597115181589
 20
134.43557739257812
 11
273.70684649493245
 21
129.46614445866766
  0
LINE
  8
_1-b_
  6
CONTINUOUS
 62
    3
 10
319.89777436127537
 20
114.59577818174621
 11
319.72666972392318
 21
114.13090061497044
  0
LINE
  8
_1-b_
  6
CONTINUOUS
 62
    3
 10
318.39626002956084
 20
115.14843502560178
 11
316.5671353726774
 21
110.1790020916913
  0
LINE
  8
_1-c_
  6
CONTINUOUS
 62
    7
 10
291.64027033625422
 20
137.4589827254012
 11
289.15327742293078
 21
130.70214348870354
  0
LINE
  8
_1-c_
  6
CONTINUOUS
 62
    7
 10
248.77995671452703
 20
156.74610034839529
 11
246.29296380120357
 21
149.98927348368878
  0
LINE
  8
_1-c_
  6
CONTINUOUS
 62
    7
 10
290.69141284839526
 20
139.51316627296242
 11
248.19436563027872
 21
155.15511177681589
  0
LINE
  8
_1-b_
  6
CONTINUOUS
 62
    3
 10
330.74256690772808
 20
107.0926233240076
 11
318.94720953864021
 21
111.43415296399917
  0
LINE
  8
_1-b_
  6
CONTINUOUS
 62
    3
 10
330.74256690772808
 20
110.0762650773332
 11
319.72666972392318
 21
114.13090061497044
  0
LINE
  8
_1-b_
  6
CONTINUOUS
 62
    3
 10
330.74256690772808
 20
110.6041160789696
 11
276.08687117293078
 21
130.72129533097552
  0
LINE
  8
_1-c_
  6
CONTINUOUS
 62
    7
 10
330.74256690772808
 20
121.26000069283151
 11
291.05465450802365
 21
135.86796940983953
  0
LINE
  8
_1-0_
  6
CONTINUOUS
 62
    7
 10
330.74256690772808
 20
84.618790085251277
 11
181.99290507548565
 21
151.55613667256125
  0
LINE
  8
_1-0_
  6
CONTINUOUS
 62
    7
 10
330.74256690772808
 20
101.06755024677999
 11
181.99290507548565
 21
168.00490920608109
  0
LINE
  8
_1-0_
  6
CONTINUOUS
 62
    7
 10
330.74256690772808
 20
102.82209654112121
 11
181.99290507548565
 21
169.75944312843117
  0
LINE
  8
_1-0_
  6
CONTINUOUS
 62
    7
 10
330.74256690772808
 20
102.16414168074324
 11
181.99290507548565
 21
169.10151301203547
  0
LINE
  8
_1-1_
  6
CONTINUOUS
 62
    3
 10
191.56025242161107
 20
173.11846346468539
 11
190.05871334591427
 21
173.67113268053211
  0
LINE
  8
_1-b_
  6
CONTINUOUS
 62
    3
 10
191.56025242161107
 20
173.11846346468539
 11
191.14572885874156
 21
171.99232771589951
  0
LINE
  8
_1-1_
  6
CONTINUOUS
 62
    7
 10
205.33511599978885
 20
174.44185824007602
 11
192.57346900733742
 21
179.13905788112331
  0
LINE
  8
_1-1_
  6
CONTINUOUS
 62
    7
 10
189.82202478357266
 20
173.02474563186234
 11
192.57346900733742
 21
179.13905788112331
  0
LINE
  8
_1-1_
  6
CONTINUOUS
 62
    7
 10
191.56025242161107
 20
173.11846346468539
 11
194.02852651235222
 21
178.60349912901182
  0
LINE
  8
_1-1_
  6
CONTINUOUS
 62
    7
 10
205.33511599978885
 20
174.44185824007602
 11
192.57346900733742
 21
179.13905788112331
  0
LINE
  8
_1-0_
  6
CONTINUOUS
 62
    7
 10
33.243243243243228
 20
101.06755024677999
 11
181.40559428447003
 21
167.74061873152451
  0
LINE
  8
_1-0_
  6
CONTINUOUS
 62
    7
 10
181.84332770270271
 20
167.93760557432432
 11
181.99290507548565
 21
168.00490920608109
  0
LINE
  8
_1-0_
  6
CONTINUOUS
 62
    7
 10
33.243243243243228
 20
102.16414168074324
 11
180.99524008261193
 21
168.65257056983742
  0
LINE
  8
_1-0_
  6
CONTINUOUS
 62
    7
 10
181.43297350084461
 20
168.84954504064612
 11
181.99290507548565
 21
169.10151301203547
  0
LINE
  8
_1-0_
  6
CONTINUOUS
 62
    7
 10
33.243243243243228
 20
102.82209654112121
 11
180.74901271510768
 21
169.19969713365711
  0
LINE
  8
_1-0_
  6
CONTINUOUS
 62
    7
 10
181.18673376134925
 20
169.39667160446581
 11
181.99290507548565
 21
169.75944312843117
  0
LINE
  8
_1-3_
  6
DASHED1
 62
    7
 10
180.74901271510768
 20
169.19969713365711
 11
181.18674613334039
 21
169.39667160446581
  0
LINE
  8
_1-3_
  6
DASHED1
 62
    7
 10
180.99524008261193
 20
168.65257056983742
 11
181.43297350084461
 21
168.84954504064612
  0
LINE
  8
_1-3_
  6
DASHED1
 62
    7
 10
181.40559428447003
 20
167.74061873152451
 11
181.84332770270271
 21
167.93760557432432
  0
LINE
  8
_1-3_
  6
CONTINUOUS
 62
    7
 10
229.29040857263516
 20
135.81551216744089
 11
260.70853568412161
 21
190.23324502480997
  0
LINE
  8
_1-3_
  6
CONTINUOUS
 62
    7
 10
260.70853568412161
 20
190.23324502480997
 11
266.45621634818411
 21
190.23324502480997
  0
LINE
  8
_1-3_
  6
CONTINUOUS
 62
    7
 10
162.0271466229413
 20
229.09060091585727
 11
159.45424260319891
 21
229.09060091585727
  0
LINE
  8
_1-1_
  6
CONTINUOUS
 62
    7
 10
40.483545870394323
 20
109.3699852195946
 11
46.091865333350938
 21
108.60397338867187
  0
LINE
  8
_1-3_
  6
CONTINUOUS
 62
    7
 10
40.483545870394323
 20
109.3699852195946
 11
41.71464559194203
 21
106.63421630859375
  0
LINE
  8
_1-b_
  6
CONTINUOUS
 62
    3
 10
173.61954147751268
 20
169.29558006492823
 11
174.31039346230997
 21
167.41867477829393
  0
LINE
  8
_1-1_
  6
CONTINUOUS
 62
    7
 10
193.69693240603885
 20
164.51051454286318
 11
194.92804449957771
 21
167.24628345386404
  0
LINE
  8
_1-3_
  6
CONTINUOUS
 62
    7
 10
194.92804449957771
 20
167.24628345386404
 11
189.3130163244299
 21
166.46541286159206
  0
LINE
  8
_1-b_
  6
CONTINUOUS
 62
    3
 10
189.68104594462628
 20
167.43396655933279
 11
187.99290012668919
 21
168.05528795396961
  0
LINE
  8
_1-b_
  6
CONTINUOUS
 62
    3
 10
190.36626867345862
 20
169.29558006492823
 11
189.68104594462628
 21
167.43396655933279
  0
LINE
  8
_1-b_
  6
CONTINUOUS
 62
    3
 10
174.31039346230997
 20
167.41867477829393
 11
175.99961564347552
 21
168.04044156461148
  0
LINE
  8
_1-3_
  6
CONTINUOUS
 62
    7
 10
323.50225500158365
 20
109.36999759158573
 11
322.46342839421453
 21
106.54771134660051
  0
LINE
  8
_1-1_
  6
CONTINUOUS
 62
    7
 10
323.50225500158365
 20
109.3699852195946
 11
317.89395718961151
 21
108.60397338867187
  0
LINE
  8
_1-1_
  6
DASHED1
 62
    3
 10
227.5889876082137
 20
148.36394026472763
 11
181.99290507548565
 21
168.88218235325169
  0
LINE
  8
_1-1_
  6
DASHED1
 62
    3
 10
136.56243401604729
 20
147.99983256572003
 11
181.99290507548565
 21
168.44354577966641
  0
LINE
  8
_1-1_
  6
DASHED1
 62
    3
 10
227.42483602987755
 20
147.99917685019005
 11
181.99290507548565
 21
168.44354577966641
  0
LINE
  8
_1-1_
  6
DASHED1
 62
    3
 10
227.42483602987755
 20
147.99917685019005
 11
330.65955084723396
 21
101.5435502335832
  0
LINE
  8
_1-a_
  6
CONTINUOUS
 62
    7
 10
167.14009465398016
 20
135.8759493441195
 11
178.69422293998102
 21
161.55178997967695
  0
LINE
  8
_1-a_
  6
CONTINUOUS
 62
    7
 10
212.73616481471709
 20
115.35771962758658
 11
224.29029310071792
 21
141.03354789115289
  0
LINE
  8
_1-a_
  6
CONTINUOUS
 62
    7
 10
167.14009465398016
 20
135.8759493441195
 11
212.73616481471709
 21
115.35771962758658
  0
LINE
  8
_1-a_
  6
CONTINUOUS
 62
    7
 10
151.7914766878695
 20
114.15753751187712
 11
139.60020323057432
 21
141.24924118454393
  0
LINE
  8
_1-a_
  6
CONTINUOUS
 62
    7
 10
197.22194774730787
 20
134.60123835383234
 11
185.03067429001268
 21
161.69295439849029
  0
LINE
  8
_1-a_
  6
CONTINUOUS
 62
    7
 10
151.7914766878695
 20
114.15753751187712
 11
197.22194774730787
 21
134.60123835383234
  0
LINE
  8
_1-2_
  6
CONTINUOUS
 62
    7
 10
181.99290507548565
 20
164.71514727618245
 11
181.99290507548565
 21
151.55613667256125
  0
LINE
  8
_1-2_
  6
CONTINUOUS
 62
    7
 10
163.99289517789273
 20
161.65943867451438
 11
163.99289517789273
 21
161.22080210092906
  0
LINE
  8
_1-2_
  6
CONTINUOUS
 62
    7
 10
199.9928902290963
 20
161.6594510465055
 11
199.9928902290963
 21
161.22080210092906
  0
LINE
  8
_1-2_
  6
CONTINUOUS
 62
    7
 10
163.99289517789273
 20
161.65943867451438
 11
181.99290507548565
 21
169.75944312843117
  0
LINE
  8
_1-2_
  6
CONTINUOUS
 62
    7
 10
199.99287785710516
 20
161.6594510465055
 11
181.99290507548565
 21
169.75944312843117
  0
LINE
  8
_1-2_
  6
CONTINUOUS
 62
    7
 10
176.99288857949747
 20
177.04925537109375
 11
176.99288857949747
 21
167.50943570523648
  0
LINE
  8
_1-2_
  6
CONTINUOUS
 62
    7
 10
186.99289682749156
 20
177.04925537109375
 11
186.99289682749156
 21
167.50944807722763
  0
LINE
  8
_1-2_
  6
CONTINUOUS
 62
    7
 10
181.29289781725086
 20
176.64925652581294
 11
181.29289781725086
 21
169.44443986222552
  0
LINE
  8
_1-2_
  6
CONTINUOUS
 62
    7
 10
182.69288758973818
 20
176.64925652581294
 11
182.69288758973818
 21
169.44445223421664
  0
LINE
  8
_1-2_
  6
CONTINUOUS
 62
    7
 10
181.29289781725086
 20
180.30890387457771
 11
182.69288758973818
 21
180.30890387457771
  0
LINE
  8
_1-2_
  6
CONTINUOUS
 62
    7
 10
181.29289781725086
 20
179.90890502929687
 11
182.69288758973818
 21
179.90890502929687
  0
LINE
  8
_1-2_
  6
CONTINUOUS
 62
    7
 10
181.29289781725086
 20
179.50890618401607
 11
182.69288758973818
 21
179.50890618401607
  0
LINE
  8
_1-2_
  6
CONTINUOUS
 62
    7
 10
181.29289781725086
 20
179.10890733873524
 11
182.69288758973818
 21
179.10890733873524
  0
LINE
  8
_1-2_
  6
CONTINUOUS
 62
    7
 10
181.29289781725086
 20
178.7089084934544
 11
182.69288758973818
 21
178.7089084934544
  0
LINE
  8
_1-2_
  6
CONTINUOUS
 62
    7
 10
181.29289781725086
 20
178.30890964817357
 11
182.69288758973818
 21
178.30890964817357
  0
LINE
  8
_1-2_
  6
CONTINUOUS
 62
    7
 10
181.29289781725086
 20
177.90891080289273
 11
182.69288758973818
 21
177.90891080289273
  0
LINE
  8
_1-2_
  6
CONTINUOUS
 62
    7
 10
181.29289781725086
 20
177.50891195761193
 11
182.69288758973818
 21
177.50891195761193
  0
LINE
  8
_1-2_
  6
CONTINUOUS
 62
    7
 10
181.29289781725086
 20
177.10891311233109
 11
182.69288758973818
 21
177.10891311233109
  0
LINE
  8
_1-2_
  6
CONTINUOUS
 62
    7
 10
181.29289781725086
 20
176.24925768053211
 11
182.69288758973818
 21
176.24925768053211
  0
LINE
  8
_1-2_
  6
CONTINUOUS
 62
    7
 10
186.59289798221073
 20
176.64925652581294
 11
186.59289798221073
 21
167.68944817620357
  0
LINE
  8
_1-2_
  6
CONTINUOUS
 62
    7
 10
177.39288742477831
 20
176.64925652581294
 11
177.39288742477831
 21
167.68943580421242
  0
LINE
  8
_1-2_
  6
CONTINUOUS
 62
    7
 10
177.39288742477831
 20
176.64925652581294
 11
186.59289798221073
 21
176.64925652581294
  0
LINE
  8
_1-2_
  6
CONTINUOUS
 62
    7
 10
181.29289781725086
 20
175.84925883525128
 11
182.69288758973818
 21
175.84925883525128
  0
LINE
  8
_1-2_
  6
CONTINUOUS
 62
    7
 10
181.29289781725086
 20
175.44925998997044
 11
182.69288758973818
 21
175.44925998997044
  0
LINE
  8
_1-2_
  6
CONTINUOUS
 62
    7
 10
181.29289781725086
 20
175.04926114468961
 11
182.69288758973818
 21
175.04926114468961
  0
LINE
  8
_1-2_
  6
CONTINUOUS
 62
    7
 10
181.29289781725086
 20
174.6492622994088
 11
182.69288758973818
 21
174.6492622994088
  0
LINE
  8
_1-2_
  6
CONTINUOUS
 62
    7
 10
181.29289781725086
 20
174.24926345412797
 11
182.69288758973818
 21
174.24926345412797
  0
LINE
  8
_1-2_
  6
CONTINUOUS
 62
    7
 10
181.29289781725086
 20
173.84926460884714
 11
182.69288758973818
 21
173.84926460884714
  0
LINE
  8
_1-2_
  6
CONTINUOUS
 62
    7
 10
181.29289781725086
 20
173.4492657635663
 11
182.69288758973818
 21
173.4492657635663
  0
LINE
  8
_1-2_
  6
CONTINUOUS
 62
    7
 10
181.29289781725086
 20
173.0492669182855
 11
182.69288758973818
 21
173.0492669182855
  0
LINE
  8
_1-2_
  6
CONTINUOUS
 62
    7
 10
181.29289781725086
 20
172.64926807300466
 11
182.69288758973818
 21
172.64926807300466
  0
LINE
  8
_1-2_
  6
CONTINUOUS
 62
    7
 10
181.29289781725086
 20
172.24926922772383
 11
182.69288758973818
 21
172.24926922772383
  0
LINE
  8
_1-2_
  6
CONTINUOUS
 62
    7
 10
181.29289781725086
 20
171.849270382443
 11
182.69288758973818
 21
171.849270382443
  0
LINE
  8
_1-2_
  6
CONTINUOUS
 62
    7
 10
181.29289781725086
 20
171.44927153716216
 11
182.69288758973818
 21
171.44927153716216
  0
LINE
  8
_1-2_
  6
CONTINUOUS
 62
    7
 10
181.29289781725086
 20
171.04927269188136
 11
182.69288758973818
 21
171.04927269188136
  0
LINE
  8
_1-2_
  6
CONTINUOUS
 62
    7
 10
181.29289781725086
 20
170.64927384660052
 11
182.69288758973818
 21
170.64927384660052
  0
LINE
  8
_1-2_
  6
CONTINUOUS
 62
    7
 10
181.29289781725086
 20
170.24927500131969
 11
182.69288758973818
 21
170.24927500131969
  0
LINE
  8
_1-2_
  6
CONTINUOUS
 62
    7
 10
181.29289781725086
 20
169.84927615603885
 11
182.69288758973818
 21
169.84927615603885
  0
LINE
  8
_1-2_
  6
CONTINUOUS
 62
    7
 10
181.29289781725086
 20
170.27384577570734
 11
182.69288758973818
 21
170.27384577570734
  0
LINE
  8
_1-2_
  6
CONTINUOUS
 62
    7
 10
181.29289781725086
 20
169.87384693042654
 11
182.69288758973818
 21
169.87384693042654
  0
LINE
  8
_1-0_
  6
CONTINUOUS
 62
    7
 10
183.54674055769638
 20
164.01591945338893
 11
181.99290507548565
 21
164.71514727618245
  0
LINE
  8
_1-0_
  6
CONTINUOUS
 62
    7
 10
330.74256690772808
 20
97.777800688872475
 11
183.54674055769638
 21
164.01591945338893
  0
LINE
  8
_1-1_
  6
CONTINUOUS
 62
    7
 10
174.16378536739865
 20
173.02474563186234
 11
171.41234114363388
 21
179.13905788112331
  0
LINE
  8
_1-6_
  6
CONTINUOUS
 62
    3
 10
140.07925909918708
 20
172.85109236433701
 11
141.58396540461359
 21
167.6649640057538
  0
LINE
  8
_1-6_
  6
CONTINUOUS
 62
    3
 10
179.45537257838893
 20
184.27568590318836
 11
180.96006651182432
 21
179.08955754460516
  0
LINE
  8
_1-b_
  6
CONTINUOUS
 62
    3
 10
172.88812173379435
 20
178.87178575670399
 11
173.0592511151288
 21
178.40689581793708
  0
LINE
  8
_1-b_
  6
CONTINUOUS
 62
    3
 10
172.88814647777662
 20
178.87176101272172
 11
173.0592511151288
 21
178.40689581793708
  0
LINE
  8
_1-6_
  6
CONTINUOUS
 62
    3
 10
140.30513454127956
 20
179.25078933303422
 11
141.80984084670609
 21
174.06466097445102
  0
LINE
  8
_1-6_
  6
CONTINUOUS
 62
    3
 10
179.68123564849029
 20
190.67538287188557
 11
181.18594195391682
 21
185.48925451330237
  0
LINE
  8
_1-1_
  6
CONTINUOUS
 62
    7
 10
194.92804449957771
 20
167.24628345386404
 11
190.5508092931799
 21
169.21602816195102
  0
LINE
  8
_1-1_
  6
CONTINUOUS
 62
    7
 10
194.92804449957771
 20
167.24628345386404
 11
190.5508092931799
 21
169.21602816195102
  0
LINE
  8
_1-1_
  6
CONTINUOUS
 62
    7
 10
194.92804449957771
 20
167.24628345386404
 11
190.5508092931799
 21
169.21602816195102
  0
LINE
  8
_1-1_
  6
CONTINUOUS
 62
    7
 10
194.92801975559544
 20
167.24628345386404
 11
190.5508092931799
 21
169.21602816195102
  0
LINE
  8
_1-1_
  6
CONTINUOUS
 62
    7
 10
194.92801975559544
 20
167.2463081978463
 11
190.5508092931799
 21
169.21605290593328
  0
LINE
  8
_1-b_
  6
CONTINUOUS
 62
    3
 10
191.32356385926943
 20
172.47208878800677
 11
191.15243447793497
 21
172.00719884923987
  0
LINE
  8
_1-b_
  6
CONTINUOUS
 62
    3
 10
191.32353911528716
 20
172.47206404402451
 11
191.15243447793497
 21
172.00719884923987
  0
LINE
  8
_1-b_
  6
CONTINUOUS
 62
    3
 10
190.05871334591427
 20
173.67113268053211
 11
187.98619450749578
 21
168.04044156461148
  0
LINE
  8
_1-1_
  6
CONTINUOUS
 62
    3
 10
191.56025242161107
 20
173.11846346468539
 11
190.05871334591427
 21
173.67113268053211
  0
LINE
  8
_1-b_
  6
CONTINUOUS
 62
    3
 10
191.56025242161107
 20
173.11846346468539
 11
191.14572885874156
 21
171.99232771589951
  0
LINE
  8
_1-1_
  6
CONTINUOUS
 62
    7
 10
191.56025242161107
 20
173.11846346468539
 11
194.02852651235222
 21
178.60349912901182
  0
LINE
  8
_1-0_
  6
CONTINUOUS
 62
    7
 10
182.14248244826859
 20
167.93760557432432
 11
181.99290507548565
 21
168.00490920608109
  0
LINE
  8
_1-0_
  6
CONTINUOUS
 62
    7
 10
182.55283665012669
 20
168.84954504064612
 11
181.99290507548565
 21
169.10151301203547
  0
LINE
  8
_1-0_
  6
CONTINUOUS
 62
    7
 10
182.79907638962206
 20
169.39667160446581
 11
181.99290507548565
 21
169.75944312843117
  0
LINE
  8
_1-3_
  6
DASHED1
 62
    7
 10
183.23679743586362
 20
169.19969713365711
 11
182.79906401763091
 21
169.39667160446581
  0
LINE
  8
_1-3_
  6
DASHED1
 62
    7
 10
182.99057006835937
 20
168.65257056983742
 11
182.55283665012669
 21
168.84954504064612
  0
LINE
  8
_1-3_
  6
DASHED1
 62
    7
 10
182.58021586650128
 20
167.74061873152451
 11
182.14248244826859
 21
167.93760557432432
  0
LINE
  8
_1-b_
  6
CONTINUOUS
 62
    3
 10
190.36626867345862
 20
169.29558006492823
 11
189.67541668866133
 21
167.41867477829393
  0
LINE
  8
_1-b_
  6
CONTINUOUS
 62
    3
 10
189.67541668866133
 20
167.41867477829393
 11
187.98619450749578
 21
168.04044156461148
  0
LINE
  8
_1-1_
  6
CONTINUOUS
 62
    7
 10
189.82202478357266
 20
173.02474563186234
 11
192.57346900733742
 21
179.13905788112331
  0
LINE
  8
_1-6_
  6
CONTINUOUS
 62
    3
 10
223.90653867979307
 20
172.85109236433701
 11
222.40183237436656
 21
167.6649640057538
  0
LINE
  8
_1-6_
  6
CONTINUOUS
 62
    3
 10
184.53043757258237
 20
184.27568590318836
 11
183.02574363914698
 21
179.08955754460516
  0
LINE
  8
_1-6_
  6
CONTINUOUS
 62
    3
 10
223.68067560969175
 20
179.25078933303422
 11
222.17596930426521
 21
174.06466097445102
  0
LINE
  8
_1-6_
  6
CONTINUOUS
 62
    3
 10
184.30457450248102
 20
190.67538287188557
 11
182.79986819705448
 21
185.48925451330237
  0
LINE
  8
_1-c_
  6
CONTINUOUS
 62
    7
 10
247.83112397065034
 20
158.80029626794763
 11
222.53163930532097
 21
168.11231046109586
  0
LINE
  8
_1-c_
  6
CONTINUOUS
 62
    7
 10
221.61527066617401
 20
168.44959568332982
 11
205.33511599978885
 21
174.44185824007602
  0
LINE
  8
_1-c_
  6
CONTINUOUS
 62
    7
 10
116.15468618032095
 20
158.80029626794763
 11
141.45417084565034
 21
168.11231046109586
  0
LINE
  8
_1-c_
  6
CONTINUOUS
 62
    7
 10
142.37052711280617
 20
168.44959568332982
 11
171.41234114363388
 21
179.13905788112331
  0
LINE
  8
_1-3_
  6
CONTINUOUS
 62
    7
 10
218.66754480310391
 20
216.64249729465794
 11
222.99492088524073
 21
216.64249729465794
  0
LINE
  8
_1-2_
  6
CONTINUOUS
 62
    7
 10
171.29980551229943
 20
249.02836155247044
 11
168.93569121489654
 21
249.02836155247044
  0
LINE
  8
_1-2_
  6
CONTINUOUS
 62
    7
 10
212.85169446790542
 20
244.67213398701438
 11
217.95697186444258
 21
244.67213398701438
  0
LINE
  8
_1-2_
  6
CONTINUOUS
 62
    7
 10
218.66754480310391
 20
216.64249729465794
 11
210.11025918496622
 21
201.82088903478675
  0
LINE
  8
_1-2_
  6
CONTINUOUS
 62
    7
 10
216.46795324377112
 20
175.18955952412375
 11
229.59904026340794
 21
197.93325063344597
  0
LINE
  8
_1-2_
  6
CONTINUOUS
 62
    7
 10
229.59904026340794
 20
197.93325063344597
 11
233.59685124577703
 21
197.93325063344597
  0
LINE
  8
_1-2_
  6
CONTINUOUS
 62
    7
 10
140.02999383050042
 20
164.82597557274073
 11
122.68401687209672
 21
194.87009409311656
  0
LINE
  8
_1-2_
  6
CONTINUOUS
 62
    7
 10
122.68401687209672
 20
194.87009409311656
 11
119.24266093486065
 21
194.87009409311656
  0
LINE
  8
_1-2_
  6
CONTINUOUS
 62
    3
 10
155.22789620064401
 20
209.78945345491977
 11
155.69853911528716
 21
204.41000036291175
  0
LINE
  8
_1-2_
  6
CONTINUOUS
 62
    3
 10
175.33611813107052
 20
215.16246073954815
 11
175.64988419816302
 21
211.5761421822213
  0
LINE
  8
ADD_LINE
  6
DOT
 62
    3
 10
153.15760432062922
 20
197.58346970016893
 11
158.42923550992398
 21
198.04467278557857
  0
LINE
  8
_1-2_
  6
CONTINUOUS
 62
    3
 10
154.09020501214107
 20
203.69846240894216
 11
154.56084792678422
 21
198.31900931693414
  0
LINE
  8
_1-2_
  6
CONTINUOUS
 62
    3
 10
174.19842694256758
 20
209.0714573215794
 11
174.51219300966005
 21
205.48515113624367
  0
LINE
  8
_1-2_
  6
CONTINUOUS
 62
    3
 10
153.15760432062922
 20
197.58346970016893
 11
153.6282472352724
 21
192.20400423616977
  0
LINE
  8
_1-2_
  6
CONTINUOUS
 62
    3
 10
173.26582625105576
 20
202.95646461280617
 11
173.57959231814823
 21
199.37015842747044
  0
LINE
  8
ADD_LINE
  6
DOT
 62
    3
 10
158.5429959683805
 20
193.97683633340372
 11
154.33710046716638
 21
193.60886857316302
  0
LINE
  8
ADD_LINE
  6
DOT
 62
    7
 10
153.15760432062922
 20
197.58345732817779
 11
152.69534961597341
 21
197.58345732817779
  0
LINE
  8
_1-2_
  6
CONTINUOUS
 62
    3
 10
152.17189067118878
 20
191.48482039168076
 11
152.64253358583193
 21
186.10536729967274
  0
LINE
  8
_1-2_
  6
CONTINUOUS
 62
    3
 10
172.28011260161529
 20
196.857815304318
 11
172.59387866870779
 21
193.27150911898227
  0
LINE
  8
_1-2_
  6
CONTINUOUS
 62
    3
 10
155.96357190931167
 20
215.71952201224664
 11
156.43421482395482
 21
210.34008129222974
  0
LINE
  8
_1-2_
  6
CONTINUOUS
 62
    3
 10
176.07179383973818
 20
221.092529296875
 11
176.38555990683068
 21
217.50621073954815
  0
LINE
  8
_1-2_
  6
CONTINUOUS
 62
    3
 10
208.75790157833617
 20
209.78945345491977
 11
208.28727103568414
 21
204.41000036291175
  0
LINE
  8
_1-2_
  6
CONTINUOUS
 62
    3
 10
188.64969201990078
 20
215.16246073954815
 11
188.33592595280828
 21
211.5761421822213
  0
LINE
  8
ADD_LINE
  6
DOT
 62
    3
 10
210.82820583034209
 20
197.58346970016893
 11
205.55657464104732
 21
198.04467278557857
  0
LINE
  8
_1-2_
  6
CONTINUOUS
 62
    3
 10
189.78738320840372
 20
209.0714573215794
 11
189.47361714131125
 21
205.48515113624367
  0
LINE
  8
_1-2_
  6
CONTINUOUS
 62
    3
 10
210.82820583034209
 20
197.58346970016893
 11
210.35757528769005
 21
192.20400423616977
  0
LINE
  8
ADD_LINE
  6
DOT
 62
    3
 10
205.44281418259081
 20
193.97683633340372
 11
209.64870968380492
 21
193.60886857316302
  0
LINE
  8
ADD_LINE
  6
DOT
 62
    7
 10
210.82820583034209
 20
197.58345732817779
 11
211.29047290698904
 21
197.58345732817779
  0
LINE
  8
_1-2_
  6
CONTINUOUS
 62
    3
 10
211.81393185177367
 20
191.48482039168076
 11
211.34327656513938
 21
186.10536729967274
  0
LINE
  8
_1-2_
  6
CONTINUOUS
 62
    3
 10
191.70569754935602
 20
196.857815304318
 11
191.39193148226352
 21
193.27150911898227
  0
LINE
  8
_1-2_
  6
CONTINUOUS
 62
    3
 10
208.02223824165964
 20
215.71952201224664
 11
207.55159532701649
 21
210.34008129222974
  0
LINE
  8
_1-2_
  6
CONTINUOUS
 62
    3
 10
187.91401631123313
 20
221.092529296875
 11
187.60025024414062
 21
217.50621073954815
  0
LINE
  8
_1-2_
  6
CONTINUOUS
 62
    3
 10
203.49290177628802
 20
228.62266746727198
 11
203.49290177628802
 21
217.6226806640625
  0
LINE
  8
_1-2_
  6
CONTINUOUS
 62
    3
 10
160.49290837468328
 20
222.62267241606841
 11
160.49290837468328
 21
228.62266746727198
  0
LINE
  8
_1-2_
  6
CONTINUOUS
 62
    3
 10
160.49290837468328
 20
222.62267241606841
 11
160.49290837468328
 21
217.6226806640625
  0
LINE
  8
_1-2_
  6
CONTINUOUS
 62
    7
 10
168.34369143924198
 20
242.30277396537164
 11
165.2742622994088
 21
242.30277396537164
  0
LINE
  8
ADD_LINE
  6
DOT
 62
    4
 10
179.2550329259924
 20
217.53404771959461
 11
186.03466137035474
 21
217.53404771959461
  0
LINE
  8
_1-2_
  6
CONTINUOUS
 62
    7
 10
178.99289517789273
 20
215.36028887774495
 11
178.99289517789273
 21
221.36028392894849
  0
LINE
  8
_1-2_
  6
CONTINUOUS
 62
    7
 10
178.99289517789273
 20
221.36028392894849
 11
184.9928902290963
 21
221.36028392894849
  0
LINE
  8
_1-2_
  6
CONTINUOUS
 62
    7
 10
184.9928902290963
 20
221.36028392894849
 11
184.9928902290963
 21
215.36028887774495
  0
LINE
  8
_1-2_
  6
CONTINUOUS
 62
    7
 10
184.9928902290963
 20
215.36028887774495
 11
178.99289517789273
 21
215.36028887774495
  0
LINE
  8
_1-2_
  6
CONTINUOUS
 62
    7
 10
178.39289072397594
 20
214.9527307458826
 11
185.5928946830131
 21
214.9527307458826
  0
LINE
  8
_1-2_
  6
CONTINUOUS
 62
    7
 10
178.39289072397594
 20
214.9527307458826
 11
178.39289072397594
 21
219.94448275179477
  0
LINE
  8
_1-2_
  6
CONTINUOUS
 62
    7
 10
185.5928946830131
 20
219.94448275179477
 11
185.5928946830131
 21
214.9527307458826
  0
LINE
  8
_1-2_
  6
CONTINUOUS
 62
    7
 10
184.9928902290963
 20
219.94448275179477
 11
185.5928946830131
 21
219.94448275179477
  0
LINE
  8
_1-2_
  6
CONTINUOUS
 62
    7
 10
178.99289517789273
 20
221.36028392894849
 11
184.9928902290963
 21
215.36028887774495
  0
LINE
  8
_1-2_
  6
CONTINUOUS
 62
    7
 10
184.9928902290963
 20
221.36028392894849
 11
178.99289517789273
 21
215.36028887774495
  0
LINE
  8
_1-2_
  6
CONTINUOUS
 62
    7
 10
181.29289781725086
 20
214.9527307458826
 11
181.29289781725086
 21
177.04925537109375
  0
LINE
  8
_1-2_
  6
CONTINUOUS
 62
    7
 10
182.69288758973818
 20
214.9527307458826
 11
182.69288758973818
 21
177.04925537109375
  0
LINE
  8
_1-2_
  6
DASHED1
 62
    7
 10
178.39289072397594
 20
217.96028755806589
 11
185.5928946830131
 21
217.96028755806589
  0
LINE
  8
_1-2_
  6
DASHED1
 62
    7
 10
178.39289072397594
 20
218.76028524862755
 11
185.5928946830131
 21
218.76028524862755
  0
LINE
  8
_1-2_
  6
DASHED1
 62
    7
 10
181.48455233187289
 20
218.86861440297722
 11
181.99289270349453
 21
217.46028590846709
  0
LINE
  8
_1-2_
  6
DASHED1
 62
    7
 10
181.99289270349453
 20
217.46028590846709
 11
182.49289435309333
 21
218.8602756809544
  0
LINE
  8
_1-2_
  6
DASHED1
 62
    7
 10
181.4928910538957
 20
218.86861440297722
 11
182.50123307511615
 21
218.86861440297722
  0
LINE
  8
_1-2_
  6
CONTINUOUS
 62
    7
 10
178.39289072397594
 20
219.94448275179477
 11
179.01152739653716
 21
219.94448275179477
  0
LINE
  8
_1-2_
  6
CONTINUOUS
 62
    7
 10
179.79904174804687
 20
219.39947179845862
 11
168.34369143924198
 21
242.30277396537164
  0
LINE
  8
ADD_LINE
  6
DOT
 62
    4
 10
181.99290507548565
 20
222.60087296769427
 11
181.99290507548565
 21
246.57670304581927
  0
LINE
  8
_1-2_
  6
CONTINUOUS
 62
    7
 10
188.66909130199537
 20
226.02219865128802
 11
207.06618025496201
 21
257.88683092271958
  0
LINE
  8
_1-2_
  6
CONTINUOUS
 62
    7
 10
207.06618025496201
 20
257.88683092271958
 11
211.2744140625
 21
257.88683092271958
  0
LINE
  8
_1-2_
  6
CONTINUOUS
 62
    3
 10
190.67692937077703
 20
202.46433154956716
 11
190.40621783282307
 21
199.37015842747044
  0
LINE
  8
_1-2_
  6
CONTINUOUS
 62
    3
 10
190.71998389991555
 20
202.95646461280617
 11
190.68234830289273
 21
202.52624099319047
  0
LINE
  8
_1-2_
  6
CONTINUOUS
 62
    3
 10
190.68234830289273
 20
202.52624099319047
 11
190.67692937077703
 21
202.46433154956716
  0
LINE
  8
_1-2_
  6
CONTINUOUS
 62
    7
 10
162.0271466229413
 20
229.09060091585727
 11
174.62941762563347
 21
209.21987172719597
  0
LINE
  8
_1-2_
  6
CONTINUOUS
 62
    7
 10
162.0271466229413
 20
229.09060091585727
 11
174.95261114996833
 21
203.03318332981419
  0
LINE
  8
_1-2_
  6
CONTINUOUS
 62
    7
 10
181.99290507548565
 20
191.22322701119089
 11
212.85169446790542
 21
244.67213398701438
  0
LINE
  8
_1-2_
  6
CONTINUOUS
 62
    3
 10
209.89560513883023
 20
203.69846240894216
 11
209.42497459617823
 21
198.31900931693414
  0
ARC
  8
_1-b_
  6
CONTINUOUS
 62
    3
 10
76.334047059755051
 20
131.25480033255914
 40
1.5999999239638045
 50
110.20680236816406
 51
200.20738220214844
  0
ARC
  8
_1-b_
  6
CONTINUOUS
 62
    3
 10
119.19436068148227
 20
150.54194269953547
 40
1.5999999239638045
 50
110.20680236816406
 51
200.20738220214844
  0
ARC
  8
_1-c_
  6
CONTINUOUS
 62
    7
 10
73.847054146431589
 20
138.01163956925677
 40
1.5999999239638045
 50
110.20722961425781
 51
200.20695495605469
  0
ARC
  8
_1-c_
  6
CONTINUOUS
 62
    7
 10
116.70736776815879
 20
157.29875719225086
 40
1.5999999239638045
 50
110.20748901367187
 51
200.20695495605469
  0
ARC
  8
_1-b_
  6
CONTINUOUS
 62
    3
 10
287.65176309121625
 20
131.25480033255914
 40
1.5999999239638045
 50
339.79261779785156
 51
69.793197631835938
  0
ARC
  8
_1-b_
  6
CONTINUOUS
 62
    3
 10
244.79144946948904
 20
150.54194269953547
 40
1.5999999239638045
 50
339.79261779785156
 51
69.793197631835938
  0
ARC
  8
_1-c_
  6
CONTINUOUS
 62
    7
 10
290.13875600453969
 20
138.01163956925677
 40
1.5999999239638045
 50
339.79304504394526
 51
69.792770385742131
  0
ARC
  8
_1-c_
  6
CONTINUOUS
 62
    7
 10
247.2784423828125
 20
157.29875719225086
 40
1.5999999239638045
 50
339.79304504394526
 51
69.792510986328125
  0
CIRCLE
  8
_1-3_
  6
CONTINUOUS
 62
    7
 10
174.53426464183912
 20
185.68960653769005
 40
0.3036581503378378
  0
CIRCLE
  8
_1-3_
  6
CONTINUOUS
 62
    7
 10
173.3196072965055
 20
185.23410694019216
 40
0.3036581503378378
  0
CIRCLE
  8
_1-3_
  6
CONTINUOUS
 62
    7
 10
170.89031734982052
 20
184.93044878985432
 40
0.3036581503378378
  0
CIRCLE
  8
_1-3_
  6
CONTINUOUS
 62
    7
 10
171.64946272566513
 20
176.73155501082138
 40
0.3036581503378378
  0
CIRCLE
  8
_1-3_
  6
CONTINUOUS
 62
    7
 10
172.25679139833193
 20
174.15042361697635
 40
0.3036581503378378
  0
CIRCLE
  8
_1-3_
  6
CONTINUOUS
 62
    7
 10
173.16777822133659
 20
175.66873911264781
 40
0.3036581503378378
  0
CIRCLE
  8
_1-3_
  6
CONTINUOUS
 62
    7
 10
173.77510689400339
 20
176.73155501082138
 40
0.3036581503378378
  0
CIRCLE
  8
_1-3_
  6
CONTINUOUS
 62
    7
 10
169.67566000448693
 20
176.73155501082138
 40
0.3036581503378378
  0
CIRCLE
  8
_1-3_
  6
CONTINUOUS
 62
    7
 10
169.06834370381125
 20
177.18705460831927
 40
0.3036581503378378
  0
CIRCLE
  8
_1-3_
  6
CONTINUOUS
 62
    7
 10
164.20973906645904
 20
172.93576627164273
 40
0.3036581503378378
  0
CIRCLE
  8
_1-3_
  6
CONTINUOUS
 62
    7
 10
166.69517310889992
 20
172.73479564769849
 40
0.3036581503378378
  0
CIRCLE
  8
_1-3_
  6
CONTINUOUS
 62
    7
 10
166.84701455605997
 20
172.2792960502006
 40
0.3036581503378378
  0
CIRCLE
  8
_1-3_
  6
CONTINUOUS
 62
    7
 10
166.39151495856208
 20
171.52013830236487
 40
0.3036581503378378
  0
CIRCLE
  8
_1-3_
  6
CONTINUOUS
 62
    7
 10
167.90983045423354
 20
171.82380882469386
 40
0.3036581503378378
  0
CIRCLE
  8
_1-3_
  6
CONTINUOUS
 62
    7
 10
169.73180410024284
 20
172.73479564769849
 40
0.3036581503378378
  0
CIRCLE
  8
_1-3_
  6
CONTINUOUS
 62
    7
 10
169.523830929318
 20
175.82056818781675
 40
0.3036581503378378
  0
CIRCLE
  8
_1-3_
  6
CONTINUOUS
 62
    7
 10
180.36000019795188
 20
172.2792960502006
 40
0.3036581503378378
  0
CIRCLE
  8
_1-3_
  6
CONTINUOUS
 62
    7
 10
183.24480211412586
 20
173.19028287320523
 40
0.3036581503378378
  0
CIRCLE
  8
_1-3_
  6
CONTINUOUS
 62
    7
 10
187.64790715398016
 20
170.00182280669341
 40
0.3036581503378378
  0
CIRCLE
  8
_1-3_
  6
CONTINUOUS
 62
    7
 10
188.10340675147805
 20
171.36830922719597
 40
0.3036581503378378
  0
CIRCLE
  8
_1-3_
  6
CONTINUOUS
 62
    7
 10
189.55594037030195
 20
175.97239726298565
 40
0.3036581503378378
  0
CIRCLE
  8
_1-3_
  6
CONTINUOUS
 62
    7
 10
184.76310523780617
 20
171.52013830236487
 40
0.3036581503378378
  0
CIRCLE
  8
_1-3_
  6
CONTINUOUS
 62
    7
 10
178.38619747677365
 20
171.52013830236487
 40
0.3036581503378378
  0
CIRCLE
  8
_1-3_
  6
CONTINUOUS
 62
    7
 10
176.26055330843539
 20
170.00182280669341
 40
0.3036581503378378
  0
CIRCLE
  8
_1-3_
  6
CONTINUOUS
 62
    7
 10
175.95689515809755
 20
173.79761154587206
 40
0.3036581503378378
  0
CIRCLE
  8
_1-3_
  6
CONTINUOUS
 62
    7
 10
164.72137038772172
 20
172.58296657252956
 40
0.3036581503378378
  0
CIRCLE
  8
_1-3_
  6
CONTINUOUS
 62
    7
 10
164.1140417150549
 20
171.21648015202703
 40
0.3036581503378378
  0
CIRCLE
  8
_1-3_
  6
CONTINUOUS
 62
    7
 10
164.56954131255279
 20
171.21648015202703
 40
0.3036581503378378
  0
CIRCLE
  8
_1-3_
  6
CONTINUOUS
 62
    7
 10
167.15067270639781
 20
171.36830922719597
 40
0.3036581503378378
  0
CIRCLE
  8
_1-3_
  6
CONTINUOUS
 62
    7
 10
172.86412007099875
 20
178.55352865683068
 40
0.3036581503378378
  0
CIRCLE
  8
_1-3_
  6
CONTINUOUS
 62
    7
 10
182.94113159179687
 20
181.23734757706927
 40
0.3036581503378378
  0
CIRCLE
  8
_1-3_
  6
CONTINUOUS
 62
    7
 10
189.10045314479521
 20
175.36506859031886
 40
0.3036581503378378
  0
CIRCLE
  8
_1-3_
  6
CONTINUOUS
 62
    7
 10
192.89622951198271
 20
175.36506859031886
 40
0.3036581503378378
  0
CIRCLE
  8
_1-3_
  6
CONTINUOUS
 62
    7
 10
192.89622951198271
 20
175.36506859031886
 40
0.3036581503378378
  0
CIRCLE
  8
_1-3_
  6
CONTINUOUS
 62
    7
 10
188.10340675147805
 20
174.55676929370779
 40
0.3036581503378378
  0
CIRCLE
  8
_1-3_
  6
CONTINUOUS
 62
    7
 10
185.06677576013516
 20
170.91282200168919
 40
0.3036581503378378
  0
CIRCLE
  8
_1-3_
  6
CONTINUOUS
 62
    7
 10
178.84168470228042
 20
173.79761154587206
 40
0.3036581503378378
  0
CIRCLE
  8
_1-3_
  6
CONTINUOUS
 62
    7
 10
169.22017277898016
 20
178.70535773199958
 40
0.3036581503378378
  0
CIRCLE
  8
_1-3_
  6
CONTINUOUS
 62
    7
 10
173.92693596917232
 20
177.64254183382602
 40
0.3036581503378378
  0
CIRCLE
  8
_1-3_
  6
CONTINUOUS
 62
    7
 10
171.64946272566513
 20
177.64254183382602
 40
0.3036581503378378
  0
CIRCLE
  8
_1-3_
  6
CONTINUOUS
 62
    7
 10
178.53802655194258
 20
173.19028287320523
 40
0.3036581503378378
  0
CIRCLE
  8
_1-3_
  6
CONTINUOUS
 62
    7
 10
178.38619747677365
 20
170.60915147936024
 40
0.3036581503378378
  0
CIRCLE
  8
_1-3_
  6
CONTINUOUS
 62
    7
 10
177.93069787927578
 20
169.54633558118667
 40
0.3036581503378378
  0
CIRCLE
  8
_1-3_
  6
CONTINUOUS
 62
    7
 10
167.0945286106419
 20
174.45408176731419
 40
0.3036581503378378
  0
CIRCLE
  8
_1-3_
  6
CONTINUOUS
 62
    7
 10
167.39819913297086
 20
175.51691003747891
 40
0.3036581503378378
  0
CIRCLE
  8
_1-3_
  6
CONTINUOUS
 62
    7
 10
191.52974309148016
 20
175.82056818781675
 40
0.3036581503378378
  0
CIRCLE
  8
_1-3_
  6
CONTINUOUS
 62
    7
 10
177.84461356498102
 20
185.23191709776182
 40
0.3036581503378378
  0
CIRCLE
  8
_1-3_
  6
CONTINUOUS
 62
    7
 10
185.14504097603464
 20
178.06923943596919
 40
0.3036581503378378
  0
CIRCLE
  8
_1-3_
  6
CONTINUOUS
 62
    7
 10
162.53155270138302
 20
175.1101065970756
 40
0.3036581503378378
  0
CIRCLE
  8
_1-3_
  6
CONTINUOUS
 62
    7
 10
163.01678219357052
 20
173.65439337653083
 40
0.3036581503378378
  0
CIRCLE
  8
_1-3_
  6
CONTINUOUS
 62
    7
 10
160.59060998865078
 20
171.47083591770482
 40
0.3036581503378378
  0
CIRCLE
  8
_1-3_
  6
CONTINUOUS
 62
    7
 10
159.62015100427578
 20
169.04466371278505
 40
0.3036581503378378
  0
CIRCLE
  8
_1-3_
  6
CONTINUOUS
 62
    7
 10
162.28893795528927
 20
170.50037693332982
 40
0.3036581503378378
  0
CIRCLE
  8
_1-2_
  6
CONTINUOUS
 62
    7
 10
186.1295916583087
 20
175.07972098685602
 40
0.3036581503378378
  0
CIRCLE
  8
_1-2_
  6
CONTINUOUS
 62
    7
 10
184.45944708746833
 20
177.96452290303
 40
0.3036581503378378
  0
CIRCLE
  8
_1-2_
  6
CONTINUOUS
 62
    7
 10
183.85213078679266
 20
178.5718515756968
 40
0.3036581503378378
  0
CIRCLE
  8
_1-2_
  6
CONTINUOUS
 62
    7
 10
185.82593350797086
 20
172.65043104017104
 40
0.3036581503378378
  0
CIRCLE
  8
_1-2_
  6
CONTINUOUS
 62
    7
 10
175.95689515809755
 20
174.01690508868245
 40
0.3036581503378378
  0
CIRCLE
  8
_1-2_
  6
CONTINUOUS
 62
    7
 10
184.00395986196159
 20
177.35719423036318
 40
0.3036581503378378
  0
CIRCLE
  8
_1-2_
  6
CONTINUOUS
 62
    7
 10
187.79973622914909
 20
177.35719423036318
 40
0.3036581503378378
  0
CIRCLE
  8
_1-2_
  6
CONTINUOUS
 62
    7
 10
187.79973622914909
 20
177.35719423036318
 40
0.3036581503378378
  0
CIRCLE
  8
_1-2_
  6
CONTINUOUS
 62
    7
 10
178.99352614944047
 20
175.38339150918497
 40
0.3036581503378378
  0
CIRCLE
  8
_1-2_
  6
CONTINUOUS
 62
    7
 10
184.00395986196159
 20
176.1425492570207
 40
0.3036581503378378
  0
CIRCLE
  8
_1-2_
  6
CONTINUOUS
 62
    7
 10
177.77886880410685
 20
177.50903567752323
 40
0.3036581503378378
  0
CIRCLE
  8
_1-2_
  6
CONTINUOUS
 62
    7
 10
187.49607807881125
 20
173.86507601351352
 40
0.3036581503378378
  0
CIRCLE
  8
_1-2_
  6
CONTINUOUS
 62
    7
 10
188.86256449931378
 20
174.32057561101141
 40
0.3036581503378378
  0
CIRCLE
  8
_1-2_
  6
CONTINUOUS
 62
    7
 10
186.43324980864654
 20
177.81269382786107
 40
0.3036581503378378
  0
CIRCLE
  8
_1-2_
  6
CONTINUOUS
 62
    7
 10
183.56512533651818
 20
175.5066660288218
 40
0.3036581503378378
  0
CIRCLE
  8
_1-2_
  6
CONTINUOUS
 62
    7
 10
185.23526990735854
 20
175.20300787848396
 40
0.3036581503378378
  0
CIRCLE
  8
_1-2_
  6
CONTINUOUS
 62
    7
 10
180.98399394267315
 20
173.38102186048354
 40
0.3036581503378378
  0
CIRCLE
  8
_1-2_
  6
CONTINUOUS
 62
    7
 10
184.47611215952281
 20
174.29200868348818
 40
0.3036581503378378
  0
CIRCLE
  8
_1-2_
  6
CONTINUOUS
 62
    7
 10
184.77977030986065
 20
173.38102186048354
 40
0.3036581503378378
  0
CIRCLE
  8
_1-2_
  6
CONTINUOUS
 62
    7
 10
184.77977030986065
 20
173.38102186048354
 40
0.3036581503378378
  0
CIRCLE
  8
_1-2_
  6
CONTINUOUS
 62
    7
 10
183.41328388935813
 20
173.83652145798143
 40
0.3036581503378378
  0
CIRCLE
  8
_1-2_
  6
CONTINUOUS
 62
    7
 10
170.27664184570312
 20
176.77986763619089
 40
0.3036581503378378
  0
CIRCLE
  8
_1-2_
  6
CONTINUOUS
 62
    7
 10
169.66932554502745
 20
177.23536723368878
 40
0.3036581503378378
  0
CIRCLE
  8
_1-2_
  6
CONTINUOUS
 62
    7
 10
162.22957714183912
 20
174.80605254302154
 40
0.3036581503378378
  0
CIRCLE
  8
_1-2_
  6
CONTINUOUS
 62
    7
 10
162.07774806667018
 20
173.28774941934122
 40
0.3036581503378378
  0
CIRCLE
  8
_1-2_
  6
CONTINUOUS
 62
    7
 10
162.07774806667018
 20
169.79561883050044
 40
0.3036581503378378
  0
CIRCLE
  8
_1-2_
  6
CONTINUOUS
 62
    7
 10
163.59606356234164
 20
170.0992893528294
 40
0.3036581503378378
  0
CIRCLE
  8
_1-2_
  6
CONTINUOUS
 62
    7
 10
165.41803720835094
 20
171.01027617583404
 40
0.3036581503378378
  0
CIRCLE
  8
_1-2_
  6
CONTINUOUS
 62
    7
 10
170.12481277053422
 20
175.86888081318625
 40
0.3036581503378378
  0
CIRCLE
  8
_1-2_
  6
CONTINUOUS
 62
    7
 10
160.25577442066091
 20
174.65422346785263
 40
0.3036581503378378
  0
CIRCLE
  8
_1-2_
  6
CONTINUOUS
 62
    7
 10
160.40760349582982
 20
172.5285916715055
 40
0.3036581503378378
  0
CIRCLE
  8
_1-2_
  6
CONTINUOUS
 62
    7
 10
160.40760349582982
 20
170.85844710066513
 40
0.3036581503378378
  0
CIRCLE
  8
_1-2_
  6
CONTINUOUS
 62
    7
 10
159.80027482316302
 20
169.49196068016261
 40
0.3036581503378378
  0
CIRCLE
  8
_1-2_
  6
CONTINUOUS
 62
    7
 10
162.83690581450591
 20
169.64378975533151
 40
0.3036581503378378
  0
CIRCLE
  8
_1-2_
  6
CONTINUOUS
 62
    7
 10
164.05155078784841
 20
176.324368038693
 40
0.3036581503378378
  0
CIRCLE
  8
_1-2_
  6
CONTINUOUS
 62
    7
 10
166.02536588101773
 20
177.53902538402662
 40
0.3036581503378378
  0
CIRCLE
  8
_1-2_
  6
CONTINUOUS
 62
    7
 10
169.82115462019638
 20
178.75367035736909
 40
0.3036581503378378
  0
CIRCLE
  8
_1-2_
  6
CONTINUOUS
 62
    7
 10
167.69551045185813
 20
174.5023943926837
 40
0.3036581503378378
  0
CIRCLE
  8
_1-2_
  6
CONTINUOUS
 62
    7
 10
167.99918097418708
 20
175.56522266284841
 40
0.3036581503378378
  0
CIRCLE
  8
_1-2_
  6
CONTINUOUS
 62
    7
 10
168.37258003853464
 20
179.41073443438557
 40
0.3036581503378378
  0
CIRCLE
  8
_1-2_
  6
CONTINUOUS
 62
    7
 10
154.80545456345018
 20
171.55116725612331
 40
0.3036581503378378
  0
CIRCLE
  8
_1-2_
  6
CONTINUOUS
 62
    7
 10
154.19812589078336
 20
170.18468083562078
 40
0.3036581503378378
  0
CIRCLE
  8
_1-2_
  6
CONTINUOUS
 62
    7
 10
154.65362548828125
 20
170.18468083562078
 40
0.3036581503378378
  0
CIRCLE
  8
_1-2_
  6
CONTINUOUS
 62
    7
 10
155.81415537241344
 20
173.78666233372044
 40
0.3036581503378378
  0
CIRCLE
  8
_1-2_
  6
CONTINUOUS
 62
    7
 10
155.20682669974664
 20
172.42017591321792
 40
0.3036581503378378
  0
CIRCLE
  8
_1-2_
  6
CONTINUOUS
 62
    7
 10
155.6623262972445
 20
172.42017591321792
 40
0.3036581503378378
  0
CIRCLE
  8
_1-2_
  6
CONTINUOUS
 62
    7
 10
158.32226727459883
 20
172.55986806508659
 40
0.3036581503378378
  0
CIRCLE
  8
_1-2_
  6
CONTINUOUS
 62
    7
 10
157.714938601932
 20
171.19338164458404
 40
0.3036581503378378
  0
CIRCLE
  8
_1-2_
  6
CONTINUOUS
 62
    7
 10
158.1704381994299
 20
171.19338164458404
 40
0.3036581503378378
  0
CIRCLE
  8
_1-2_
  6
CONTINUOUS
 62
    7
 10
152.95163541226773
 20
172.23271550358953
 40
0.3036581503378378
  0
CIRCLE
  8
_1-2_
  6
CONTINUOUS
 62
    7
 10
152.34430673960094
 20
170.86622908308701
 40
0.3036581503378378
  0
CIRCLE
  8
_1-2_
  6
CONTINUOUS
 62
    7
 10
152.79980633709883
 20
170.86622908308701
 40
0.3036581503378378
  0
CIRCLE
  8
_1-2_
  6
CONTINUOUS
 62
    7
 10
180.66367072028083
 20
182.17542906065245
 40
0.3036581503378378
  0
CIRCLE
  8
_1-2_
  6
CONTINUOUS
 62
    7
 10
183.09296066696581
 20
183.08641588365711
 40
0.3036581503378378
  0
CIRCLE
  8
_1-2_
  6
CONTINUOUS
 62
    7
 10
184.45944708746833
 20
175.49485077729096
 40
0.3036581503378378
  0
CIRCLE
  8
_1-2_
  6
CONTINUOUS
 62
    7
 10
179.44901337494721
 20
175.6466798524599
 40
0.3036581503378378
  0
CIRCLE
  8
_1-2_
  6
CONTINUOUS
 62
    7
 10
178.23435602961362
 20
175.19118025496201
 40
0.3036581503378378
  0
CIRCLE
  8
_1-2_
  6
CONTINUOUS
 62
    7
 10
175.80506608292865
 20
174.88752210462417
 40
0.3036581503378378
  0
CIRCLE
  8
_1-2_
  6
CONTINUOUS
 62
    7
 10
183.39663118929477
 20
171.39540388777451
 40
0.3036581503378378
  0
CIRCLE
  8
_1-2_
  6
CONTINUOUS
 62
    7
 10
180.66367072028083
 20
172.61004886111698
 40
0.3036581503378378
  0
CIRCLE
  8
_1-2_
  6
CONTINUOUS
 62
    7
 10
187.31470468881969
 20
170.53414009712839
 40
0.3036581503378378
  0
CIRCLE
  8
_1-2_
  6
CONTINUOUS
 62
    7
 10
187.61836283915753
 20
172.35611374313768
 40
0.3036581503378378
  0
CIRCLE
  8
_1-2_
  6
CONTINUOUS
 62
    7
 10
187.92202098949537
 20
172.81161334063557
 40
0.3036581503378378
  0
CIRCLE
  8
_1-2_
  6
CONTINUOUS
 62
    7
 10
187.46653376398862
 20
169.31948275179477
 40
0.3036581503378378
  0
CIRCLE
  8
_1-2_
  6
CONTINUOUS
 62
    7
 10
175.26747832427154
 20
171.44512692013302
 40
0.3036581503378378
  0
CIRCLE
  8
_1-2_
  6
CONTINUOUS
 62
    7
 10
176.48212329761404
 20
169.31948275179477
 40
0.3036581503378378
  0
CIRCLE
  8
_1-2_
  6
CONTINUOUS
 62
    7
 10
176.48212329761404
 20
169.31948275179477
 40
0.3036581503378378
  0
CIRCLE
  8
_1-2_
  6
CONTINUOUS
 62
    7
 10
175.41930739944047
 20
172.81161334063557
 40
0.3036581503378378
  0
CIRCLE
  8
_1-2_
  6
CONTINUOUS
 62
    7
 10
176.61851212785052
 20
177.7297643713049
 40
0.3036581503378378
  0
CIRCLE
  8
_1-2_
  6
CONTINUOUS
 62
    7
 10
179.35147259686445
 20
178.64075119430956
 40
0.3036581503378378
  0
CIRCLE
  8
_1-2_
  6
CONTINUOUS
 62
    7
 10
180.26245941986909
 20
177.42609384897594
 40
0.3036581503378378
  0
CIRCLE
  8
_1-2_
  6
CONTINUOUS
 62
    7
 10
188.29738720043287
 20
178.64075119430956
 40
0.3036581503378378
  0
CIRCLE
  8
_1-2_
  6
CONTINUOUS
 62
    7
 10
193.86099738043708
 20
175.86888081318625
 40
0.3036581503378378
  0
CIRCLE
  8
_1-2_
  6
CONTINUOUS
 62
    7
 10
213.18789095491977
 20
171.52389938766893
 40
0.3036581503378378
  0
CIRCLE
  8
_1-2_
  6
CONTINUOUS
 62
    7
 10
213.79520725559544
 20
170.15741296716641
 40
0.3036581503378378
  0
CIRCLE
  8
_1-2_
  6
CONTINUOUS
 62
    7
 10
213.3397200300887
 20
170.15741296716641
 40
0.3036581503378378
  0
CIRCLE
  8
_1-2_
  6
CONTINUOUS
 62
    7
 10
211.03417473870357
 20
172.23271550358953
 40
0.3036581503378378
  0
CIRCLE
  8
_1-2_
  6
CONTINUOUS
 62
    7
 10
211.64151578336148
 20
170.86622908308701
 40
0.3036581503378378
  0
CIRCLE
  8
_1-2_
  6
CONTINUOUS
 62
    7
 10
211.18600381387247
 20
170.86622908308701
 40
0.3036581503378378
  0
CIRCLE
  8
_1-2_
  6
CONTINUOUS
 62
    7
 10
188.71833182669977
 20
171.44512692013302
 40
0.3036581503378378
  0
CIRCLE
  8
_1-2_
  6
CONTINUOUS
 62
    7
 10
188.56650275153083
 20
172.81161334063557
 40
0.3036581503378378
  0
CIRCLE
  8
_1-3_
  6
CONTINUOUS
 62
    7
 10
184.88501883841852
 20
192.94681858372044
 40
0.3036581503378378
  0
CIRCLE
  8
_1-3_
  6
CONTINUOUS
 62
    7
 10
186.0531946130701
 20
196.57734226536107
 40
0.3036581503378378
  0
CIRCLE
  8
_1-3_
  6
CONTINUOUS
 62
    7
 10
185.63995773727831
 20
195.75088088576859
 40
0.3036581503378378
  0
CIRCLE
  8
_1-3_
  6
CONTINUOUS
 62
    7
 10
186.37674692514781
 20
198.84215896194047
 40
0.3036581503378378
  0
CIRCLE
  8
_1-3_
  6
CONTINUOUS
 62
    7
 10
185.96351004935602
 20
198.015697582348
 40
0.3036581503378378
  0
CIRCLE
  8
_1-3_
  6
CONTINUOUS
 62
    7
 10
184.97471577412375
 20
200.13634346626901
 40
0.3036581503378378
  0
CIRCLE
  8
_1-3_
  6
CONTINUOUS
 62
    7
 10
184.56147889833193
 20
199.30988208667654
 40
0.3036581503378378
  0
CIRCLE
  8
_1-3_
  6
CONTINUOUS
 62
    7
 10
177.7488543536212
 20
196.90089457743878
 40
0.3036581503378378
  0
CIRCLE
  8
_1-3_
  6
CONTINUOUS
 62
    7
 10
177.3356174778294
 20
196.0744331978463
 40
0.3036581503378378
  0
CIRCLE
  8
_1-3_
  6
CONTINUOUS
 62
    7
 10
177.85671337230787
 20
200.24419011296453
 40
0.3036581503378378
  0
CIRCLE
  8
_1-3_
  6
CONTINUOUS
 62
    7
 10
177.44347649651607
 20
199.41772873337206
 40
0.3036581503378378
  0
CIRCLE
  8
_1-3_
  6
CONTINUOUS
 62
    7
 10
152.62015265387458
 20
168.96811820365289
 40
0.3036581503378378
  0
CIRCLE
  8
_1-3_
  6
CONTINUOUS
 62
    7
 10
152.20691577808279
 20
168.14165682406039
 40
0.3036581503378378
  0
CIRCLE
  8
_1-3_
  6
CONTINUOUS
 62
    7
 10
153.26724490603885
 20
167.35039375923776
 40
0.3036581503378378
  0
CIRCLE
  8
_1-3_
  6
CONTINUOUS
 62
    7
 10
152.85400803024706
 20
166.52393237964529
 40
0.3036581503378378
  0
CIRCLE
  8
_1-3_
  6
CONTINUOUS
 62
    7
 10
157.25763269372888
 20
168.86027155695734
 40
0.3036581503378378
  0
CIRCLE
  8
_1-3_
  6
CONTINUOUS
 62
    7
 10
156.84439581793708
 20
168.03381017736487
 40
0.3036581503378378
  0
CIRCLE
  8
_1-3_
  6
CONTINUOUS
 62
    7
 10
155.96346056139149
 20
168.75242491026182
 40
0.3036581503378378
  0
CIRCLE
  8
_1-3_
  6
CONTINUOUS
 62
    7
 10
155.55022368559966
 20
167.92596353066935
 40
0.3036581503378378
  0
CIRCLE
  8
_1-3_
  6
CONTINUOUS
 62
    7
 10
210.42695741395693
 20
167.78178034601984
 40
0.3036581503378378
  0
CIRCLE
  8
_1-3_
  6
CONTINUOUS
 62
    7
 10
210.01373291015625
 20
166.95531896642737
 40
0.3036581503378378
  0
CIRCLE
  8
_1-3_
  6
CONTINUOUS
 62
    7
 10
212.47608081714529
 20
166.37974919499578
 40
0.3036581503378378
  0
CIRCLE
  8
_1-3_
  6
CONTINUOUS
 62
    7
 10
212.06285631334461
 20
165.55328781540331
 40
0.3036581503378378
  0
CIRCLE
  8
_1-3_
  6
CONTINUOUS
 62
    7
 10
213.23101971600508
 20
169.39951716242609
 40
0.3036581503378378
  0
CIRCLE
  8
_1-3_
  6
CONTINUOUS
 62
    7
 10
212.8177952122044
 20
168.57305578283362
 40
0.3036581503378378
  0
CIRCLE
  8
_1-3_
  6
CONTINUOUS
 62
    7
 10
187.23953247070312
 20
193.01834106445312
 40
0.3036581503378378
  0
CIRCLE
  8
_1-3_
  6
CONTINUOUS
 62
    7
 10
186.82629559491133
 20
192.19187968486065
 40
0.3036581503378378
  0
CIRCLE
  8
_1-3_
  6
CONTINUOUS
 62
    7
 10
188.6597133327175
 20
194.78024869351773
 40
0.3036581503378378
  0
CIRCLE
  8
_1-3_
  6
CONTINUOUS
 62
    7
 10
179.474437816723
 20
198.08722006308068
 40
0.3036581503378378
  0
CIRCLE
  8
_1-3_
  6
CONTINUOUS
 62
    7
 10
179.06120094093117
 20
197.26075868348818
 40
0.3036581503378378
  0
CIRCLE
  8
_1-3_
  6
CONTINUOUS
 62
    7
 10
180.22937671558279
 20
200.24419011296453
 40
0.3036581503378378
  0
CIRCLE
  8
_1-3_
  6
CONTINUOUS
 62
    7
 10
176.25713863888302
 20
198.33924989442568
 40
0.3036581503378378
  0
CIRCLE
  8
_1-3_
  6
CONTINUOUS
 62
    7
 10
185.19040906751479
 20
201.64622126398862
 40
0.3036581503378378
  0
CIRCLE
  8
_1-3_
  6
CONTINUOUS
 62
    7
 10
184.777172191723
 20
200.81975988439612
 40
0.3036581503378378
  0
CIRCLE
  8
_1-3_
  6
CONTINUOUS
 62
    7
 10
187.99447136956294
 20
203.37180472709039
 40
0.3036581503378378
  0
CIRCLE
  8
_1-3_
  6
CONTINUOUS
 62
    7
 10
187.58123449377112
 20
202.54534334749789
 40
0.3036581503378378
  0
CIRCLE
  8
_1-3_
  6
CONTINUOUS
 62
    7
 10
177.10176210145693
 20
202.72471247492612
 40
0.3036581503378378
  0
CIRCLE
  8
_1-3_
  6
CONTINUOUS
 62
    7
 10
176.68852522566513
 20
201.89825109533362
 40
0.3036581503378378
  0
CIRCLE
  8
_1-3_
  6
CONTINUOUS
 62
    7
 10
176.34682320259714
 20
203.58749802048143
 40
0.3036581503378378
  0
CIRCLE
  8
_1-3_
  6
CONTINUOUS
 62
    7
 10
175.93358632680534
 20
202.76103664088896
 40
0.3036581503378378
  0
CIRCLE
  8
_1-3_
  6
CONTINUOUS
 62
    7
 10
188.31801130964951
 20
184.49830751161318
 40
0.3036581503378378
  0
CIRCLE
  8
_1-3_
  6
CONTINUOUS
 62
    7
 10
178.28809995908995
 20
191.93984985351562
 40
0.3036581503378378
  0
CIRCLE
  8
_1-3_
  6
CONTINUOUS
 62
    7
 10
179.25874452333193
 20
193.44974002322635
 40
0.3036581503378378
  0
CIRCLE
  8
_1-3_
  6
CONTINUOUS
 62
    7
 10
178.84550764754013
 20
192.62327864363388
 40
0.3036581503378378
  0
ARC
  8
_1-6_
  6
CONTINUOUS
 62
    3
 10
175.52991300015836
 20
124.23588520771749
 40
60.167986895586999
 50
86.259262084960938
 51
126.09986877441405
  0
ARC
  8
_1-6_
  6
CONTINUOUS
 62
    3
 10
171.36244490339951
 20
138.59951947186445
 40
41.611992088524076
 50
76.664901733398438
 51
135.69422912597656
  0
CIRCLE
  8
_1-3_
  6
CONTINUOUS
 62
    7
 10
164.43561450855154
 20
179.33546324033995
 40
0.3036581503378378
  0
CIRCLE
  8
_1-3_
  6
CONTINUOUS
 62
    7
 10
166.9210485509924
 20
179.1344926163957
 40
0.3036581503378378
  0
CIRCLE
  8
_1-3_
  6
CONTINUOUS
 62
    7
 10
167.07288999815245
 20
178.67899301889781
 40
0.3036581503378378
  0
CIRCLE
  8
_1-3_
  6
CONTINUOUS
 62
    7
 10
166.61739040065456
 20
177.91983527106208
 40
0.3036581503378378
  0
CIRCLE
  8
_1-3_
  6
CONTINUOUS
 62
    7
 10
168.13570589632602
 20
178.22350579339107
 40
0.3036581503378378
  0
CIRCLE
  8
_1-3_
  6
CONTINUOUS
 62
    7
 10
169.95767954233531
 20
179.1344926163957
 40
0.3036581503378378
  0
CIRCLE
  8
_1-3_
  6
CONTINUOUS
 62
    7
 10
180.58587564004435
 20
178.67899301889781
 40
0.3036581503378378
  0
CIRCLE
  8
_1-3_
  6
CONTINUOUS
 62
    7
 10
176.48642875052789
 20
176.40151977539062
 40
0.3036581503378378
  0
CIRCLE
  8
_1-3_
  6
CONTINUOUS
 62
    7
 10
164.94724582981419
 20
178.98266354122677
 40
0.3036581503378378
  0
CIRCLE
  8
_1-3_
  6
CONTINUOUS
 62
    7
 10
164.3399171571474
 20
177.61617712072425
 40
0.3036581503378378
  0
CIRCLE
  8
_1-3_
  6
CONTINUOUS
 62
    7
 10
164.79541675464529
 20
177.61617712072425
 40
0.3036581503378378
  0
CIRCLE
  8
_1-3_
  6
CONTINUOUS
 62
    7
 10
167.37654814849029
 20
177.76800619589318
 40
0.3036581503378378
  0
CIRCLE
  8
_1-3_
  6
CONTINUOUS
 62
    7
 10
173.08999551309122
 20
184.95322562552789
 40
0.3036581503378378
  0
CIRCLE
  8
_1-3_
  6
CONTINUOUS
 62
    7
 10
175.97479742926521
 20
185.71238337336362
 40
0.3036581503378378
  0
CIRCLE
  8
_1-3_
  6
CONTINUOUS
 62
    7
 10
169.44604822107266
 20
185.1050547006968
 40
0.3036581503378378
  0
CIRCLE
  8
_1-3_
  6
CONTINUOUS
 62
    7
 10
178.15657332136826
 20
175.94603254988388
 40
0.3036581503378378
  0
CIRCLE
  8
_1-3_
  6
CONTINUOUS
 62
    7
 10
178.759200637405
 20
184.74442353119721
 40
0.3036581503378378
  0
CIRCLE
  8
_1-3_
  6
CONTINUOUS
 62
    7
 10
160.81648543074326
 20
177.87053288640203
 40
0.3036581503378378
  0
CIRCLE
  8
_1-3_
  6
CONTINUOUS
 62
    7
 10
159.84602644636826
 20
175.44436068148227
 40
0.3036581503378378
  0
CIRCLE
  8
_1-3_
  6
CONTINUOUS
 62
    7
 10
162.51481339738177
 20
176.90007390202703
 40
0.3036581503378378
  0
CIRCLE
  8
_1-3_
  6
CONTINUOUS
 62
    7
 10
152.84601572397594
 20
175.36780280035896
 40
0.3036581503378378
  0
CIRCLE
  8
_1-3_
  6
CONTINUOUS
 62
    7
 10
152.43277884818414
 20
174.54134142076649
 40
0.3036581503378378
  0
CIRCLE
  8
_1-3_
  6
CONTINUOUS
 62
    7
 10
153.49310797614021
 20
173.75007835594386
 40
0.3036581503378378
  0
CIRCLE
  8
_1-3_
  6
CONTINUOUS
 62
    7
 10
157.48350813582138
 20
175.25995615366344
 40
0.3036581503378378
  0
CIRCLE
  8
_1-3_
  6
CONTINUOUS
 62
    7
 10
157.07027126002956
 20
174.43349477407097
 40
0.3036581503378378
  0
CIRCLE
  8
_1-3_
  6
CONTINUOUS
 62
    7
 10
156.18932363149284
 20
175.15210950696792
 40
0.3036581503378378
  0
CIRCLE
  8
_1-3_
  6
CONTINUOUS
 62
    7
 10
155.77608675570102
 20
174.32564812737544
 40
0.3036581503378378
  0
ARC
  8
_1-6_
  6
CONTINUOUS
 62
    3
 10
175.75577607025971
 20
130.63558217641472
 40
60.167986895586999
 50
86.259262084960938
 51
126.09986877441405
  0
ARC
  8
_1-6_
  6
CONTINUOUS
 62
    3
 10
171.58830797350086
 20
144.99921644056167
 40
41.611992088524076
 50
76.664901733398438
 51
135.69422912597656
  0
CIRCLE
  8
_1-3_
  6
CONTINUOUS
 62
    7
 10
170.89922518343539
 20
198.04144369589318
 40
0.3036581503378378
  0
CIRCLE
  8
_1-3_
  6
CONTINUOUS
 62
    7
 10
170.48598830764359
 20
197.21498231630068
 40
0.3036581503378378
  0
CIRCLE
  8
_1-3_
  6
CONTINUOUS
 62
    7
 10
194.53976192989865
 20
185.1050547006968
 40
0.3036581503378378
  0
CIRCLE
  8
_1-3_
  6
CONTINUOUS
 62
    7
 10
193.49982184332771
 20
197.21498231630068
 40
0.3036581503378378
  0
CIRCLE
  8
_1-3_
  6
CONTINUOUS
 62
    7
 10
189.45154550913219
 20
185.68960653769005
 40
0.3036581503378378
  0
CIRCLE
  8
_1-3_
  6
CONTINUOUS
 62
    7
 10
193.09549280115078
 20
184.93044878985432
 40
0.3036581503378378
  0
CIRCLE
  8
_1-3_
  6
CONTINUOUS
 62
    7
 10
192.33634742530617
 20
176.73155501082138
 40
0.3036581503378378
  0
CIRCLE
  8
_1-3_
  6
CONTINUOUS
 62
    7
 10
191.72901875263938
 20
174.15042361697635
 40
0.3036581503378378
  0
CIRCLE
  8
_1-3_
  6
CONTINUOUS
 62
    7
 10
190.21070325696792
 20
176.73155501082138
 40
0.3036581503378378
  0
CIRCLE
  8
_1-3_
  6
CONTINUOUS
 62
    7
 10
194.31015014648437
 20
176.73155501082138
 40
0.3036581503378378
  0
CIRCLE
  8
_1-3_
  6
CONTINUOUS
 62
    7
 10
194.91746644716005
 20
177.18705460831927
 40
0.3036581503378378
  0
CIRCLE
  8
_1-3_
  6
CONTINUOUS
 62
    7
 10
199.77607108451227
 20
172.93576627164273
 40
0.3036581503378378
  0
CIRCLE
  8
_1-3_
  6
CONTINUOUS
 62
    7
 10
197.29063704207138
 20
172.73479564769849
 40
0.3036581503378378
  0
CIRCLE
  8
_1-3_
  6
CONTINUOUS
 62
    7
 10
197.13879559491133
 20
172.2792960502006
 40
0.3036581503378378
  0
CIRCLE
  8
_1-3_
  6
CONTINUOUS
 62
    7
 10
197.59429519240922
 20
171.52013830236487
 40
0.3036581503378378
  0
CIRCLE
  8
_1-3_
  6
CONTINUOUS
 62
    7
 10
196.07597969673776
 20
171.82380882469386
 40
0.3036581503378378
  0
CIRCLE
  8
_1-3_
  6
CONTINUOUS
 62
    7
 10
194.25400605072846
 20
172.73479564769849
 40
0.3036581503378378
  0
CIRCLE
  8
_1-3_
  6
CONTINUOUS
 62
    7
 10
194.46197922165331
 20
175.82056818781675
 40
0.3036581503378378
  0
CIRCLE
  8
_1-3_
  6
CONTINUOUS
 62
    7
 10
183.62580995301943
 20
172.2792960502006
 40
0.3036581503378378
  0
CIRCLE
  8
_1-3_
  6
CONTINUOUS
 62
    7
 10
185.59961267419766
 20
171.52013830236487
 40
0.3036581503378378
  0
CIRCLE
  8
_1-3_
  6
CONTINUOUS
 62
    7
 10
188.02891499287375
 20
173.79761154587206
 40
0.3036581503378378
  0
CIRCLE
  8
_1-3_
  6
CONTINUOUS
 62
    7
 10
199.26443976324958
 20
172.58296657252956
 40
0.3036581503378378
  0
CIRCLE
  8
_1-3_
  6
CONTINUOUS
 62
    7
 10
199.87176843591641
 20
171.21648015202703
 40
0.3036581503378378
  0
CIRCLE
  8
_1-3_
  6
CONTINUOUS
 62
    7
 10
199.41626883841852
 20
171.21648015202703
 40
0.3036581503378378
  0
CIRCLE
  8
_1-3_
  6
CONTINUOUS
 62
    7
 10
196.83513744457349
 20
171.36830922719597
 40
0.3036581503378378
  0
CIRCLE
  8
_1-3_
  6
CONTINUOUS
 62
    7
 10
185.14412544869089
 20
173.79761154587206
 40
0.3036581503378378
  0
CIRCLE
  8
_1-3_
  6
CONTINUOUS
 62
    7
 10
194.76563737199115
 20
178.70535773199958
 40
0.3036581503378378
  0
CIRCLE
  8
_1-3_
  6
CONTINUOUS
 62
    7
 10
190.05887418179898
 20
177.64254183382602
 40
0.3036581503378378
  0
CIRCLE
  8
_1-3_
  6
CONTINUOUS
 62
    7
 10
192.33634742530617
 20
177.64254183382602
 40
0.3036581503378378
  0
CIRCLE
  8
_1-3_
  6
CONTINUOUS
 62
    7
 10
185.44778359902872
 20
173.19028287320523
 40
0.3036581503378378
  0
CIRCLE
  8
_1-3_
  6
CONTINUOUS
 62
    7
 10
185.59961267419766
 20
170.60915147936024
 40
0.3036581503378378
  0
CIRCLE
  8
_1-3_
  6
CONTINUOUS
 62
    7
 10
186.05511227169552
 20
169.54633558118667
 40
0.3036581503378378
  0
CIRCLE
  8
_1-3_
  6
CONTINUOUS
 62
    7
 10
196.8912815403294
 20
174.45408176731419
 40
0.3036581503378378
  0
CIRCLE
  8
_1-3_
  6
CONTINUOUS
 62
    7
 10
196.58761101800044
 20
175.51691003747891
 40
0.3036581503378378
  0
CIRCLE
  8
_1-3_
  6
CONTINUOUS
 62
    7
 10
186.14119658599029
 20
185.23191709776182
 40
0.3036581503378378
  0
CIRCLE
  8
_1-3_
  6
CONTINUOUS
 62
    7
 10
187.24315746410474
 20
176.55405405405406
 40
0.3036581503378378
  0
CIRCLE
  8
_1-3_
  6
CONTINUOUS
 62
    7
 10
201.45425744958828
 20
175.1101065970756
 40
0.3036581503378378
  0
CIRCLE
  8
_1-3_
  6
CONTINUOUS
 62
    7
 10
200.96902795740078
 20
173.65439337653083
 40
0.3036581503378378
  0
CIRCLE
  8
_1-3_
  6
CONTINUOUS
 62
    7
 10
203.39520016232055
 20
171.47083591770482
 40
0.3036581503378378
  0
CIRCLE
  8
_1-3_
  6
CONTINUOUS
 62
    7
 10
204.36565914669555
 20
169.04466371278505
 40
0.3036581503378378
  0
CIRCLE
  8
_1-3_
  6
CONTINUOUS
 62
    7
 10
201.69687219568203
 20
170.50037693332982
 40
0.3036581503378378
  0
CIRCLE
  8
_1-3_
  6
CONTINUOUS
 62
    7
 10
211.36566986908784
 20
168.96811820365289
 40
0.3036581503378378
  0
CIRCLE
  8
_1-3_
  6
CONTINUOUS
 62
    7
 10
211.77889437288852
 20
168.14165682406039
 40
0.3036581503378378
  0
CIRCLE
  8
_1-3_
  6
CONTINUOUS
 62
    7
 10
210.71856524493245
 20
167.35039375923776
 40
0.3036581503378378
  0
CIRCLE
  8
_1-3_
  6
CONTINUOUS
 62
    7
 10
206.72817745724242
 20
168.86027155695734
 40
0.3036581503378378
  0
CIRCLE
  8
_1-3_
  6
CONTINUOUS
 62
    7
 10
207.14141433303422
 20
168.03381017736487
 40
0.3036581503378378
  0
CIRCLE
  8
_1-3_
  6
CONTINUOUS
 62
    7
 10
208.02236196157097
 20
168.75242491026182
 40
0.3036581503378378
  0
CIRCLE
  8
_1-3_
  6
CONTINUOUS
 62
    7
 10
208.43558646537164
 20
167.92596353066935
 40
0.3036581503378378
  0
CIRCLE
  8
_1-3_
  6
CONTINUOUS
 62
    7
 10
187.5311279296875
 20
184.71400080500425
 40
0.3036581503378378
  0
CIRCLE
  8
_1-3_
  6
CONTINUOUS
 62
    7
 10
185.69771019188136
 20
191.93984985351562
 40
0.3036581503378378
  0
CIRCLE
  8
_1-3_
  6
CONTINUOUS
 62
    7
 10
186.11094706767315
 20
191.11338847392315
 40
0.3036581503378378
  0
CIRCLE
  8
_1-3_
  6
CONTINUOUS
 62
    7
 10
185.14030250343117
 20
192.62327864363388
 40
0.3036581503378378
  0
ARC
  8
_1-6_
  6
CONTINUOUS
 62
    3
 10
188.45589715081294
 20
124.23588520771749
 40
60.167986895586999
 50
53.900100708007813
 51
93.740707397460938
  0
ARC
  8
_1-6_
  6
CONTINUOUS
 62
    3
 10
192.6233652475718
 20
138.59951947186445
 40
41.611992088524076
 50
44.305740356445327
 51
103.33506774902347
  0
CIRCLE
  8
_1-3_
  6
CONTINUOUS
 62
    7
 10
189.22567006703972
 20
192.08930350638727
 40
0.3036581503378378
  0
CIRCLE
  8
_1-3_
  6
CONTINUOUS
 62
    7
 10
199.55019564241977
 20
179.33546324033995
 40
0.3036581503378378
  0
CIRCLE
  8
_1-3_
  6
CONTINUOUS
 62
    7
 10
197.06476159997891
 20
179.1344926163957
 40
0.3036581503378378
  0
CIRCLE
  8
_1-3_
  6
CONTINUOUS
 62
    7
 10
196.91292015281886
 20
178.67899301889781
 40
0.3036581503378378
  0
CIRCLE
  8
_1-3_
  6
CONTINUOUS
 62
    7
 10
197.36841975031675
 20
177.91983527106208
 40
0.3036581503378378
  0
CIRCLE
  8
_1-3_
  6
CONTINUOUS
 62
    7
 10
195.85010425464529
 20
178.22350579339107
 40
0.3036581503378378
  0
CIRCLE
  8
_1-3_
  6
CONTINUOUS
 62
    7
 10
194.02813060863599
 20
179.1344926163957
 40
0.3036581503378378
  0
CIRCLE
  8
_1-3_
  6
CONTINUOUS
 62
    7
 10
183.39993451092695
 20
178.67899301889781
 40
0.3036581503378378
  0
CIRCLE
  8
_1-3_
  6
CONTINUOUS
 62
    7
 10
199.03856432115711
 20
178.98266354122677
 40
0.3036581503378378
  0
CIRCLE
  8
_1-3_
  6
CONTINUOUS
 62
    7
 10
199.64589299382391
 20
177.61617712072425
 40
0.3036581503378378
  0
CIRCLE
  8
_1-3_
  6
CONTINUOUS
 62
    7
 10
199.19039339632602
 20
177.61617712072425
 40
0.3036581503378378
  0
CIRCLE
  8
_1-3_
  6
CONTINUOUS
 62
    7
 10
196.60926200248102
 20
177.76800619589318
 40
0.3036581503378378
  0
CIRCLE
  8
_1-3_
  6
CONTINUOUS
 62
    7
 10
190.89581463788008
 20
184.95322562552789
 40
0.3036581503378378
  0
CIRCLE
  8
_1-3_
  6
CONTINUOUS
 62
    7
 10
188.01101272170609
 20
185.71238337336362
 40
0.3036581503378378
  0
CIRCLE
  8
_1-3_
  6
CONTINUOUS
 62
    7
 10
194.53976192989865
 20
185.1050547006968
 40
0.3036581503378378
  0
CIRCLE
  8
_1-3_
  6
CONTINUOUS
 62
    7
 10
185.82923682960305
 20
175.94603254988388
 40
0.3036581503378378
  0
CIRCLE
  8
_1-3_
  6
CONTINUOUS
 62
    7
 10
186.74179489548143
 20
193.69777370143584
 40
0.3036581503378378
  0
CIRCLE
  8
_1-3_
  6
CONTINUOUS
 62
    7
 10
185.91532114389781
 20
191.63161406645904
 40
0.3036581503378378
  0
CIRCLE
  8
_1-3_
  6
CONTINUOUS
 62
    7
 10
203.16932472022805
 20
177.87053288640203
 40
0.3036581503378378
  0
CIRCLE
  8
_1-3_
  6
CONTINUOUS
 62
    7
 10
204.13978370460305
 20
175.44436068148227
 40
0.3036581503378378
  0
CIRCLE
  8
_1-3_
  6
CONTINUOUS
 62
    7
 10
201.47099675358953
 20
176.90007390202703
 40
0.3036581503378378
  0
CIRCLE
  8
_1-3_
  6
CONTINUOUS
 62
    7
 10
211.13978205500425
 20
175.36780280035896
 40
0.3036581503378378
  0
CIRCLE
  8
_1-3_
  6
CONTINUOUS
 62
    7
 10
211.55303130278716
 20
174.54134142076649
 40
0.3036581503378378
  0
CIRCLE
  8
_1-3_
  6
CONTINUOUS
 62
    7
 10
210.49270217483109
 20
173.75007835594386
 40
0.3036581503378378
  0
CIRCLE
  8
_1-3_
  6
CONTINUOUS
 62
    7
 10
206.50230201514992
 20
175.25995615366344
 40
0.3036581503378378
  0
CIRCLE
  8
_1-3_
  6
CONTINUOUS
 62
    7
 10
206.91553889094175
 20
174.43349477407097
 40
0.3036581503378378
  0
CIRCLE
  8
_1-3_
  6
CONTINUOUS
 62
    7
 10
207.79647414748734
 20
175.15210950696792
 40
0.3036581503378378
  0
CIRCLE
  8
_1-3_
  6
CONTINUOUS
 62
    7
 10
208.20972339527029
 20
174.32564812737544
 40
0.3036581503378378
  0
ARC
  8
_1-6_
  6
CONTINUOUS
 62
    3
 10
188.23003408071159
 20
130.63558217641472
 40
60.167986895586999
 50
53.900100708007813
 51
93.740707397460938
  0
ARC
  8
_1-6_
  6
CONTINUOUS
 62
    3
 10
192.39750217747044
 20
144.99921644056167
 40
41.611992088524076
 50
44.305740356445327
 51
103.33506774902347
  0
CIRCLE
  8
_1-3_
  6
CONTINUOUS
 62
    7
 10
170.78546472497891
 20
192.25281174118456
 40
0.3036581503378378
  0
CIRCLE
  8
_1-2_
  6
CONTINUOUS
 62
    7
 10
179.93298092403927
 20
200.69115303658151
 40
0.3036581503378378
  0
CIRCLE
  8
_1-2_
  6
CONTINUOUS
 62
    7
 10
180.38848052153716
 20
200.69115303658151
 40
0.3036581503378378
  0
CIRCLE
  8
_1-3_
  6
CONTINUOUS
 62
    7
 10
178.3550076871305
 20
199.47460277660474
 40
0.3036581503378378
  0
CIRCLE
  8
_1-3_
  6
CONTINUOUS
 62
    7
 10
177.9417708113387
 20
198.64814139701227
 40
0.3036581503378378
  0
CIRCLE
  8
_1-3_
  6
CONTINUOUS
 62
    7
 10
179.00209993929477
 20
197.85686596019849
 40
0.3036581503378378
  0
CIRCLE
  8
_1-3_
  6
CONTINUOUS
 62
    7
 10
178.58886306350297
 20
197.03040458060602
 40
0.3036581503378378
  0
CIRCLE
  8
_1-3_
  6
CONTINUOUS
 62
    7
 10
173.58749802048143
 20
204.70475067963471
 40
0.3036581503378378
  0
CIRCLE
  8
_1-3_
  6
CONTINUOUS
 62
    7
 10
173.17426114468961
 20
203.87828930004224
 40
0.3036581503378378
  0
CIRCLE
  8
_1-2_
  6
CONTINUOUS
 62
    7
 10
190.28442795212206
 20
204.51323225691513
 40
0.3036581503378378
  0
CIRCLE
  8
_1-2_
  6
CONTINUOUS
 62
    7
 10
190.73992754961995
 20
204.51323225691513
 40
0.3036581503378378
  0
CIRCLE
  8
_1-3_
  6
CONTINUOUS
 62
    7
 10
188.70645471521328
 20
203.29666962494721
 40
0.3036581503378378
  0
CIRCLE
  8
_1-3_
  6
CONTINUOUS
 62
    7
 10
188.29321783942146
 20
202.47020824535474
 40
0.3036581503378378
  0
CIRCLE
  8
_1-3_
  6
CONTINUOUS
 62
    7
 10
189.35354696737755
 20
201.67894518053211
 40
0.3036581503378378
  0
CIRCLE
  8
_1-3_
  6
CONTINUOUS
 62
    7
 10
188.94031009158573
 20
200.85248380093961
 40
0.3036581503378378
  0
CIRCLE
  8
_1-3_
  6
CONTINUOUS
 62
    7
 10
189.18421152475719
 20
204.88920469541807
 40
0.3036581503378378
  0
CIRCLE
  8
_1-3_
  6
CONTINUOUS
 62
    7
 10
188.77097464896539
 20
204.0627433158256
 40
0.3036581503378378
  0
CIRCLE
  8
_1-3_
  6
CONTINUOUS
 62
    7
 10
189.83130377692146
 20
203.27146787901182
 40
0.3036581503378378
  0
CIRCLE
  8
_1-3_
  6
CONTINUOUS
 62
    7
 10
189.41806690112966
 20
202.44500649941935
 40
0.3036581503378378
  0
CIRCLE
  8
_1-3_
  6
CONTINUOUS
 62
    7
 10
192.52853393554687
 20
198.35982451567779
 40
0.3036581503378378
  0
CIRCLE
  8
_1-3_
  6
CONTINUOUS
 62
    7
 10
192.11529705975508
 20
197.53336313608531
 40
0.3036581503378378
  0
CIRCLE
  8
_1-2_
  6
CONTINUOUS
 62
    7
 10
190.28442795212206
 20
197.18759072793497
 40
0.3036581503378378
  0
CIRCLE
  8
_1-2_
  6
CONTINUOUS
 62
    7
 10
190.73992754961995
 20
197.18759072793497
 40
0.3036581503378378
  0
CIRCLE
  8
_1-3_
  6
CONTINUOUS
 62
    7
 10
188.70645471521328
 20
195.97102809596709
 40
0.3036581503378378
  0
CIRCLE
  8
_1-3_
  6
CONTINUOUS
 62
    7
 10
189.35354696737755
 20
194.35330365155195
 40
0.3036581503378378
  0
CIRCLE
  8
_1-3_
  6
CONTINUOUS
 62
    7
 10
188.94031009158573
 20
193.52684227195948
 40
0.3036581503378378
  0
CIRCLE
  8
_1-3_
  6
CONTINUOUS
 62
    7
 10
191.09525113492398
 20
195.01551447687925
 40
0.3036581503378378
  0
CIRCLE
  8
_1-3_
  6
CONTINUOUS
 62
    7
 10
190.68201425913219
 20
194.18905309728675
 40
0.3036581503378378
  0
CIRCLE
  8
_1-3_
  6
CONTINUOUS
 62
    7
 10
191.32910651129646
 20
192.57132865287164
 40
0.3036581503378378
  0
CIRCLE
  8
_1-2_
  6
CONTINUOUS
 62
    7
 10
186.30310883393159
 20
196.86908618823904
 40
0.3036581503378378
  0
CIRCLE
  8
_1-3_
  6
CONTINUOUS
 62
    7
 10
184.72512322503169
 20
195.65252355627112
 40
0.3036581503378378
  0
CIRCLE
  8
_1-3_
  6
CONTINUOUS
 62
    7
 10
184.31188634923987
 20
194.82606217667865
 40
0.3036581503378378
  0
CIRCLE
  8
_1-3_
  6
CONTINUOUS
 62
    7
 10
184.95897860140414
 20
193.20833773226352
 40
0.3036581503378378
  0
CIRCLE
  8
_1-2_
  6
CONTINUOUS
 62
    7
 10
179.93298092403927
 20
196.3913293786951
 40
0.3036581503378378
  0
CIRCLE
  8
_1-2_
  6
CONTINUOUS
 62
    7
 10
180.38848052153716
 20
196.3913293786951
 40
0.3036581503378378
  0
CIRCLE
  8
_1-3_
  6
CONTINUOUS
 62
    7
 10
178.3550076871305
 20
195.17476674672722
 40
0.3036581503378378
  0
CIRCLE
  8
_1-3_
  6
CONTINUOUS
 62
    7
 10
177.9417708113387
 20
194.34830536713471
 40
0.3036581503378378
  0
CIRCLE
  8
_1-3_
  6
CONTINUOUS
 62
    7
 10
179.00209993929477
 20
193.55704230231208
 40
0.3036581503378378
  0
CIRCLE
  8
_1-3_
  6
CONTINUOUS
 62
    7
 10
178.58886306350297
 20
192.73058092271961
 40
0.3036581503378378
  0
CIRCLE
  8
_1-2_
  6
CONTINUOUS
 62
    7
 10
176.1109140756968
 20
195.11729884792021
 40
0.3036581503378378
  0
CIRCLE
  8
_1-2_
  6
CONTINUOUS
 62
    7
 10
176.56641367319469
 20
195.11729884792021
 40
0.3036581503378378
  0
CIRCLE
  8
_1-3_
  6
CONTINUOUS
 62
    7
 10
174.53292846679687
 20
193.90073621595229
 40
0.3036581503378378
  0
CIRCLE
  8
_1-3_
  6
CONTINUOUS
 62
    7
 10
174.11969159100508
 20
193.07427483635982
 40
0.3036581503378378
  0
CIRCLE
  8
_1-3_
  6
CONTINUOUS
 62
    7
 10
175.18002071896115
 20
192.28301177153716
 40
0.3036581503378378
  0
CIRCLE
  8
_1-3_
  6
CONTINUOUS
 62
    7
 10
174.76678384316935
 20
191.45655039194469
 40
0.3036581503378378
  0
CIRCLE
  8
_1-3_
  6
CONTINUOUS
 62
    7
 10
169.35218192435602
 20
192.41206401103253
 40
0.3036581503378378
  0
CIRCLE
  8
_1-2_
  6
CONTINUOUS
 62
    7
 10
150.94893171980576
 20
172.02560837204393
 40
0.3036581503378378
  0
CIRCLE
  8
_1-2_
  6
CONTINUOUS
 62
    7
 10
151.40443131730365
 20
172.02560837204393
 40
0.3036581503378378
  0
CIRCLE
  8
_1-3_
  6
CONTINUOUS
 62
    7
 10
149.37094611090583
 20
170.80904574007602
 40
0.3036581503378378
  0
CIRCLE
  8
_1-3_
  6
CONTINUOUS
 62
    7
 10
148.95770923511404
 20
169.98258436048354
 40
0.3036581503378378
  0
CIRCLE
  8
_1-3_
  6
CONTINUOUS
 62
    7
 10
150.0180383630701
 20
169.19132129566091
 40
0.3036581503378378
  0
CIRCLE
  8
_1-3_
  6
CONTINUOUS
 62
    7
 10
149.60480148727831
 20
168.36485991606841
 40
0.3036581503378378
  0
CIRCLE
  8
_1-2_
  6
CONTINUOUS
 62
    7
 10
151.26743625950169
 20
168.84055060309333
 40
0.3036581503378378
  0
CIRCLE
  8
_1-2_
  6
CONTINUOUS
 62
    7
 10
151.72293585699958
 20
168.84055060309333
 40
0.3036581503378378
  0
CIRCLE
  8
_1-3_
  6
CONTINUOUS
 62
    7
 10
149.68945065060177
 20
167.62398797112544
 40
0.3036581503378378
  0
CIRCLE
  8
_1-3_
  6
CONTINUOUS
 62
    7
 10
149.27621377480997
 20
166.79752659153294
 40
0.3036581503378378
  0
CIRCLE
  8
_1-3_
  6
CONTINUOUS
 62
    7
 10
150.33654290276607
 20
166.00626352671031
 40
0.3036581503378378
  0
CIRCLE
  8
_1-3_
  6
CONTINUOUS
 62
    7
 10
149.92330602697425
 20
165.17980214711784
 40
0.3036581503378378
  0
CIRCLE
  8
_1-2_
  6
CONTINUOUS
 62
    7
 10
207.64301196948904
 20
172.66261745143581
 40
0.3036581503378378
  0
CIRCLE
  8
_1-2_
  6
CONTINUOUS
 62
    7
 10
208.09852393897805
 20
172.66261745143581
 40
0.3036581503378378
  0
CIRCLE
  8
_1-3_
  6
CONTINUOUS
 62
    7
 10
206.06503873258023
 20
171.44605481946792
 40
0.3036581503378378
  0
CIRCLE
  8
_1-3_
  6
CONTINUOUS
 62
    7
 10
205.65180185678844
 20
170.61959343987544
 40
0.3036581503378378
  0
CIRCLE
  8
_1-3_
  6
CONTINUOUS
 62
    7
 10
206.71213098474453
 20
169.82833037505279
 40
0.3036581503378378
  0
CIRCLE
  8
_1-3_
  6
CONTINUOUS
 62
    7
 10
206.29889410895271
 20
169.00186899546031
 40
0.3036581503378378
  0
CIRCLE
  8
_1-3_
  6
CONTINUOUS
 62
    7
 10
188.38795017551732
 20
207.2780011151288
 40
0.3036581503378378
  0
CIRCLE
  8
_1-3_
  6
CONTINUOUS
 62
    7
 10
187.97471329972552
 20
206.45153973553633
 40
0.3036581503378378
  0
CIRCLE
  8
_1-3_
  6
CONTINUOUS
 62
    7
 10
189.03504242768159
 20
205.66026429872255
 40
0.3036581503378378
  0
CIRCLE
  8
_1-3_
  6
CONTINUOUS
 62
    7
 10
188.62180555188979
 20
204.83380291913008
 40
0.3036581503378378
  0
CIRCLE
  8
_1-2_
  6
CONTINUOUS
 62
    7
 10
176.42941861539273
 20
201.4874267578125
 40
0.3036581503378378
  0
CIRCLE
  8
_1-3_
  6
CONTINUOUS
 62
    7
 10
174.85144537848396
 20
200.27086412584461
 40
0.3036581503378378
  0
CIRCLE
  8
_1-3_
  6
CONTINUOUS
 62
    7
 10
174.43820850269216
 20
199.44440274625211
 40
0.3036581503378378
  0
CIRCLE
  8
_1-3_
  6
CONTINUOUS
 62
    7
 10
175.49852525865711
 20
198.65313968142948
 40
0.3036581503378378
  0
CIRCLE
  8
_1-3_
  6
CONTINUOUS
 62
    7
 10
175.08528838286529
 20
197.82667830183701
 40
0.3036581503378378
  0
ARC
  8
_1-2_
  6
CONTINUOUS
 62
    3
 10
130.02012510557432
 20
168.94980765677789
 40
17.964336807663376
 50
338.57107543945313
 51
12.195983886718752
  0
ARC
  8
_1-2_
  6
CONTINUOUS
 62
    3
 10
228.29926361908784
 20
167.4324942923881
 40
10.774474015107026
 50
158.57138061523437
 51
212.34779357910159
  0
CIRCLE
  8
_1-3_
  6
CONTINUOUS
 62
    7
 10
216.068115234375
 20
166.12382218644427
 40
0.3036581503378378
  0
CIRCLE
  8
_1-3_
  6
CONTINUOUS
 62
    7
 10
215.40497650971284
 20
168.70960544895482
 40
0.3036581503378378
  0
CIRCLE
  8
_1-3_
  6
CONTINUOUS
 62
    7
 10
214.99172726192992
 20
167.88314406936234
 40
0.3036581503378378
  0
CIRCLE
  8
_1-3_
  6
CONTINUOUS
 62
    7
 10
216.05205638988599
 20
167.09188100453972
 40
0.3036581503378378
  0
CIRCLE
  8
_1-3_
  6
CONTINUOUS
 62
    7
 10
215.63883188608531
 20
166.26541962494721
 40
0.3036581503378378
  0
CIRCLE
  8
_1-3_
  6
CONTINUOUS
 62
    7
 10
215.2532958984375
 20
164.33123201937289
 40
0.3036581503378378
  0
CIRCLE
  8
_1-3_
  6
CONTINUOUS
 62
    7
 10
214.59015717377534
 20
166.91701528188347
 40
0.3036581503378378
  0
CIRCLE
  8
_1-3_
  6
CONTINUOUS
 62
    7
 10
214.17693266997466
 20
166.09055390229096
 40
0.3036581503378378
  0
CIRCLE
  8
_1-3_
  6
CONTINUOUS
 62
    7
 10
215.23723705394849
 20
165.29929083746833
 40
0.3036581503378378
  0
CIRCLE
  8
_1-3_
  6
CONTINUOUS
 62
    7
 10
214.82401255014781
 20
164.47282945787586
 40
0.3036581503378378
  0
CIRCLE
  8
_1-3_
  6
CONTINUOUS
 62
    7
 10
216.2310791015625
 20
169.54603865339951
 40
0.3036581503378378
  0
CIRCLE
  8
_1-3_
  6
CONTINUOUS
 62
    7
 10
215.56794037690034
 20
172.1318342879012
 40
0.3036581503378378
  0
CIRCLE
  8
_1-3_
  6
CONTINUOUS
 62
    7
 10
215.15469112911742
 20
171.3053729083087
 40
0.3036581503378378
  0
CIRCLE
  8
_1-3_
  6
CONTINUOUS
 62
    7
 10
216.21502025707349
 20
170.51409747149495
 40
0.3036581503378378
  0
CIRCLE
  8
_1-3_
  6
CONTINUOUS
 62
    7
 10
215.80179575327281
 20
169.68763609190245
 40
0.3036581503378378
  0
CIRCLE
  8
_1-3_
  6
CONTINUOUS
 62
    7
 10
159.19409674567146
 20
174.27195368586362
 40
0.3036581503378378
  0
CIRCLE
  8
_1-3_
  6
CONTINUOUS
 62
    7
 10
158.5309580210093
 20
176.85774932036529
 40
0.3036581503378378
  0
CIRCLE
  8
_1-3_
  6
CONTINUOUS
 62
    7
 10
158.1177211452175
 20
176.03128794077281
 40
0.3036581503378378
  0
CIRCLE
  8
_1-3_
  6
CONTINUOUS
 62
    7
 10
159.17805027317357
 20
175.24002487595018
 40
0.3036581503378378
  0
CIRCLE
  8
_1-3_
  6
CONTINUOUS
 62
    7
 10
158.76481339738177
 20
174.41356349635768
 40
0.3036581503378378
  0
CIRCLE
  8
_1-3_
  6
CONTINUOUS
 62
    7
 10
175.73481791728253
 20
176.47195352090372
 40
0.3036581503378378
  0
CIRCLE
  8
_1-3_
  6
CONTINUOUS
 62
    7
 10
175.07167919262037
 20
179.05774915540542
 40
0.3036581503378378
  0
CIRCLE
  8
_1-3_
  6
CONTINUOUS
 62
    7
 10
174.65844231682857
 20
178.23128777581294
 40
0.3036581503378378
  0
CIRCLE
  8
_1-3_
  6
CONTINUOUS
 62
    7
 10
175.71877144478464
 20
177.44002471099029
 40
0.3036581503378378
  0
CIRCLE
  8
_1-3_
  6
CONTINUOUS
 62
    7
 10
175.30553456899284
 20
176.61356333139781
 40
0.3036581503378378
  0
ARC
  8
_1-2_
  6
CONTINUOUS
 62
    3
 10
179.2766096785262
 20
170.12247446421031
 40
41.612016832506335
 50
95
 51
124.5146484375
  0
ARC
  8
_1-2_
  6
CONTINUOUS
 62
    3
 10
180.58011029217695
 20
155.22338042388091
 40
60.168024011560391
 50
95
 51
114.92028808593749
  0
ARC
  8
_1-2_
  6
CONTINUOUS
 62
    3
 10
178.13891849002323
 20
164.03148341823268
 40
41.612016832506335
 50
95
 51
124.5146484375
  0
ARC
  8
_1-2_
  6
CONTINUOUS
 62
    3
 10
179.44241910367398
 20
149.13238937790331
 40
60.168024011560391
 50
95
 51
114.92028808593749
  0
ARC
  8
_1-2_
  6
CONTINUOUS
 62
    3
 10
177.20631779851141
 20
157.91647833746833
 40
41.612016832506335
 50
95
 51
124.5146484375
  0
ARC
  8
_1-2_
  6
CONTINUOUS
 62
    3
 10
178.50981841216216
 20
143.01738429713893
 40
60.168024011560391
 50
95
 51
114.92028808593749
  0
ARC
  8
_1-2_
  6
CONTINUOUS
 62
    3
 10
177.52410476272172
 20
136.9187473606419
 40
60.168024011560391
 50
95
 51
114.92028808593749
  0
CIRCLE
  8
_1-2_
  6
CONTINUOUS
 62
    7
 10
176.88368101377745
 20
198.11514364706505
 40
0.3036581503378378
  0
CIRCLE
  8
_1-2_
  6
CONTINUOUS
 62
    7
 10
177.33918061127534
 20
198.11514364706505
 40
0.3036581503378378
  0
CIRCLE
  8
_1-2_
  6
CONTINUOUS
 62
    7
 10
175.4504105851457
 20
198.27439591691302
 40
0.3036581503378378
  0
CIRCLE
  8
_1-2_
  6
CONTINUOUS
 62
    7
 10
175.90591018264359
 20
198.27439591691302
 40
0.3036581503378378
  0
ARC
  8
_1-2_
  6
CONTINUOUS
 62
    3
 10
176.22060414907097
 20
151.8178414009713
 40
41.612016832506335
 50
97.61248779296875
 51
124.51463317871092
  0
ARC
  8
_1-2_
  6
CONTINUOUS
 62
    3
 10
176.22060414907097
 20
151.8178414009713
 40
41.612016832506335
 50
95.711288452148438
 51
97.612503051757813
  0
ARC
  8
_1-2_
  6
CONTINUOUS
 62
    3
 10
176.22060414907097
 20
151.8178414009713
 40
41.612016832506335
 50
95
 51
95.593093872070312
  0
ARC
  8
_1-2_
  6
CONTINUOUS
 62
    3
 10
176.22060414907097
 20
151.8178414009713
 40
41.612016832506335
 50
95.593093872070327
 51
95.711288452148452
  0
ARC
  8
_1-2_
  6
CONTINUOUS
 62
    3
 10
180.01228538719386
 20
176.05255539352831
 40
41.612016832506335
 50
95
 51
124.5146484375
  0
ARC
  8
_1-2_
  6
CONTINUOUS
 62
    3
 10
181.31578600084461
 20
161.15346135319891
 40
60.168024011560391
 50
95
 51
114.92028808593749
  0
CIRCLE
  8
_1-2_
  6
CONTINUOUS
 62
    7
 10
189.01193154824747
 20
207.53903775601773
 40
0.3036581503378378
  0
CIRCLE
  8
_1-2_
  6
CONTINUOUS
 62
    7
 10
187.55639153557857
 20
201.4874267578125
 40
0.3036581503378378
  0
ARC
  8
_1-2_
  6
CONTINUOUS
 62
    3
 10
184.7092004724451
 20
170.12247446421031
 40
41.612016832506335
 50
55.485351562500036
 51
85.000000000000028
  0
ARC
  8
_1-2_
  6
CONTINUOUS
 62
    3
 10
183.40569985879435
 20
155.22338042388091
 40
60.168024011560391
 50
65.079711914062472
 51
84.999999999999972
  0
ARC
  8
_1-2_
  6
CONTINUOUS
 62
    3
 10
186.7794923524599
 20
157.91647833746833
 40
41.612016832506335
 50
55.485351562500036
 51
85.000000000000028
  0
ARC
  8
_1-2_
  6
CONTINUOUS
 62
    3
 10
186.46170538824958
 20
136.9187473606419
 40
60.168024011560391
 50
65.079711914062472
 51
84.999999999999972
  0
CIRCLE
  8
_1-2_
  6
CONTINUOUS
 62
    7
 10
188.5353995658256
 20
198.27439591691302
 40
0.3036581503378378
  0
CIRCLE
  8
_1-2_
  6
CONTINUOUS
 62
    7
 10
188.07989996832771
 20
198.27439591691302
 40
0.3036581503378378
  0
ARC
  8
_1-2_
  6
CONTINUOUS
 62
    3
 10
187.76520600190034
 20
151.8178414009713
 40
41.612016832506335
 50
55.485351562500036
 51
82.38749694824223
  0
ARC
  8
_1-2_
  6
CONTINUOUS
 62
    3
 10
187.76520600190034
 20
151.8178414009713
 40
41.612016832506335
 50
82.387496948242145
 51
84.28871154785152
  0
ARC
  8
_1-2_
  6
CONTINUOUS
 62
    3
 10
187.76520600190034
 20
151.8178414009713
 40
41.612016832506335
 50
84.406906127929702
 51
85.000000000000014
  0
ARC
  8
_1-2_
  6
CONTINUOUS
 62
    3
 10
187.76520600190034
 20
151.8178414009713
 40
41.612016832506335
 50
84.28871154785152
 51
84.406906127929645
  0
ARC
  8
_1-2_
  6
CONTINUOUS
 62
    3
 10
183.97352476377745
 20
176.05255539352831
 40
41.612016832506335
 50
55.485351562500036
 51
85.000000000000028
  0
ARC
  8
_1-2_
  6
CONTINUOUS
 62
    3
 10
182.67002415012669
 20
161.15346135319891
 40
60.168024011560391
 50
65.079711914062472
 51
84.999999999999972
  0
ARC
  8
_1-2_
  6
CONTINUOUS
 62
    3
 10
181.99290507548565
 20
173.8978741620038
 40
48.724841556033574
 50
63.816116333007827
 51
116.1838836669922
  0
ARC
  8
_1-2_
  6
CONTINUOUS
 62
    3
 10
181.99290507548565
 20
187.10183220940669
 40
41.520850722854206
 50
58.814392089843743
 51
121.18560791015624
  0
ARC
  8
_1-2_
  6
CONTINUOUS
 62
    3
 10
181.99290507548565
 20
172.84145458324537
 40
59.781219894821582
 50
68.921615600585909
 51
111.07835388183591
  0
CIRCLE
  8
_1-3_
  6
CONTINUOUS
 62
    7
 10
178.09674237225508
 20
210.33263335356841
 40
0.3036581503378378
  0
CIRCLE
  8
_1-3_
  6
CONTINUOUS
 62
    7
 10
177.68350549646328
 20
209.50618434596709
 40
0.3036581503378378
  0
CIRCLE
  8
_1-3_
  6
CONTINUOUS
 62
    7
 10
177.34180347339529
 20
211.19543127111487
 40
0.3036581503378378
  0
CIRCLE
  8
_1-3_
  6
CONTINUOUS
 62
    7
 10
176.92856659760346
 20
210.36895751953125
 40
0.3036581503378378
  0
CIRCLE
  8
_1-2_
  6
CONTINUOUS
 62
    7
 10
177.42439888619089
 20
209.09536000844597
 40
0.3036581503378378
  0
CIRCLE
  8
_1-3_
  6
CONTINUOUS
 62
    7
 10
179.53670604808912
 20
206.17272454339107
 40
0.3036581503378378
  0
CIRCLE
  8
_1-3_
  6
CONTINUOUS
 62
    7
 10
179.12346917229732
 20
205.34626316379857
 40
0.3036581503378378
  0
CIRCLE
  8
_1-3_
  6
CONTINUOUS
 62
    7
 10
178.78176714922932
 20
207.03551008894638
 40
0.3036581503378378
  0
CIRCLE
  8
_1-3_
  6
CONTINUOUS
 62
    7
 10
178.3685302734375
 20
206.20904870935391
 40
0.3036581503378378
  0
CIRCLE
  8
_1-2_
  6
CONTINUOUS
 62
    7
 10
178.86436256202492
 20
204.93543882627745
 40
0.3036581503378378
  0
CIRCLE
  8
_1-3_
  6
CONTINUOUS
 62
    7
 10
187.32320424672722
 20
206.06606560784419
 40
0.3036581503378378
  0
CIRCLE
  8
_1-3_
  6
CONTINUOUS
 62
    7
 10
186.90996737093539
 20
205.23960422825169
 40
0.3036581503378378
  0
CIRCLE
  8
_1-3_
  6
CONTINUOUS
 62
    7
 10
186.5682653478674
 20
206.92885115339951
 40
0.3036581503378378
  0
CIRCLE
  8
_1-3_
  6
CONTINUOUS
 62
    7
 10
186.1550284720756
 20
206.10238977380703
 40
0.3036581503378378
  0
CIRCLE
  8
_1-2_
  6
CONTINUOUS
 62
    7
 10
186.65086076066302
 20
204.82877989073057
 40
0.3036581503378378
  0
CIRCLE
  8
_1-3_
  6
CONTINUOUS
 62
    7
 10
185.24324984163852
 20
210.33263335356841
 40
0.3036581503378378
  0
CIRCLE
  8
_1-3_
  6
CONTINUOUS
 62
    7
 10
184.83001296584672
 20
209.50618434596709
 40
0.3036581503378378
  0
CIRCLE
  8
_1-3_
  6
CONTINUOUS
 62
    7
 10
184.48831094277872
 20
211.19543127111487
 40
0.3036581503378378
  0
CIRCLE
  8
_1-3_
  6
CONTINUOUS
 62
    7
 10
184.07507406698693
 20
210.36895751953125
 40
0.3036581503378378
  0
CIRCLE
  8
_1-2_
  6
CONTINUOUS
 62
    7
 10
184.57090635557432
 20
209.09536000844597
 40
0.3036581503378378
  0
CIRCLE
  8
_1-3_
  6
CONTINUOUS
 62
    7
 10
186.73656154323268
 20
212.46593578441724
 40
0.3036581503378378
  0
CIRCLE
  8
_1-3_
  6
CONTINUOUS
 62
    7
 10
186.32332466744089
 20
211.63946203283362
 40
0.3036581503378378
  0
CIRCLE
  8
_1-3_
  6
CONTINUOUS
 62
    7
 10
185.98162264437289
 20
213.32870895798143
 40
0.3036581503378378
  0
CIRCLE
  8
_1-3_
  6
CONTINUOUS
 62
    7
 10
185.56838576858109
 20
212.50225995038008
 40
0.3036581503378378
  0
CIRCLE
  8
_1-2_
  6
CONTINUOUS
 62
    7
 10
186.06421805716852
 20
211.2286376953125
 40
0.3036581503378378
  0
CIRCLE
  8
_1-3_
  6
CONTINUOUS
 62
    7
 10
178.79005638328761
 20
213.31923201277451
 40
0.3036581503378378
  0
CIRCLE
  8
_1-3_
  6
CONTINUOUS
 62
    7
 10
178.37681950749578
 20
212.49278300517315
 40
0.3036581503378378
  0
CIRCLE
  8
_1-3_
  6
CONTINUOUS
 62
    7
 10
178.03511748442779
 20
214.18202993032097
 40
0.3036581503378378
  0
CIRCLE
  8
_1-3_
  6
CONTINUOUS
 62
    7
 10
177.62188060863599
 20
213.35555617873734
 40
0.3036581503378378
  0
CIRCLE
  8
_1-2_
  6
CONTINUOUS
 62
    7
 10
178.11771289722341
 20
212.08195866765203
 40
0.3036581503378378
  0
CIRCLE
  8
_1-3_
  6
CONTINUOUS
 62
    7
 10
177.77674082163219
 20
215.71920034047722
 40
0.3036581503378378
  0
CIRCLE
  8
_1-3_
  6
CONTINUOUS
 62
    7
 10
177.36350394584039
 20
214.89272658889359
 40
0.3036581503378378
  0
CIRCLE
  8
_1-3_
  6
CONTINUOUS
 62
    7
 10
177.0218019227724
 20
216.58197351404141
 40
0.3036581503378378
  0
CIRCLE
  8
_1-3_
  6
CONTINUOUS
 62
    7
 10
176.60856504698057
 20
215.75552450644005
 40
0.3036581503378378
  0
CIRCLE
  8
_1-2_
  6
CONTINUOUS
 62
    7
 10
177.104397335568
 20
214.48190225137247
 40
0.3036581503378378
  0
CIRCLE
  8
_1-3_
  6
CONTINUOUS
 62
    7
 10
185.4032444309544
 20
206.43939044024495
 40
0.3036581503378378
  0
CIRCLE
  8
_1-3_
  6
CONTINUOUS
 62
    7
 10
184.99000755516261
 20
205.61292906065245
 40
0.3036581503378378
  0
CIRCLE
  8
_1-3_
  6
CONTINUOUS
 62
    7
 10
184.64830553209461
 20
207.30217598580026
 40
0.3036581503378378
  0
CIRCLE
  8
_1-3_
  6
CONTINUOUS
 62
    7
 10
184.23506865630279
 20
206.47571460620779
 40
0.3036581503378378
  0
CIRCLE
  8
_1-2_
  6
CONTINUOUS
 62
    7
 10
184.73090094489021
 20
205.20210472313136
 40
0.3036581503378378
  0
CIRCLE
  8
_1-3_
  6
CONTINUOUS
 62
    7
 10
184.65659476615289
 20
202.43947621938347
 40
0.3036581503378378
  0
CIRCLE
  8
_1-3_
  6
CONTINUOUS
 62
    7
 10
184.24335789036107
 20
201.61301483979096
 40
0.3036581503378378
  0
CIRCLE
  8
_1-3_
  6
CONTINUOUS
 62
    7
 10
183.90165586729307
 20
203.30226176493878
 40
0.3036581503378378
  0
CIRCLE
  8
_1-3_
  6
CONTINUOUS
 62
    7
 10
183.48841899150128
 20
202.4758003853463
 40
0.3036581503378378
  0
CIRCLE
  8
_1-2_
  6
CONTINUOUS
 62
    7
 10
183.9842512800887
 20
201.20219050226987
 40
0.3036581503378378
  0
CIRCLE
  8
_1-3_
  6
CONTINUOUS
 62
    7
 10
180.33669136665964
 20
203.07945457664698
 40
0.3036581503378378
  0
CIRCLE
  8
_1-3_
  6
CONTINUOUS
 62
    7
 10
179.92345449086784
 20
202.25299319705448
 40
0.3036581503378378
  0
CIRCLE
  8
_1-3_
  6
CONTINUOUS
 62
    7
 10
179.58175246779984
 20
203.94224012220229
 40
0.3036581503378378
  0
CIRCLE
  8
_1-3_
  6
CONTINUOUS
 62
    7
 10
179.16851559200802
 20
203.11577874260982
 40
0.3036581503378378
  0
CIRCLE
  8
_1-2_
  6
CONTINUOUS
 62
    7
 10
179.66434788059544
 20
201.84216885953336
 40
0.3036581503378378
  0
CIRCLE
  8
_1-3_
  6
CONTINUOUS
 62
    7
 10
180.81667513460727
 20
209.15932320259714
 40
0.3036581503378378
  0
CIRCLE
  8
_1-3_
  6
CONTINUOUS
 62
    7
 10
180.40343825881547
 20
208.33287419499578
 40
0.3036581503378378
  0
CIRCLE
  8
_1-3_
  6
CONTINUOUS
 62
    7
 10
180.06173623574747
 20
210.02212112014359
 40
0.3036581503378378
  0
CIRCLE
  8
_1-3_
  6
CONTINUOUS
 62
    7
 10
179.64849935995568
 20
209.19564736855997
 40
0.3036581503378378
  0
CIRCLE
  8
_1-2_
  6
CONTINUOUS
 62
    7
 10
180.14433164854307
 20
207.92204985747466
 40
0.3036581503378378
  0
CIRCLE
  8
_1-3_
  6
CONTINUOUS
 62
    7
 10
176.60343067066091
 20
206.01272995407518
 40
0.3036581503378378
  0
CIRCLE
  8
_1-3_
  6
CONTINUOUS
 62
    7
 10
176.19019379486909
 20
205.18626857448271
 40
0.3036581503378378
  0
CIRCLE
  8
_1-3_
  6
CONTINUOUS
 62
    7
 10
175.84849177180112
 20
206.8755154996305
 40
0.3036581503378378
  0
CIRCLE
  8
_1-3_
  6
CONTINUOUS
 62
    7
 10
175.4352548960093
 20
206.04905412003802
 40
0.3036581503378378
  0
CIRCLE
  8
_1-2_
  6
CONTINUOUS
 62
    7
 10
175.93108718459672
 20
204.77544423696159
 40
0.3036581503378378
  0
CIRCLE
  8
_1-3_
  6
CONTINUOUS
 62
    7
 10
185.08325525232266
 20
197.37291078309755
 40
0.3036581503378378
  0
CIRCLE
  8
_1-3_
  6
CONTINUOUS
 62
    7
 10
184.67001837653083
 20
196.54644940350508
 40
0.3036581503378378
  0
CIRCLE
  8
_1-3_
  6
CONTINUOUS
 62
    7
 10
184.32831635346284
 20
198.23569632865289
 40
0.3036581503378378
  0
CIRCLE
  8
_1-3_
  6
CONTINUOUS
 62
    7
 10
183.91507947767104
 20
197.40923494906039
 40
0.3036581503378378
  0
CIRCLE
  8
_1-2_
  6
CONTINUOUS
 62
    7
 10
184.41091176625847
 20
196.13562506598396
 40
0.3036581503378378
  0
CIRCLE
  8
_1-3_
  6
CONTINUOUS
 62
    7
 10
181.51000151763091
 20
211.71928611961573
 40
0.3036581503378378
  0
CIRCLE
  8
_1-3_
  6
CONTINUOUS
 62
    7
 10
181.09676464183912
 20
210.89281236803211
 40
0.3036581503378378
  0
CIRCLE
  8
_1-3_
  6
CONTINUOUS
 62
    7
 10
180.75506261877112
 20
212.58205929317992
 40
0.3036581503378378
  0
CIRCLE
  8
_1-3_
  6
CONTINUOUS
 62
    7
 10
180.34182574297932
 20
211.75561028557857
 40
0.3036581503378378
  0
CIRCLE
  8
_1-2_
  6
CONTINUOUS
 62
    7
 10
180.83765803156675
 20
210.48198803051099
 40
0.3036581503378378
  0
CIRCLE
  8
_1-3_
  6
CONTINUOUS
 62
    7
 10
185.34992114917654
 20
212.78592496304898
 40
0.3036581503378378
  0
CIRCLE
  8
_1-3_
  6
CONTINUOUS
 62
    7
 10
184.93668427338471
 20
211.95945121146539
 40
0.3036581503378378
  0
CIRCLE
  8
_1-3_
  6
CONTINUOUS
 62
    7
 10
184.59498225031675
 20
213.64869813661318
 40
0.3036581503378378
  0
CIRCLE
  8
_1-3_
  6
CONTINUOUS
 62
    7
 10
184.18174537452492
 20
212.82224912901182
 40
0.3036581503378378
  0
CIRCLE
  8
_1-2_
  6
CONTINUOUS
 62
    7
 10
184.67757766311234
 20
211.54862687394427
 40
0.3036581503378378
  0
CIRCLE
  8
_1-3_
  6
CONTINUOUS
 62
    7
 10
176.49677173511404
 20
209.10599992081927
 40
0.3036581503378378
  0
CIRCLE
  8
_1-3_
  6
CONTINUOUS
 62
    7
 10
176.08353485932221
 20
208.27952616923565
 40
0.3036581503378378
  0
CIRCLE
  8
_1-3_
  6
CONTINUOUS
 62
    7
 10
175.74183283625425
 20
209.96877309438347
 40
0.3036581503378378
  0
CIRCLE
  8
_1-3_
  6
CONTINUOUS
 62
    7
 10
175.32859596046242
 20
209.14232408678211
 40
0.3036581503378378
  0
CIRCLE
  8
_1-2_
  6
CONTINUOUS
 62
    7
 10
175.82442824904984
 20
207.86870183171453
 40
0.3036581503378378
  0
ARC
  8
_1-2_
  6
CONTINUOUS
 62
    3
 10
185.84689166094807
 20
164.03148341823268
 40
41.612016832506335
 50
55.485351562500036
 51
75.227996826171918
  0
ARC
  8
_1-2_
  6
CONTINUOUS
 62
    3
 10
185.84689166094807
 20
164.03148341823268
 40
41.612016832506335
 50
75.227996826171875
 51
85
  0
ARC
  8
_1-2_
  6
CONTINUOUS
 62
    3
 10
185.47599173880914
 20
143.01738429713893
 40
60.168024011560391
 50
65.079711914062472
 51
82.705245971679659
  0
ARC
  8
_1-2_
  6
CONTINUOUS
 62
    3
 10
185.47599173880914
 20
143.01738429713893
 40
60.168024011560391
 50
82.705245971679688
 51
83.565948486328139
  0
ARC
  8
_1-2_
  6
CONTINUOUS
 62
    3
 10
185.47599173880914
 20
143.01738429713893
 40
60.168024011560391
 50
83.565948486328125
 51
84.999999999999986
  0
ARC
  8
_1-2_
  6
CONTINUOUS
 62
    3
 10
181.80947793496622
 20
173.46178621859164
 40
42.300771764806804
 50
94.632751464843764
 51
100.72543334960939
  0
ARC
  8
_1-2_
  6
CONTINUOUS
 62
    3
 10
181.80947793496622
 20
173.46178621859164
 40
42.300771764806804
 50
79.934860229492188
 51
84.868560791015625
  0
ARC
  8
_1-2_
  6
CONTINUOUS
 62
    3
 10
154.01509465398016
 20
-1499.6135979729731
 40
1717.2361301731421
 50
89.186599731445313
 51
89.263046264648438
  0
ARC
  8
_1-2_
  6
CONTINUOUS
 62
    3
 10
154.01509465398016
 20
-1499.6135979729731
 40
1717.2361301731421
 50
88.804550170898437
 51
88.946334838867202
  0
ARC
  8
_1-2_
  6
CONTINUOUS
 62
    3
 10
181.99294219145904
 20
172.19666352143159
 40
49.277238588075384
 50
90.581420898437514
 51
97.718475341796889
  0
ARC
  8
_1-2_
  6
CONTINUOUS
 62
    3
 10
181.99294219145904
 20
172.19666352143159
 40
49.277238588075384
 50
82.281280517578139
 51
89.418670654296889
  0
ARC
  8
_1-2_
  6
CONTINUOUS
 62
    3
 10
182.69147718274917
 20
305.04621351087417
 40
94.113761283255911
 50
264.52784729003906
 51
269.14851379394531
  0
ARC
  8
_1-2_
  6
CONTINUOUS
 62
    3
 10
182.69147718274917
 20
305.04621351087417
 40
94.113761283255911
 50
270.0008544921875
 51
274.95269775390625
  0
ARC
  8
_1-2_
  6
CONTINUOUS
 62
    3
 10
182.63504853119721
 20
150.3261999181799
 40
59.391310408308705
 50
91.294906616210938
 51
98.926101684570313
  0
ARC
  8
_1-2_
  6
CONTINUOUS
 62
    3
 10
182.63504853119721
 20
150.3261999181799
 40
59.391310408308705
 50
77.140167236328125
 51
89.944198608398438
  0
ARC
  8
_1-2_
  6
CONTINUOUS
 62
    3
 10
183.6254387932855
 20
388.33331958667657
 40
183.31137579840583
 50
266.68595886230469
 51
269.27091979980469
  0
ARC
  8
_1-2_
  6
CONTINUOUS
 62
    3
 10
183.6254387932855
 20
388.33331958667657
 40
183.31137579840583
 50
269.70851135253906
 51
272.57424926757812
  0
ARC
  8
_1-2_
  6
CONTINUOUS
 62
    3
 10
181.58790794578761
 20
142.28271071975297
 40
61.255243662241348
 50
90.27593994140625
 51
98.06640625
  0
ARC
  8
_1-2_
  6
CONTINUOUS
 62
    3
 10
181.58790794578761
 20
142.28271071975297
 40
61.255243662241348
 50
81.434661865234375
 51
88.966384887695312
  0
CIRCLE
  8
_1-3_
  6
CONTINUOUS
 62
    7
 10
179.81613983979096
 20
199.41772873337206
 40
0.3036581503378378
  0
ARC
  8
_1-2_
  6
CONTINUOUS
 62
    3
 10
181.80947793496622
 20
722.31682854729729
 40
523.25742979307438
 50
268.88902282714844
 51
269.94342041015625
  0
ARC
  8
_1-2_
  6
CONTINUOUS
 62
    3
 10
181.80947793496622
 20
722.31682854729729
 40
523.25742979307438
 50
270.09672546386719
 51
271.14599609375
  0
ARC
  8
_1-2_
  6
CONTINUOUS
 62
    3
 10
182.05350308804898
 20
158.78782530088682
 40
39.583341237661003
 50
91.10101318359375
 51
106.7450714111328
  0
ARC
  8
_1-2_
  6
CONTINUOUS
 62
    3
 10
182.05350308804898
 20
158.78782530088682
 40
39.583341237661003
 50
73.139495849609375
 51
89.074462890625
  0
ARC
  8
_1-2_
  6
CONTINUOUS
 62
    3
 10
182.21325023754224
 20
284.0533447265625
 40
91.552858094911329
 50
263.19461059570312
 51
269.42401123046875
  0
ARC
  8
_1-2_
  6
CONTINUOUS
 62
    3
 10
182.21325023754224
 20
284.0533447265625
 40
91.552858094911329
 50
270.30015563964844
 51
276.66529846191406
  0
ARC
  8
_1-2_
  6
CONTINUOUS
 62
    3
 10
184.54339104729732
 20
149.13238937790331
 40
60.168024011560391
 50
65.079711914062472
 51
84.999999999999972
  0
TEXT
  8
_0-0_
 62
    7
 10
141.89189395389042
 20
14.594594594594582
 40
2.5
 41
1
 50
0
  1
縮尺
  0
TEXT
  8
_0-0_
 62
    7
 10
377.10214563318203
 20
22.865493362014362
 40
2.5
 41
1
 50
0
  1
ＮＯ
  0
TEXT
  8
_0-0_
 62
    7
 10
14.594594336844779
 20
24.324324324324323
 40
2.5
 41
1
 50
0
  1
和形
  0
TEXT
  8
_0-0_
 62
    7
 10
25.556194717819636
 20
20.211577544341225
 40
2.5
 41
1
 50
0
  1
木造
  0
TEXT
  8
_0-0_
 62
    7
 10
383.23801896378802
 20
18.523427086907475
 40
3
 41
1
 50
0
  1
Ｊ
  0
TEXT
  8
_1-0_
 62
    7
 10
169.90681828679266
 20
13.3181144095756
 40
2.5
 41
1
 50
0
  1
1/5
  0
TEXT
  8
_1-5_
 62
    7
 10
77.173497999036641
 20
174.37339164115289
 40
2.5
 41
1
 50
0
  1
桟瓦
  0
TEXT
  8
_1-5_
 62
    7
 10
269.76520435230151
 20
182.18276565139359
 40
2.5
 41
1
 50
0
  1
瓦桟　
  0
TEXT
  8
_1-5_
 62
    7
 10
269.76676322318411
 20
175.1827673009924
 40
2.5
 41
1
 50
0
  1
流し桟
  0
TEXT
  8
_1-5_
 62
    7
 10
269.76676734718114
 20
168.18276895059122
 40
2.5
 41
1
 50
0
  1
下葺き材
  0
TEXT
  8
_1-5_
 62
    7
 10
269.76676322318411
 20
161.18277060019005
 40
2.5
 41
1
 50
0
  1
野地板
  0
TEXT
  8
_1-5_
 62
    7
 10
283.77126332875844
 20
161.18277060019005
 40
2.5
 41
1
 50
0
  1
ｔ＝12
  0
TEXT
  8
_1-5_
 62
    7
 10
269.09446510108739
 20
188.60953253668708
 40
2.5
 41
1
 50
0
  1
桟瓦
  0
TEXT
  8
_1-3_
 62
    7
 10
269.76675909918708
 20
155.51012606234164
 40
2.5
 41
1
 50
0
  1
垂木
  0
TEXT
  8
_1-3_
 62
    7
 10
283.77126332875844
 20
155.51012606234164
 40
2.5
 41
1
 50
0
  1
60ｘ60
  0
TEXT
  8
_1-3_
 62
    7
 10
39.721903414339636
 20
15.395235628695104
 40
2.5
 41
1
 50
0
  1
棟　　2
  0
TEXT
  8
_1-3_
 62
    7
 10
283.77125920476141
 20
168.10267268000422
 40
2.5
 41
1
 50
0
  1
ゴムアス系ルーフィング
  0
TEXT
  8
_1-3_
 62
    7
 10
147.85557308712521
 20
227.98028894372891
 40
2.5
 41
1
 50
0
  1
銅線緊結
  0
TEXT
  8
_1-3_
 62
    7
 10
119.50269132047087
 20
77.52737509237754
 40
2.5
 41
1
 50
0
  1
棟部分の下葺き材（ゴムアス系ルーフィング）は、両方向へそれぞれ250ｍｍ以上重ね合わせること。
  0
TEXT
  8
_1-3_
 62
    7
 10
119.59048296954181
 20
73.416051091374584
 40
2.5
 41
1
 50
0
  1
隅棟部分の下葺き材（ゴムアス系ルーフィング）は、重ね貼りの上に両方向へそれぞれ250ｍｍ以上増し貼りをすること。
  0
TEXT
  8
_1-a_
 62
    7
 10
188.43346603782669
 20
126.84223103136762
 40
2.5
 41
1
 50
-24.227719460851677
  1
250
  0
TEXT
  8
_1-a_
 62
    7
 10
172.59167576122195
 20
124.06591848167082
 40
2.5
 41
1
 50
24.227719460851677
  1
250
  0
TEXT
  8
_1-3_
 62
    7
 10
393.618910505965
 20
15.474277187038126
 40
2.5
 41
1
 50
0
  1
15
  0
TEXT
  8
_1-3_
 62
    7
 10
224.23380258921031
 20
215.80397322371201
 40
2.5
 41
1
 50
0
  1
のし瓦
  0
TEXT
  8
_1-2_
 62
    7
 10
118.51161647487332
 20
248.53736671241555
 40
2.5
 41
1
 50
0
  1
パッキン付き改良ステンレススクリュウ釘
  0
TEXT
  8
_1-2_
 62
    7
 10
147.22198486328125
 20
241.11340496991133
 40
2.5
 41
1
 50
0
  1
棟桟木　43ｘ43
  0
TEXT
  8
_1-2_
 62
    7
 10
219.25642683699326
 20
243.09695682010135
 40
2.5
 41
1
 50
0
  1
棟金具
  0
TEXT
  8
_1-2_
 62
    7
 10
233.86448628193625
 20
196.73450366870779
 40
2.5
 41
1
 50
0
  1
台のし瓦
  0
TEXT
  8
_1-2_
 62
    7
 10
92.586087407292553
 20
194.39909239073057
 40
2.5
 41
1
 50
0
  1
面戸漆喰または葺き土
  0
TEXT
  8
_1-3_
 62
    7
 10
283.77126745275552
 20
182.07871720597552
 40
2.5
 41
1
 50
0
  1
15×30　（樹脂桟木）
  0
TEXT
  8
_1-2_
 62
    7
 10
284.1854528478674
 20
178.89463682432432
 40
2.5
 41
1
 50
0
  1
※　地域により瓦桟木の大きさは、異なります
  0
TEXT
  8
_1-2_
 62
    7
 10
212.69711881070526
 20
257.00572245829818
 40
2.5
 41
1
 50
0
  1
紐伏間
  0
POINT
  8
_1-a_
 62
    7
 10
167.14009465398016
 20
135.8759493441195
  0
POINT
  8
_1-a_
 62
    7
 10
212.73616481471709
 20
115.35771962758658
  0
POINT
  8
_1-a_
 62
    7
 10
151.7914766878695
 20
114.15753751187712
  0
POINT
  8
_1-a_
 62
    7
 10
197.22194774730787
 20
134.60123835383234
  0
LINE
  8
ADD_LINE
  6
DOT
 62
    4
 10
181.99290507548565
 20
164.71514727618245
 11
181.99290507548565
 21
228.08716336032393
  0
LINE
  8
_1-2_
  6
CONTINUOUS
 62
    7
 10
171.29980551229943
 20
249.02836155247044
 11
182.08258963919977
 21
229.21979440445403
  0
LINE
  8
_1-2_
  6
DASHED1
 62
    7
 10
182.49289435309333
 20
228.65253861106299
 11
182.49289435309333
 21
218.8602756809544
  0
LINE
  8
_1-2_
  6
DASHED1
 62
    7
 10
181.4928910538957
 20
228.65253861106299
 11
181.4928910538957
 21
218.86861440297722
  0
LINE
  8
_1-2_
  6
DASHED1
 62
    7
 10
180.99288940429687
 20
228.619678602617
 11
180.99288940429687
 21
229.06781686539153
  0
LINE
  8
_1-2_
  6
DASHED1
 62
    7
 10
180.99288940429687
 20
229.06781686539153
 11
182.99289600269216
 21
229.06781686539153
  0
ARC
  8
_1-2_
  6
DASHED1
 62
    7
 10
181.99289270349453
 20
228.41452624567023
 40
1.1944762113932017
 50
33.155624389648445
 51
146.84437561035156
  0
LINE
  8
_1-2_
  6
DASHED1
 62
    7
 10
181.86605505041175
 20
229.60082698732987
 11
182.13254773938979
 21
229.60082698732987
  0
LINE
  8
_1-2_
  6
DASHED1
 62
    7
 10
182.99289600269216
 20
228.619678602617
 11
182.99289600269216
 21
229.06781686539153
  0
ENDSEC
  0
EOF
