  0
SECTION
  2
HEADER
  9
$ACADVER
  1
AC1009
  9
$INSBASE
 10
0
 20
0
 30
0
  9
$EXTMIN
 10
0
 20
0
  9
$EXTMAX
 10
420
 20
297
  9
$LIMMIN
 10
0
 20
0
  9
$LIMMAX
 10
420
 20
297
  9
$LTSCALE
 40
1
  0
ENDSEC
  0
SECTION
  2
TABLES
  0
TABLE
  2
LTYPE
 70
     9
  0
LTYPE
  2
CONTINUOUS
 70
    64
  3
実線
 72
    65
 73
     0
 40
0.0
  0
LTYPE
  2
DASHED1
 70
    64
  3
--  --  --  --  --  --  --  --  
 72
    65
 73
     2
 40
2.5
 49
1.25
 49
-1.25
  0
LTYPE
  2
DASHED2
 70
    64
  3
----    ----    ----    ----    
 72
    65
 73
     2
 40
5.0
 49
2.5
 49
-2.5
  0
LTYPE
  2
DASHED3
 70
    64
  3
------  ------  ------  ------  
 72
    65
 73
     2
 40
5.0
 49
3.75
 49
-1.25
  0
LTYPE
  2
CENTER1
 70
    64
  3
----- - ----- - ----- - ----- - 
 72
    65
 73
     4
 40
10.0
 49
6.25
 49
-1.25
 49
1.25
 49
-1.25
  0
LTYPE
  2
CENTER2
 70
    64
  3
----------  --  ----------  --  
 72
    65
 73
     4
 40
20.0
 49
12.5
 49
-2.5
 49
2.5
 49
-2.5
  0
LTYPE
  2
PHANTOM1
 70
    64
  3
--- - - --- - - --- - - --- - - 
 72
    65
 73
     6
 40
10.0
 49
3.25
 49
-1.25
 49
1.25
 49
-1.25
 49
1.25
 49
-1.25
  0
LTYPE
  2
PHANTOM2
 70
    64
  3
--------  -  -  --------  -  -  
 72
    65
 73
     6
 40
20.0
 49
10.0
 49
-2.5
 49
1.25
 49
-2.5
 49
1.25
 49
-2.5
  0
LTYPE
  2
DOT
 70
    64
  3
-   -   -   -   -   -   -   -   
 72
    65
 73
     2
 40
2.5
 49
0.625
 49
-1.875
  0
LTYPE
  2
DUMMY
 70
    64
  3
ダミー
 72
    65
 73
     0
 40
0.0
  0
LTYPE
  2
RAND1
 70
    64
  3
ランダム線1
 72
    65
 73
     4
 40
10.0
 49
1.0
 49
-2.0
 49
3.0
 49
-4.0
  0
LTYPE
  2
RAND2
 70
    64
  3
ランダム線2
 72
    65
 73
     4
 40
14.0
 49
2.0
 49
-3.0
 49
4.0
 49
-5.0
  0
LTYPE
  2
RAND3
 70
    64
  3
ランダム線3
 72
    65
 73
     4
 40
18.0
 49
3.0
 49
-4.0
 49
5.0
 49
-6.0
  0
LTYPE
  2
RAND4
 70
    64
  3
ランダム線4
 72
    65
 73
     4
 40
22.0
 49
4.0
 49
-5.0
 49
6.0
 49
-7.0
  0
LTYPE
  2
RAND5
 70
    64
  3
ランダム線5
 72
    65
 73
     4
 40
26.0
 49
5.0
 49
-6.0
 49
7.0
 49
-8.0
  0
LTYPE
  2
LONG1
 70
    64
  3
----------  --  ----------  --  
 72
    65
 73
     4
 40
40.0
 49
32.5
 49
-2.5
 49
2.5
 49
-2.5
  0
LTYPE
  2
LONG2
 70
    64
  3
--------  -  -  --------  -  -  
 72
    65
 73
     6
 40
40.0
 49
30.0
 49
-2.5
 49
1.25
 49
-2.5
 49
1.25
 49
-2.5
  0
LTYPE
  2
LONG3
 70
    64
  3
+++++++++++++++..+++++++++++++++
 72
    65
 73
     2
 40
40.0
 49
37.5
 49
-2.5
  0
LTYPE
  2
LONG4
 70
    64
  3
+++++++++++++++..+++++++++++++++
 72
    65
 73
     2
 40
80.0
 49
75.0
 49
-5.0
  0
LTYPE
  2
LONG5
 70
    64
  3
----------  --  ----------  --  
 72
    65
 73
     4
 40
60.0
 49
37.5
 49
-7.5
 49
7.5
 49
-7.5
  0
LTYPE
  2
dashed
 70
   64
  3
-------   -------------   ------
 72
   65
 73
    2
 40
7.5
 49
6
 49
-1.5
  0
LTYPE
  2
dashed_spaced
 70
   64
  3
----        --------        ----
 72
   65
 73
    2
 40
12
 49
6
 49
-6
  0
LTYPE
  2
long_dashed_dotted
 70
   64
  3
------------- --- --------------
 72
   65
 73
    4
 40
15.25
 49
12
 49
-1.5
 49
0.25
 49
-1.5
  0
LTYPE
  2
long_dashed_double-dotted
 70
   64
  3
----------- --- --- ------------
 72
   65
 73
    6
 40
17
 49
12
 49
-1.5
 49
0.25
 49
-1.5
 49
0.25
 49
-1.5
  0
LTYPE
  2
long_dashed_triplicate-dotted
 70
   64
  3
--------- --- --- --- ----------
 72
   65
 73
    8
 40
18.75
 49
12
 49
-1.5
 49
0.25
 49
-1.5
 49
0.25
 49
-1.5
 49
0.25
 49
-1.5
  0
LTYPE
  2
dotted
 70
   64
  3
   -       -       -       -    
 72
   65
 73
    2
 40
1.75
 49
0.25
 49
-1.5
  0
LTYPE
  2
chain
 70
   64
  3
-------------- -- --------------
 72
   65
 73
    4
 40
18.5
 49
12
 49
-1.5
 49
3.5
 49
-1.5
  0
LTYPE
  2
chain_double_dash
 70
   64
  3
------------ -- -- -------------
 72
   65
 73
    6
 40
23.5
 49
12
 49
-1.5
 49
3.5
 49
-1.5
 49
3.5
 49
-1.5
  0
LTYPE
  2
dashed_dotted
 70
   64
  3
-----------     -     ----------
 72
   65
 73
    4
 40
9.25
 49
6
 49
-1.5
 49
0.25
 49
-1.5
  0
LTYPE
  2
double-dashed_dotted
 70
   64
  3
------   -----------   -   -----
 72
   65
 73
    6
 40
16.75
 49
6
 49
-1.5
 49
6
 49
-1.5
 49
0.25
 49
-1.5
  0
LTYPE
  2
dashed_double-dotted
 70
   64
  3
---------    -    -    ---------
 72
   65
 73
    6
 40
11
 49
6
 49
-1.5
 49
0.25
 49
-1.5
 49
0.25
 49
-1.5
  0
LTYPE
  2
double-dashed_double-dotted
 70
   64
  3
-----   ---------   -   -   ----
 72
   65
 73
    8
 40
18.5
 49
6
 49
-1.5
 49
6
 49
-1.5
 49
0.25
 49
-1.5
 49
0.25
 49
-1.5
  0
LTYPE
  2
dashed_triplicate-dotted
 70
   64
  3
-------    -    -    -    ------
 72
   65
 73
    8
 40
12.75
 49
6
 49
-1.5
 49
0.25
 49
-1.5
 49
0.25
 49
-1.5
 49
0.25
 49
-1.5
  0
LTYPE
  2
double-dashed_triplicate-dotted
 70
   64
  3
-----  ---------  -  -  -  -----
 72
   65
 73
   10
 40
20.25
 49
6
 49
-1.5
 49
6
 49
-1.5
 49
0.25
 49
-1.5
 49
0.25
 49
-1.5
 49
0.25
 49
-1.5
  0
LTYPE
  2
undefined
 70
   64
  3
--------------------------------
 72
   65
 73
    0
 40
0
  0
ENDTAB
  0
TABLE
  2
STYLE
  5
3
100
AcDbSymbolTable
 70
     1
  0
STYLE
  5
10
100
AcDbSymbolTableRecord
100
AcDbTextStyleTableRecord
  2
STANDARD
 70
     0
 40
0.0
 41
1.0
 50
0.0
 71
     0
 42
0.2
  3
txt
  4
bigfont.shx
  0
STYLE
  5
26
100
AcDbSymbolTableRecord
100
AcDbTextStyleTableRecord
  2
TATEGAKI
 70
    68
 40
0.0
 41
1.0
 50
0.0
 71
     0
 42
1.0
  3
txt
  4
bigfont.shx
  0
ENDTAB
  0
TABLE
  2
LAYER
 70
    5
  0
LAYER
  2
_0-0_
 70
   64
 62
    7
  6
CONTINUOUS
  0
LAYER
  2
_1-0_
 70
   64
 62
    7
  6
CONTINUOUS
  0
LAYER
  2
_1-1_
 70
   64
 62
    7
  6
CONTINUOUS
  0
LAYER
  2
_1-2_
 70
   64
 62
    7
  6
CONTINUOUS
  0
LAYER
  2
ADD_LINE
 70
   64
 62
    7
  6
CONTINUOUS
  0
ENDTAB
  0
ENDSEC
  0
SECTION
  2
BLOCKS
  0
ENDSEC
  0
SECTION
  2
ENTITIES
  0
ARC
  8
_1-0_
  6
CONTINUOUS
 62
    3
 10
144.82281659100508
 20
205.00456114073057
 40
67.991378371779987
 50
251.18492126464844
 51
294.20051574707031
  0
LINE
  8
_0-0_
  6
CONTINUOUS
 62
    5
 10
6.7567526327597136
 20
280.13513513513516
 11
406.75677325274495
 21
280.13513513513516
  0
LINE
  8
_0-0_
  6
CONTINUOUS
 62
    5
 10
406.75677325274495
 20
10.13513513513513
 11
6.7567526327597136
 21
10.13513513513513
  0
LINE
  8
_0-0_
  6
CONTINUOUS
 62
    5
 10
406.75677325274495
 20
30.135133073136615
 11
6.7567402607685949
 21
30.135133073136615
  0
LINE
  8
_0-0_
  6
CONTINUOUS
 62
    5
 10
371.75678150073907
 20
10.13513513513513
 11
371.75678150073907
 21
30.135133073136615
  0
LINE
  8
_0-0_
  6
CONTINUOUS
 62
    5
 10
137.02703939901818
 20
30.135133073136615
 11
137.02703939901818
 21
10.13513513513513
  0
LINE
  8
_0-0_
  6
CONTINUOUS
 62
    5
 10
214.86486486486487
 20
30.135133073136615
 11
214.86486486486487
 21
10.13513513513513
  0
LINE
  8
_0-0_
  6
CONTINUOUS
 62
    5
 10
137.02703939901818
 20
20.135134104135886
 11
214.86486486486487
 21
20.135134104135886
  0
LINE
  8
_0-0_
  6
CONTINUOUS
 62
    5
 10
396.48648648648651
 20
25.945945945945951
 11
383.91891891891896
 21
13.378379924877265
  0
LINE
  8
_1-1_
  6
DASHED1
 62
    3
 10
130.02941647091427
 20
133.08694375527872
 11
348.63330737964532
 21
133.08694375527872
  0
LINE
  8
_1-1_
  6
CONTINUOUS
 62
    7
 10
130.42162096178211
 20
137.02702702702703
 11
348.63330737964532
 21
137.02702702702703
  0
LINE
  8
_1-1_
  6
CONTINUOUS
 62
    7
 10
130.42162096178211
 20
130.53115019927154
 11
348.63330737964532
 21
130.53115019927154
  0
LINE
  8
_1-1_
  6
CONTINUOUS
 62
    7
 10
130.42162096178211
 20
132.93115564294763
 11
348.63330737964532
 21
132.93115564294763
  0
LINE
  8
_1-1_
  6
CONTINUOUS
 62
    7
 10
130.42162096178211
 20
133.42702504750847
 11
348.63330737964532
 21
133.42702504750847
  0
LINE
  8
_1-1_
  6
CONTINUOUS
 62
    7
 10
130.42162096178211
 20
134.02702950142526
 11
348.63330737964532
 21
134.02702950142526
  0
LINE
  8
_1-1_
  6
CONTINUOUS
 62
    7
 10
130.42162096178211
 20
118.53114772487332
 11
130.42162096178211
 21
130.53115019927154
  0
LINE
  8
_1-1_
  6
CONTINUOUS
 62
    7
 10
130.42162096178211
 20
130.53115019927154
 11
142.42162343618034
 21
130.53115019927154
  0
LINE
  8
_1-1_
  6
CONTINUOUS
 62
    7
 10
142.42162343618034
 20
130.53115019927154
 11
142.42162343618034
 21
118.53114772487332
  0
LINE
  8
_1-1_
  6
CONTINUOUS
 62
    7
 10
142.42162343618034
 20
118.53114772487332
 11
130.42162096178211
 21
118.53114772487332
  0
LINE
  8
_1-1_
  6
CONTINUOUS
 62
    7
 10
191.02161304370779
 20
118.53114772487332
 11
191.02161304370779
 21
130.53115019927154
  0
LINE
  8
_1-1_
  6
CONTINUOUS
 62
    7
 10
191.02161304370779
 20
130.53115019927154
 11
203.02161551810602
 21
130.53115019927154
  0
LINE
  8
_1-1_
  6
CONTINUOUS
 62
    7
 10
203.02161551810602
 20
130.53115019927154
 11
203.02161551810602
 21
118.53114772487332
  0
LINE
  8
_1-1_
  6
CONTINUOUS
 62
    7
 10
203.02161551810602
 20
118.53114772487332
 11
191.02161304370779
 21
118.53114772487332
  0
LINE
  8
_1-1_
  6
CONTINUOUS
 62
    7
 10
251.62160512563347
 20
118.53114772487332
 11
251.62160512563347
 21
130.53115019927154
  0
LINE
  8
_1-1_
  6
CONTINUOUS
 62
    7
 10
251.62160512563347
 20
130.53115019927154
 11
263.62159522804058
 21
130.53115019927154
  0
LINE
  8
_1-1_
  6
CONTINUOUS
 62
    7
 10
263.62159522804058
 20
130.53115019927154
 11
263.62159522804058
 21
118.53114772487332
  0
LINE
  8
_1-1_
  6
CONTINUOUS
 62
    7
 10
263.62159522804058
 20
118.53114772487332
 11
251.62160512563347
 21
118.53114772487332
  0
LINE
  8
_1-1_
  6
CONTINUOUS
 62
    7
 10
312.22159720755911
 20
118.53114772487332
 11
312.22159720755911
 21
130.53115019927154
  0
LINE
  8
_1-1_
  6
CONTINUOUS
 62
    7
 10
312.22159720755911
 20
130.53115019927154
 11
324.22158730996625
 21
130.53115019927154
  0
LINE
  8
_1-1_
  6
CONTINUOUS
 62
    7
 10
324.22158730996625
 20
130.53115019927154
 11
324.22158730996625
 21
118.53114772487332
  0
LINE
  8
_1-1_
  6
CONTINUOUS
 62
    7
 10
324.22158730996625
 20
118.53114772487332
 11
312.22159720755911
 21
118.53114772487332
  0
LINE
  8
_1-1_
  6
CONTINUOUS
 62
    7
 10
142.42162343618034
 20
130.53115019927154
 11
130.42162096178211
 21
118.53114772487332
  0
LINE
  8
_1-1_
  6
CONTINUOUS
 62
    7
 10
191.02161304370779
 20
118.53114772487332
 11
203.02161551810602
 21
130.53115019927154
  0
LINE
  8
_1-1_
  6
CONTINUOUS
 62
    7
 10
251.62160512563347
 20
118.53114772487332
 11
263.62159522804058
 21
130.53115019927154
  0
LINE
  8
_1-1_
  6
CONTINUOUS
 62
    7
 10
312.22159720755911
 20
118.53114772487332
 11
324.22158730996625
 21
130.53115019927154
  0
LINE
  8
_1-1_
  6
CONTINUOUS
 62
    7
 10
130.42162096178211
 20
107.85053150073902
 11
125.62162244642104
 21
107.85053150073902
  0
LINE
  8
_1-1_
  6
CONTINUOUS
 62
    7
 10
130.42162096178211
 20
125.67023199957771
 11
130.42162096178211
 21
107.85053150073902
  0
LINE
  8
_1-1_
  6
CONTINUOUS
 62
    7
 10
127.64951551282729
 20
107.85053150073902
 11
130.42162096178211
 21
110.62263694969384
  0
LINE
  8
_1-1_
  6
CONTINUOUS
 62
    7
 10
125.62162244642104
 20
108.65106118691935
 11
130.42162096178211
 21
113.45105970228042
  0
LINE
  8
_1-1_
  6
CONTINUOUS
 62
    7
 10
125.62162244642104
 20
111.47949631149704
 11
130.42162096178211
 21
116.27949482685811
  0
LINE
  8
_1-1_
  6
CONTINUOUS
 62
    7
 10
125.62162244642104
 20
114.30790669209249
 11
130.42162096178211
 21
119.10790520745356
  0
LINE
  8
_1-1_
  6
CONTINUOUS
 62
    7
 10
125.62162244642104
 20
117.1363418166702
 11
130.42162096178211
 21
121.93634033203125
  0
LINE
  8
_1-1_
  6
CONTINUOUS
 62
    7
 10
125.62162244642104
 20
119.96477694124789
 11
130.42162096178211
 21
124.76477545660896
  0
LINE
  8
_1-1_
  6
CONTINUOUS
 62
    7
 10
125.62162244642104
 20
122.79319969383447
 11
130.42162096178211
 21
127.59319820919553
  0
LINE
  8
_1-1_
  6
CONTINUOUS
 62
    7
 10
125.62162244642104
 20
125.62162244642104
 11
130.42162096178211
 21
130.42162096178211
  0
LINE
  8
_1-1_
  6
CONTINUOUS
 62
    7
 10
125.62162244642104
 20
128.45005757099875
 11
130.42162096178211
 21
133.25005608635979
  0
LINE
  8
_1-1_
  6
CONTINUOUS
 62
    7
 10
125.62162244642104
 20
131.27848032358531
 11
130.42162096178211
 21
136.07846646695523
  0
LINE
  8
_1-1_
  6
CONTINUOUS
 62
    7
 10
130.42162096178211
 20
133.42702504750847
 11
130.42162096178211
 21
134.02701712943414
  0
LINE
  8
_1-1_
  6
CONTINUOUS
 62
    7
 10
130.42162096178211
 20
134.02701712943414
 11
135.2216318491343
 21
134.02701712943414
  0
LINE
  8
_1-1_
  6
CONTINUOUS
 62
    7
 10
135.2216318491343
 20
134.02701712943414
 11
135.2216318491343
 21
133.42702504750847
  0
LINE
  8
_1-1_
  6
CONTINUOUS
 62
    7
 10
135.2216318491343
 20
133.42702504750847
 11
130.42162096178211
 21
133.42702504750847
  0
LINE
  8
_1-1_
  6
CONTINUOUS
 62
    7
 10
130.42162096178211
 20
134.02701712943414
 11
135.2216318491343
 21
133.42702504750847
  0
LINE
  8
_1-1_
  6
CONTINUOUS
 62
    7
 10
191.02161304370779
 20
133.42702504750847
 11
191.02161304370779
 21
134.02701712943414
  0
LINE
  8
_1-1_
  6
CONTINUOUS
 62
    7
 10
191.02161304370779
 20
134.02701712943414
 11
195.82162393105997
 21
134.02701712943414
  0
LINE
  8
_1-1_
  6
CONTINUOUS
 62
    7
 10
195.82162393105997
 20
134.02701712943414
 11
195.82162393105997
 21
133.42702504750847
  0
LINE
  8
_1-1_
  6
CONTINUOUS
 62
    7
 10
195.82162393105997
 20
133.42702504750847
 11
191.02161304370779
 21
133.42702504750847
  0
LINE
  8
_1-1_
  6
CONTINUOUS
 62
    7
 10
191.02161304370779
 20
134.02701712943414
 11
195.82162393105997
 21
133.42702504750847
  0
LINE
  8
_1-1_
  6
CONTINUOUS
 62
    7
 10
251.62160512563347
 20
133.42702504750847
 11
251.62160512563347
 21
134.02701712943414
  0
LINE
  8
_1-1_
  6
CONTINUOUS
 62
    7
 10
251.62160512563347
 20
134.02701712943414
 11
256.42161601298568
 21
134.02701712943414
  0
LINE
  8
_1-1_
  6
CONTINUOUS
 62
    7
 10
256.42161601298568
 20
134.02701712943414
 11
256.42161601298568
 21
133.42702504750847
  0
LINE
  8
_1-1_
  6
CONTINUOUS
 62
    7
 10
256.42161601298568
 20
133.42702504750847
 11
251.62160512563347
 21
133.42702504750847
  0
LINE
  8
_1-1_
  6
CONTINUOUS
 62
    7
 10
251.62160512563347
 20
134.02701712943414
 11
256.42161601298568
 21
133.42702504750847
  0
LINE
  8
_1-1_
  6
CONTINUOUS
 62
    7
 10
312.22159720755911
 20
133.42702504750847
 11
312.22159720755911
 21
134.02701712943414
  0
LINE
  8
_1-1_
  6
CONTINUOUS
 62
    7
 10
312.22159720755911
 20
134.02701712943414
 11
317.02160809491136
 21
134.02701712943414
  0
LINE
  8
_1-1_
  6
CONTINUOUS
 62
    7
 10
317.02160809491136
 20
134.02701712943414
 11
317.02160809491136
 21
133.42702504750847
  0
LINE
  8
_1-1_
  6
CONTINUOUS
 62
    7
 10
317.02160809491136
 20
133.42702504750847
 11
312.22159720755911
 21
133.42702504750847
  0
LINE
  8
_1-1_
  6
CONTINUOUS
 62
    7
 10
312.22159720755911
 20
134.02701712943414
 11
317.02160809491136
 21
133.42702504750847
  0
LINE
  8
_1-2_
  6
CONTINUOUS
 62
    7
 10
121.62162162162163
 20
175.94594594594597
 11
166.62162162162164
 21
175.94594594594597
  0
LINE
  8
_1-2_
  6
CONTINUOUS
 62
    7
 10
121.62162162162163
 20
157.29729729729732
 11
121.62162162162163
 21
175.94594594594597
  0
LINE
  8
_1-2_
  6
CONTINUOUS
 62
    7
 10
166.62162162162164
 20
157.29729729729732
 11
166.62162162162164
 21
175.94594594594597
  0
LINE
  8
_1-2_
  6
CONTINUOUS
 62
    7
 10
166.62162162162164
 20
175.94594594594597
 11
219.62157378325591
 21
175.94594594594597
  0
LINE
  8
_1-2_
  6
CONTINUOUS
 62
    7
 10
219.62157378325591
 20
157.29729729729732
 11
219.62157378325591
 21
175.94594594594597
  0
LINE
  8
_1-2_
  6
CONTINUOUS
 62
    7
 10
219.62157378325591
 20
175.94594594594597
 11
272.62157543285474
 21
175.94594594594597
  0
LINE
  8
_1-2_
  6
CONTINUOUS
 62
    7
 10
272.62157543285474
 20
157.29729729729732
 11
272.62157543285474
 21
175.94594594594597
  0
LINE
  8
_1-2_
  6
CONTINUOUS
 62
    7
 10
272.62157543285474
 20
175.94594594594597
 11
325.62162657041807
 21
175.94594594594597
  0
LINE
  8
_1-2_
  6
CONTINUOUS
 62
    7
 10
325.62162657041807
 20
157.29729729729732
 11
325.62162657041807
 21
175.94594594594597
  0
LINE
  8
_1-2_
  6
CONTINUOUS
 62
    7
 10
234.32432432432435
 20
142.70270270270271
 11
211.53328560494089
 21
205.32059128220018
  0
LINE
  8
_1-2_
  6
CONTINUOUS
 62
    7
 10
128.10810810810813
 20
113.51351351351352
 11
138.67539689347552
 21
84.480124808646536
  0
LINE
  8
_1-2_
  6
CONTINUOUS
 62
    7
 10
98.116879849820535
 20
197.90479505384292
 11
89.189189189189193
 21
197.90479505384292
  0
LINE
  8
_1-2_
  6
CONTINUOUS
 62
    7
 10
211.53328560494089
 20
205.32059128220018
 11
204.32432432432432
 21
205.32059128220018
  0
LINE
  8
_1-2_
  6
CONTINUOUS
 62
    7
 10
138.67539689347552
 20
84.480124808646536
 11
145.13513513513513
 21
84.480124808646536
  0
LINE
  8
_1-2_
  6
CONTINUOUS
 62
    7
 10
192.21381522513727
 20
135.32323064030828
 11
221.64488921294341
 21
54.46206788758974
  0
LINE
  8
_1-2_
  6
CONTINUOUS
 62
    7
 10
230.09810164168076
 20
54.46206788758974
 11
221.64488921294341
 21
54.46206788758974
  0
LINE
  8
_1-2_
  6
CONTINUOUS
 62
    7
 10
230.09810164168076
 20
62.163205533414271
 11
218.8418909021326
 21
62.163205533414271
  0
LINE
  8
_1-2_
  6
CONTINUOUS
 62
    7
 10
230.09810164168076
 20
70.615675642683698
 11
215.76544684332771
 21
70.615675642683698
  0
LINE
  8
_1-2_
  6
CONTINUOUS
 62
    7
 10
230.09810164168076
 20
78.316807102512669
 11
212.96247327649917
 21
78.316807102512669
  0
LINE
  8
_1-2_
  6
CONTINUOUS
 62
    7
 10
230.09810164168076
 20
86.393614073057435
 11
210.02273971970018
 21
86.393614073057435
  0
LINE
  8
_1-0_
  6
CONTINUOUS
 62
    3
 10
171.30512546848607
 20
146.16974289352831
 11
172.69459904851141
 21
146.16974289352831
  0
LINE
  8
_1-0_
  6
CONTINUOUS
 62
    3
 10
172.69459904851141
 20
146.16974289352831
 11
172.69459904851141
 21
142.98850806983742
  0
LINE
  8
_1-0_
  6
CONTINUOUS
 62
    3
 10
172.69459904851141
 20
146.16974289352831
 11
172.69459904851141
 21
142.98850806983742
  0
LINE
  8
_1-0_
  6
CONTINUOUS
 62
    3
 10
170.36620268950591
 20
149.05204566749367
 11
164.69454791094807
 21
145.82708822714318
  0
LINE
  8
_1-0_
  6
CONTINUOUS
 62
    3
 10
224.30513949007602
 20
146.16986661343961
 11
225.69461307010135
 21
146.16986661343961
  0
LINE
  8
_1-0_
  6
CONTINUOUS
 62
    3
 10
164.69454791094807
 20
145.82708822714318
 11
164.69454791094807
 21
143.02713342615075
  0
LINE
  8
_1-0_
  6
CONTINUOUS
 62
    3
 10
169.267013137405
 20
145.39577587230787
 11
164.69454791094807
 21
143.02713342615075
  0
LINE
  8
_1-0_
  6
CONTINUOUS
 62
    3
 10
225.69461307010135
 20
146.16986661343961
 11
225.69461307010135
 21
142.98863178974875
  0
LINE
  8
_1-0_
  6
CONTINUOUS
 62
    3
 10
225.69461307010135
 20
146.16986661343961
 11
225.69461307010135
 21
142.98863178974875
  0
LINE
  8
_1-0_
  6
CONTINUOUS
 62
    3
 10
223.36620433910474
 20
149.05204566749367
 11
217.69453718855576
 21
145.82708822714318
  0
LINE
  8
_1-0_
  6
CONTINUOUS
 62
    3
 10
277.30511639569261
 20
146.16986661343961
 11
278.69458997571792
 21
146.16986661343961
  0
LINE
  8
_1-0_
  6
CONTINUOUS
 62
    3
 10
217.69453718855576
 20
145.82708822714318
 11
217.69453718855576
 21
143.02713342615075
  0
LINE
  8
_1-0_
  6
CONTINUOUS
 62
    3
 10
222.26700241501268
 20
145.39577587230787
 11
217.69453718855576
 21
143.02713342615075
  0
LINE
  8
_1-0_
  6
CONTINUOUS
 62
    3
 10
278.69458997571792
 20
146.16986661343961
 11
278.69458997571792
 21
142.98863178974875
  0
LINE
  8
_1-0_
  6
CONTINUOUS
 62
    3
 10
278.69458997571792
 20
146.16986661343961
 11
278.69458997571792
 21
142.98863178974875
  0
LINE
  8
_1-0_
  6
CONTINUOUS
 62
    3
 10
278.69458997571792
 20
142.38532401419977
 11
278.69458997571792
 21
142.34664916992187
  0
LINE
  8
_1-0_
  6
CONTINUOUS
 62
    3
 10
119.69459739891259
 20
128.22704005885768
 11
122.89461290514147
 21
128.22704005885768
  0
LINE
  8
_1-0_
  6
CONTINUOUS
 62
    3
 10
119.69459739891259
 20
128.22704005885768
 11
119.69459739891259
 21
144.82703543998102
  0
LINE
  8
_1-0_
  6
CONTINUOUS
 62
    3
 10
122.89461290514147
 20
128.22704005885768
 11
122.89461290514147
 21
140.64634168470229
  0
LINE
  8
_1-0_
  6
CONTINUOUS
 62
    3
 10
276.3661812447213
 20
149.05205803948482
 11
270.69453883815459
 21
145.82708822714318
  0
LINE
  8
_1-0_
  6
CONTINUOUS
 62
    3
 10
330.30511804529141
 20
146.16985424144849
 11
331.69461636929901
 21
146.16985424144849
  0
LINE
  8
_1-0_
  6
CONTINUOUS
 62
    3
 10
270.69453883815459
 20
145.82708822714318
 11
270.69453883815459
 21
143.02713342615075
  0
LINE
  8
_1-0_
  6
CONTINUOUS
 62
    3
 10
275.26700406461151
 20
145.39576350031672
 11
270.69453883815459
 21
143.02713342615075
  0
LINE
  8
ADD_LINE
  6
DOT
 62
    4
 10
300.0090315535262
 20
139.82700657200169
 11
310.19224424619932
 21
139.82700657200169
  0
LINE
  8
_1-0_
  6
CONTINUOUS
 62
    3
 10
331.69461636929901
 20
146.16985424144849
 11
331.69461636929901
 21
142.98863178974875
  0
LINE
  8
_1-0_
  6
CONTINUOUS
 62
    3
 10
331.69461636929901
 20
146.16985424144849
 11
331.69461636929901
 21
142.98863178974875
  0
LINE
  8
_1-0_
  6
CONTINUOUS
 62
    3
 10
329.36615815033787
 20
149.05205803948482
 11
323.69451574377115
 21
145.82708822714318
  0
LINE
  8
_1-0_
  6
CONTINUOUS
 62
    3
 10
323.69451574377115
 20
145.82708822714318
 11
323.69451574377115
 21
143.02713342615075
  0
LINE
  8
_1-0_
  6
CONTINUOUS
 62
    3
 10
328.26698097022808
 20
145.39576350031672
 11
323.69451574377115
 21
143.02713342615075
  0
LINE
  8
_1-0_
  6
CONTINUOUS
 62
    3
 10
119.69459739891259
 20
146.02701960383234
 11
119.69459739891259
 21
144.82703543998102
  0
LINE
  8
_1-2_
  6
CONTINUOUS
 62
    7
 10
121.09702445365288
 20
134.76736945074958
 11
98.116879849820535
 21
197.90479505384292
  0
ARC
  8
_1-0_
  6
CONTINUOUS
 62
    3
 10
170.26524724187078
 20
146.14034704259925
 40
1.0402513194728542
 50
309.08184814453125
 51
1.6144714355468908
  0
ARC
  8
_1-0_
  6
CONTINUOUS
 62
    3
 10
172.20606623469172
 20
146.60362862251901
 40
3.0627306731971538
 50
42.6905517578125
 51
126.92074584960937
  0
ARC
  8
_1-0_
  6
CONTINUOUS
 62
    3
 10
223.26524889146961
 20
146.14047076251057
 40
1.0402513194728542
 50
309.08184814453125
 51
1.6144714355468908
  0
ARC
  8
_1-0_
  6
CONTINUOUS
 62
    3
 10
201.82727298221073
 20
185.99196562895904
 40
46.274049088761615
 50
233.73811340332031
 51
298.51937866210937
  0
ARC
  8
_1-0_
  6
CONTINUOUS
 62
    3
 10
172.01937288851352
 20
141.67720072978253
 40
4.6263270764737516
 50
47.123046875000007
 51
126.50717163085939
  0
ARC
  8
_1-0_
  6
CONTINUOUS
 62
    3
 10
202.13419733820737
 20
185.43134122281461
 40
48.543530025997683
 50
236.25315856933597
 51
299.03501892089844
  0
ARC
  8
_1-0_
  6
CONTINUOUS
 62
    3
 10
225.20606788429055
 20
146.60362862251901
 40
3.0627306731971538
 50
42.6905517578125
 51
126.92074584960937
  0
ARC
  8
_1-0_
  6
CONTINUOUS
 62
    3
 10
276.26525054106844
 20
146.14047076251057
 40
1.0402513194728542
 50
309.08184814453125
 51
1.6144714355468908
  0
ARC
  8
_1-0_
  6
CONTINUOUS
 62
    3
 10
254.82728700380068
 20
185.99196562895904
 40
46.274049088761615
 50
233.73811340332031
 51
298.51937866210937
  0
ARC
  8
_1-0_
  6
CONTINUOUS
 62
    3
 10
225.01934979413008
 20
141.67720072978253
 40
4.6263270764737516
 50
47.123046875000007
 51
126.50717163085939
  0
ARC
  8
_1-0_
  6
CONTINUOUS
 62
    3
 10
255.13418661581505
 20
185.43134122281461
 40
48.543530025997683
 50
236.25315856933597
 51
299.03501892089844
  0
ARC
  8
_1-0_
  6
CONTINUOUS
 62
    3
 10
278.20606953388938
 20
146.60362862251901
 40
3.0627306731971538
 50
42.6905517578125
 51
126.92074584960937
  0
ARC
  8
_1-0_
  6
CONTINUOUS
 62
    3
 10
329.26525219066724
 20
146.14045839051943
 40
1.0402513194728542
 50
309.08184814453125
 51
1.6144714355468908
  0
ARC
  8
_1-0_
  6
CONTINUOUS
 62
    3
 10
307.82726390941724
 20
185.99196562895904
 40
46.274049088761615
 50
233.73811340332031
 51
298.51937866210937
  0
ARC
  8
_1-0_
  6
CONTINUOUS
 62
    3
 10
278.01935144372891
 20
141.67718835779138
 40
4.6263270764737516
 50
47.123046875000007
 51
126.50717163085939
  0
ARC
  8
_1-0_
  6
CONTINUOUS
 62
    3
 10
308.13418826541385
 20
185.43134122281461
 40
48.543530025997683
 50
236.25315856933597
 51
299.03501892089844
  0
ARC
  8
_1-0_
  6
CONTINUOUS
 62
    3
 10
331.20604643950594
 20
146.60362862251901
 40
3.0627306731971538
 50
42.6905517578125
 51
126.92074584960937
  0
ARC
  8
_1-0_
  6
CONTINUOUS
 62
    3
 10
331.01932834934547
 20
141.67718835779138
 40
4.6263270764737516
 50
47.123046875000007
 51
126.50717163085939
  0
ARC
  8
_1-0_
  6
CONTINUOUS
 62
    3
 10
146.00875854492187
 20
197.40531302787164
 40
57.724895992794558
 50
242.88006591796878
 51
295.56719970703125
  0
ARC
  8
_1-0_
  6
CONTINUOUS
 62
    3
 10
361.13416517103042
 20
185.43134122281461
 40
48.543530025997683
 50
236.25315856933597
 51
252.7095642089844
  0
ARC
  8
_1-0_
  6
CONTINUOUS
 62
    3
 10
360.98686424461573
 20
186.42752157675255
 40
46.719762441274284
 50
233.89616394042969
 51
252.20182800292969
  0
TEXT
  8
_0-0_
 62
    7
 10
141.89189395389042
 20
14.594594594594582
 40
2.5
 41
1
 50
0
  1
縮尺
  0
TEXT
  8
_0-0_
 62
    7
 10
377.10214563318203
 20
22.865493362014362
 40
2.5
 41
1
 50
0
  1
ＮＯ
  0
TEXT
  8
_0-0_
 62
    7
 10
14.594594336844779
 20
24.324324324324323
 40
2.5
 41
1
 50
0
  1
和形
  0
TEXT
  8
_0-0_
 62
    7
 10
25.556194717819636
 20
20.211577544341225
 40
2.5
 41
1
 50
0
  1
木造
  0
TEXT
  8
_0-0_
 62
    7
 10
383.23801896378802
 20
18.523427086907475
 40
3
 41
1
 50
0
  1
Ｊ
  0
TEXT
  8
_1-0_
 62
    7
 10
169.90681828679266
 20
13.3181144095756
 40
2.5
 41
1
 50
0
  1
1/5
  0
TEXT
  8
_1-2_
 62
    7
 10
142.24662162162164
 20
176.44594759554477
 40
2.5
 41
1
 50
0
  1
225
  0
TEXT
  8
_1-2_
 62
    7
 10
191.24659770243878
 20
176.44594759554477
 40
2.5
 41
1
 50
0
  1
265
  0
TEXT
  8
_1-2_
 62
    7
 10
244.24656223606419
 20
176.44594759554477
 40
2.5
 41
1
 50
0
  1
265
  0
TEXT
  8
_1-2_
 62
    7
 10
297.24658862964526
 20
176.44594759554477
 40
2.5
 41
1
 50
0
  1
265
  0
TEXT
  8
_1-2_
 62
    7
 10
198.34498018831823
 20
204.1302201554582
 40
2.5
 41
1
 50
0
  1
桟瓦
  0
TEXT
  8
_1-2_
 62
    7
 10
80.580201020111929
 20
196.76719046927789
 40
2.5
 41
1
 50
0
  1
左袖瓦
  0
TEXT
  8
_1-2_
 62
    7
 10
146.56892518739443
 20
83.434468862172722
 40
2.5
 41
1
 50
0
  1
破風板
  0
TEXT
  8
_1-2_
 62
    7
 10
233.7874252731736
 20
85.031049573743672
 40
2.5
 41
1
 50
0
  1
瓦桟
  0
TEXT
  8
_1-2_
 62
    7
 10
233.7874252731736
 20
77.031047924144858
 40
2.5
 41
1
 50
0
  1
流桟
  0
TEXT
  8
_1-2_
 62
    7
 10
233.78743352116766
 20
61.031044624947214
 40
2.5
 41
1
 50
0
  1
野地板　ｔ＝12
  0
TEXT
  8
_1-2_
 62
    7
 10
39.721903414339636
 20
15.395235628695104
 40
2.5
 41
1
 50
0
  1
袖　　1
  0
TEXT
  8
_1-2_
 62
    7
 10
233.78742939717063
 20
53.031042975348399
 40
2.5
 41
1
 50
0
  1
垂木　60ｘ60
  0
TEXT
  8
_1-2_
 62
    7
 10
393.65335000527875
 20
15.076697066023542
 40
2.5
 41
1
 50
0
  1
4-1
  0
TEXT
  8
_1-2_
 62
    7
 10
233.78742939717063
 20
69.031046274546028
 40
2.5
 41
1
 50
0
  1
下葺き材　　アスファルトルーフィング940
  0
TEXT
  8
_1-0_
 62
    7
 10
243.42287630648227
 20
85.338549227327917
 40
2.5
 41
1
 50
0
  1
15×21　以上　（防腐処理）
  0
TEXT
  8
_1-0_
 62
    7
 10
276.36360787056589
 20
85.298018584380287
 40
2.5
 41
1
 50
0
  1
※　地域により瓦桟木の大きさは、異なります
  0
POINT
  8
_1-2_
 62
    7
 10
121.62162162162163
 20
175.94594594594597
  0
POINT
  8
_1-2_
 62
    7
 10
166.62162162162164
 20
175.94594594594597
  0
POINT
  8
_1-2_
 62
    7
 10
219.62157378325591
 20
175.94594594594597
  0
POINT
  8
_1-2_
 62
    7
 10
272.62157543285474
 20
175.94594594594597
  0
POINT
  8
_1-2_
 62
    7
 10
325.62162657041807
 20
175.94594594594597
  0
LINE
  8
_1-1_
  6
CONTINUOUS
 62
    7
 10
125.62162244642104
 20
136.93533820074958
 11
127.85160539023178
 21
139.16532114456038
  0
LINE
  8
_1-1_
  6
CONTINUOUS
 62
    7
 10
125.62162244642104
 20
139.78077961653082
 11
125.62162244642104
 21
107.85053150073902
  0
LINE
  8
_1-1_
  6
CONTINUOUS
 62
    7
 10
125.62162244642104
 20
134.10690307617187
 11
130.13362545837381
 21
138.61890608812467
  0
LINE
  8
_1-1_
  6
CONTINUOUS
 62
    7
 10
130.42162096178211
 20
138.55583581553415
 11
130.42162096178211
 21
125.67023199957771
  0
ENDSEC
  0
EOF
