  0
SECTION
  2
HEADER
  9
$ACADVER
  1
AC1009
  9
$INSBASE
 10
0
 20
0
 30
0
  9
$EXTMIN
 10
0
 20
0
  9
$EXTMAX
 10
420
 20
297
  9
$LIMMIN
 10
0
 20
0
  9
$LIMMAX
 10
420
 20
297
  9
$LTSCALE
 40
1
  0
ENDSEC
  0
SECTION
  2
TABLES
  0
TABLE
  2
LTYPE
 70
     9
  0
LTYPE
  2
CONTINUOUS
 70
    64
  3
実線
 72
    65
 73
     0
 40
0.0
  0
LTYPE
  2
DASHED1
 70
    64
  3
--  --  --  --  --  --  --  --  
 72
    65
 73
     2
 40
2.5
 49
1.25
 49
-1.25
  0
LTYPE
  2
DASHED2
 70
    64
  3
----    ----    ----    ----    
 72
    65
 73
     2
 40
5.0
 49
2.5
 49
-2.5
  0
LTYPE
  2
DASHED3
 70
    64
  3
------  ------  ------  ------  
 72
    65
 73
     2
 40
5.0
 49
3.75
 49
-1.25
  0
LTYPE
  2
CENTER1
 70
    64
  3
----- - ----- - ----- - ----- - 
 72
    65
 73
     4
 40
10.0
 49
6.25
 49
-1.25
 49
1.25
 49
-1.25
  0
LTYPE
  2
CENTER2
 70
    64
  3
----------  --  ----------  --  
 72
    65
 73
     4
 40
20.0
 49
12.5
 49
-2.5
 49
2.5
 49
-2.5
  0
LTYPE
  2
PHANTOM1
 70
    64
  3
--- - - --- - - --- - - --- - - 
 72
    65
 73
     6
 40
10.0
 49
3.25
 49
-1.25
 49
1.25
 49
-1.25
 49
1.25
 49
-1.25
  0
LTYPE
  2
PHANTOM2
 70
    64
  3
--------  -  -  --------  -  -  
 72
    65
 73
     6
 40
20.0
 49
10.0
 49
-2.5
 49
1.25
 49
-2.5
 49
1.25
 49
-2.5
  0
LTYPE
  2
DOT
 70
    64
  3
-   -   -   -   -   -   -   -   
 72
    65
 73
     2
 40
2.5
 49
0.625
 49
-1.875
  0
LTYPE
  2
DUMMY
 70
    64
  3
ダミー
 72
    65
 73
     0
 40
0.0
  0
LTYPE
  2
RAND1
 70
    64
  3
ランダム線1
 72
    65
 73
     4
 40
10.0
 49
1.0
 49
-2.0
 49
3.0
 49
-4.0
  0
LTYPE
  2
RAND2
 70
    64
  3
ランダム線2
 72
    65
 73
     4
 40
14.0
 49
2.0
 49
-3.0
 49
4.0
 49
-5.0
  0
LTYPE
  2
RAND3
 70
    64
  3
ランダム線3
 72
    65
 73
     4
 40
18.0
 49
3.0
 49
-4.0
 49
5.0
 49
-6.0
  0
LTYPE
  2
RAND4
 70
    64
  3
ランダム線4
 72
    65
 73
     4
 40
22.0
 49
4.0
 49
-5.0
 49
6.0
 49
-7.0
  0
LTYPE
  2
RAND5
 70
    64
  3
ランダム線5
 72
    65
 73
     4
 40
26.0
 49
5.0
 49
-6.0
 49
7.0
 49
-8.0
  0
LTYPE
  2
LONG1
 70
    64
  3
----------  --  ----------  --  
 72
    65
 73
     4
 40
40.0
 49
32.5
 49
-2.5
 49
2.5
 49
-2.5
  0
LTYPE
  2
LONG2
 70
    64
  3
--------  -  -  --------  -  -  
 72
    65
 73
     6
 40
40.0
 49
30.0
 49
-2.5
 49
1.25
 49
-2.5
 49
1.25
 49
-2.5
  0
LTYPE
  2
LONG3
 70
    64
  3
+++++++++++++++..+++++++++++++++
 72
    65
 73
     2
 40
40.0
 49
37.5
 49
-2.5
  0
LTYPE
  2
LONG4
 70
    64
  3
+++++++++++++++..+++++++++++++++
 72
    65
 73
     2
 40
80.0
 49
75.0
 49
-5.0
  0
LTYPE
  2
LONG5
 70
    64
  3
----------  --  ----------  --  
 72
    65
 73
     4
 40
60.0
 49
37.5
 49
-7.5
 49
7.5
 49
-7.5
  0
LTYPE
  2
dashed
 70
   64
  3
-------   -------------   ------
 72
   65
 73
    2
 40
7.5
 49
6
 49
-1.5
  0
LTYPE
  2
dashed_spaced
 70
   64
  3
----        --------        ----
 72
   65
 73
    2
 40
12
 49
6
 49
-6
  0
LTYPE
  2
long_dashed_dotted
 70
   64
  3
------------- --- --------------
 72
   65
 73
    4
 40
15.25
 49
12
 49
-1.5
 49
0.25
 49
-1.5
  0
LTYPE
  2
long_dashed_double-dotted
 70
   64
  3
----------- --- --- ------------
 72
   65
 73
    6
 40
17
 49
12
 49
-1.5
 49
0.25
 49
-1.5
 49
0.25
 49
-1.5
  0
LTYPE
  2
long_dashed_triplicate-dotted
 70
   64
  3
--------- --- --- --- ----------
 72
   65
 73
    8
 40
18.75
 49
12
 49
-1.5
 49
0.25
 49
-1.5
 49
0.25
 49
-1.5
 49
0.25
 49
-1.5
  0
LTYPE
  2
dotted
 70
   64
  3
   -       -       -       -    
 72
   65
 73
    2
 40
1.75
 49
0.25
 49
-1.5
  0
LTYPE
  2
chain
 70
   64
  3
-------------- -- --------------
 72
   65
 73
    4
 40
18.5
 49
12
 49
-1.5
 49
3.5
 49
-1.5
  0
LTYPE
  2
chain_double_dash
 70
   64
  3
------------ -- -- -------------
 72
   65
 73
    6
 40
23.5
 49
12
 49
-1.5
 49
3.5
 49
-1.5
 49
3.5
 49
-1.5
  0
LTYPE
  2
dashed_dotted
 70
   64
  3
-----------     -     ----------
 72
   65
 73
    4
 40
9.25
 49
6
 49
-1.5
 49
0.25
 49
-1.5
  0
LTYPE
  2
double-dashed_dotted
 70
   64
  3
------   -----------   -   -----
 72
   65
 73
    6
 40
16.75
 49
6
 49
-1.5
 49
6
 49
-1.5
 49
0.25
 49
-1.5
  0
LTYPE
  2
dashed_double-dotted
 70
   64
  3
---------    -    -    ---------
 72
   65
 73
    6
 40
11
 49
6
 49
-1.5
 49
0.25
 49
-1.5
 49
0.25
 49
-1.5
  0
LTYPE
  2
double-dashed_double-dotted
 70
   64
  3
-----   ---------   -   -   ----
 72
   65
 73
    8
 40
18.5
 49
6
 49
-1.5
 49
6
 49
-1.5
 49
0.25
 49
-1.5
 49
0.25
 49
-1.5
  0
LTYPE
  2
dashed_triplicate-dotted
 70
   64
  3
-------    -    -    -    ------
 72
   65
 73
    8
 40
12.75
 49
6
 49
-1.5
 49
0.25
 49
-1.5
 49
0.25
 49
-1.5
 49
0.25
 49
-1.5
  0
LTYPE
  2
double-dashed_triplicate-dotted
 70
   64
  3
-----  ---------  -  -  -  -----
 72
   65
 73
   10
 40
20.25
 49
6
 49
-1.5
 49
6
 49
-1.5
 49
0.25
 49
-1.5
 49
0.25
 49
-1.5
 49
0.25
 49
-1.5
  0
LTYPE
  2
undefined
 70
   64
  3
--------------------------------
 72
   65
 73
    0
 40
0
  0
ENDTAB
  0
TABLE
  2
STYLE
  5
3
100
AcDbSymbolTable
 70
     1
  0
STYLE
  5
10
100
AcDbSymbolTableRecord
100
AcDbTextStyleTableRecord
  2
STANDARD
 70
     0
 40
0.0
 41
1.0
 50
0.0
 71
     0
 42
0.2
  3
txt
  4
bigfont.shx
  0
STYLE
  5
26
100
AcDbSymbolTableRecord
100
AcDbTextStyleTableRecord
  2
TATEGAKI
 70
    68
 40
0.0
 41
1.0
 50
0.0
 71
     0
 42
1.0
  3
txt
  4
bigfont.shx
  0
ENDTAB
  0
TABLE
  2
LAYER
 70
    5
  0
LAYER
  2
_0-0_
 70
   64
 62
    7
  6
CONTINUOUS
  0
LAYER
  2
_1-0_
 70
   64
 62
    7
  6
CONTINUOUS
  0
LAYER
  2
_1-1_
 70
   64
 62
    7
  6
CONTINUOUS
  0
LAYER
  2
_1-2_
 70
   64
 62
    7
  6
CONTINUOUS
  0
LAYER
  2
ADD_LINE
 70
   64
 62
    7
  6
CONTINUOUS
  0
ENDTAB
  0
ENDSEC
  0
SECTION
  2
BLOCKS
  0
ENDSEC
  0
SECTION
  2
ENTITIES
  0
LINE
  8
_0-0_
  6
CONTINUOUS
 62
    5
 10
6.7567526327597136
 20
280.13513513513516
 11
406.75677325274495
 21
280.13513513513516
  0
LINE
  8
_0-0_
  6
CONTINUOUS
 62
    5
 10
406.75677325274495
 20
10.13513513513513
 11
6.7567526327597136
 21
10.13513513513513
  0
LINE
  8
_0-0_
  6
CONTINUOUS
 62
    5
 10
406.75677325274495
 20
30.135133073136615
 11
6.7567402607685949
 21
30.135133073136615
  0
LINE
  8
_0-0_
  6
CONTINUOUS
 62
    5
 10
371.75678150073907
 20
10.13513513513513
 11
371.75678150073907
 21
30.135133073136615
  0
LINE
  8
_0-0_
  6
CONTINUOUS
 62
    5
 10
137.02703939901818
 20
30.135133073136615
 11
137.02703939901818
 21
10.13513513513513
  0
LINE
  8
_0-0_
  6
CONTINUOUS
 62
    5
 10
214.86486486486487
 20
30.135133073136615
 11
214.86486486486487
 21
10.13513513513513
  0
LINE
  8
_0-0_
  6
CONTINUOUS
 62
    5
 10
137.02703939901818
 20
20.135134104135886
 11
214.86486486486487
 21
20.135134104135886
  0
LINE
  8
_0-0_
  6
CONTINUOUS
 62
    5
 10
396.48648648648651
 20
25.945945945945951
 11
383.91891891891896
 21
13.378379924877265
  0
LINE
  8
_1-1_
  6
CONTINUOUS
 62
    7
 10
288.71352737014359
 20
129.18736638249578
 11
288.71352737014359
 21
113.99346016548776
  0
LINE
  8
_1-1_
  6
CONTINUOUS
 62
    7
 10
288.71352737014359
 20
113.99346016548776
 11
293.51353825749578
 21
113.99346016548776
  0
LINE
  8
_1-1_
  6
CONTINUOUS
 62
    7
 10
220.58955836940459
 20
143.21275040910052
 11
288.71352737014359
 21
143.21275040910052
  0
LINE
  8
_1-1_
  6
CONTINUOUS
 62
    7
 10
288.71352737014359
 20
138.07263348553633
 11
96.486486486486498
 21
138.07263348553633
  0
LINE
  8
_1-1_
  6
DASHED1
 62
    3
 10
96.486486486486498
 20
138.77699568464951
 11
288.71352737014359
 21
138.77699568464951
  0
LINE
  8
_1-1_
  6
CONTINUOUS
 62
    7
 10
288.71352737014359
 20
139.61274842958193
 11
96.486486486486498
 21
139.61274842958193
  0
LINE
  8
_1-1_
  6
CONTINUOUS
 62
    7
 10
288.71352737014359
 20
140.21275288349875
 11
96.486486486486498
 21
140.21275288349875
  0
LINE
  8
_1-1_
  6
CONTINUOUS
 62
    7
 10
220.58955836940459
 20
143.21275040910052
 11
96.486486486486498
 21
143.21275040910052
  0
LINE
  8
_1-1_
  6
CONTINUOUS
 62
    7
 10
276.71353726773651
 20
123.67262556746201
 11
276.71353726773651
 21
135.67262804186024
  0
LINE
  8
_1-1_
  6
CONTINUOUS
 62
    7
 10
276.71353726773651
 20
135.67262804186024
 11
288.71352737014359
 21
135.67262804186024
  0
LINE
  8
_1-1_
  6
CONTINUOUS
 62
    7
 10
288.71352737014359
 20
135.67262804186024
 11
288.71352737014359
 21
123.67262556746201
  0
LINE
  8
_1-1_
  6
CONTINUOUS
 62
    7
 10
288.71352737014359
 20
123.67262556746201
 11
276.71353726773651
 21
123.67262556746201
  0
LINE
  8
_1-1_
  6
CONTINUOUS
 62
    7
 10
216.11354518581084
 20
123.67262556746201
 11
216.11354518581084
 21
135.67262804186024
  0
LINE
  8
_1-1_
  6
CONTINUOUS
 62
    7
 10
216.11354518581084
 20
135.67262804186024
 11
228.11353528821792
 21
135.67262804186024
  0
LINE
  8
_1-1_
  6
CONTINUOUS
 62
    7
 10
228.11353528821792
 20
135.67262804186024
 11
228.11353528821792
 21
123.67262556746201
  0
LINE
  8
_1-1_
  6
CONTINUOUS
 62
    7
 10
228.11353528821792
 20
123.67262556746201
 11
216.11354518581084
 21
123.67262556746201
  0
LINE
  8
_1-1_
  6
CONTINUOUS
 62
    7
 10
155.51355310388513
 20
123.67262556746201
 11
155.51355310388513
 21
135.67262804186024
  0
LINE
  8
_1-1_
  6
CONTINUOUS
 62
    7
 10
155.51355310388513
 20
135.67262804186024
 11
167.51355557828336
 21
135.67262804186024
  0
LINE
  8
_1-1_
  6
CONTINUOUS
 62
    7
 10
167.51355557828336
 20
135.67262804186024
 11
167.51355557828336
 21
123.67262556746201
  0
LINE
  8
_1-1_
  6
CONTINUOUS
 62
    7
 10
167.51355557828336
 20
123.67262556746201
 11
155.51355310388513
 21
123.67262556746201
  0
LINE
  8
_1-1_
  6
CONTINUOUS
 62
    7
 10
106.91355112436656
 20
135.67262804186024
 11
106.91355112436656
 21
123.67262556746201
  0
LINE
  8
_1-1_
  6
CONTINUOUS
 62
    7
 10
288.71352737014359
 20
135.67262804186024
 11
96.486486486486498
 21
135.67262804186024
  0
LINE
  8
_1-1_
  6
CONTINUOUS
 62
    7
 10
96.486486486486498
 20
135.67262804186024
 11
106.91355112436656
 21
135.67262804186024
  0
LINE
  8
_1-1_
  6
CONTINUOUS
 62
    7
 10
106.91355112436656
 20
123.67262556746201
 11
96.486486486486498
 21
123.67262556746201
  0
LINE
  8
_1-1_
  6
CONTINUOUS
 62
    7
 10
167.51354320629224
 20
135.67262804186024
 11
155.51355310388513
 21
123.67262556746201
  0
LINE
  8
_1-1_
  6
CONTINUOUS
 62
    7
 10
216.11354518581084
 20
123.67262556746201
 11
228.11353528821792
 21
135.67262804186024
  0
LINE
  8
_1-1_
  6
CONTINUOUS
 62
    7
 10
288.71352737014359
 20
135.67262804186024
 11
276.71353726773651
 21
123.67262556746201
  0
LINE
  8
_1-1_
  6
CONTINUOUS
 62
    7
 10
106.91355112436656
 20
135.67262804186024
 11
96.486486486486498
 21
125.24556340398016
  0
LINE
  8
_1-1_
  6
CONTINUOUS
 62
    7
 10
281.17829193940037
 20
139.61303298537797
 11
281.17829193940037
 21
140.21303743929477
  0
LINE
  8
_1-1_
  6
CONTINUOUS
 62
    7
 10
281.17829193940037
 20
140.21303743929477
 11
285.97830282675255
 21
140.21303743929477
  0
LINE
  8
_1-1_
  6
CONTINUOUS
 62
    7
 10
285.97830282675255
 20
140.21303743929477
 11
285.97830282675255
 21
139.61303298537797
  0
LINE
  8
_1-1_
  6
CONTINUOUS
 62
    7
 10
285.97830282675255
 20
139.61303298537797
 11
281.17829193940037
 21
139.61303298537797
  0
LINE
  8
_1-1_
  6
CONTINUOUS
 62
    7
 10
281.17829193940037
 20
139.61303298537797
 11
285.97830282675255
 21
140.21303743929477
  0
LINE
  8
_1-1_
  6
CONTINUOUS
 62
    7
 10
219.74138414537586
 20
139.61303298537797
 11
219.74138414537586
 21
140.21303743929477
  0
LINE
  8
_1-1_
  6
CONTINUOUS
 62
    7
 10
219.74138414537586
 20
140.21303743929477
 11
224.54139503272805
 21
140.21303743929477
  0
LINE
  8
_1-1_
  6
CONTINUOUS
 62
    7
 10
224.54139503272805
 20
140.21303743929477
 11
224.54139503272805
 21
139.61303298537797
  0
LINE
  8
_1-1_
  6
CONTINUOUS
 62
    7
 10
224.54139503272805
 20
139.61303298537797
 11
219.74138414537586
 21
139.61303298537797
  0
LINE
  8
_1-1_
  6
CONTINUOUS
 62
    7
 10
219.74138414537586
 20
139.61303298537797
 11
224.54139503272805
 21
140.21303743929477
  0
LINE
  8
_1-1_
  6
CONTINUOUS
 62
    7
 10
158.61754958694047
 20
139.61303298537797
 11
158.61754958694047
 21
140.21303743929477
  0
LINE
  8
_1-1_
  6
CONTINUOUS
 62
    7
 10
158.61754958694047
 20
140.21303743929477
 11
163.41756047429266
 21
140.21303743929477
  0
LINE
  8
_1-1_
  6
CONTINUOUS
 62
    7
 10
163.41756047429266
 20
140.21303743929477
 11
163.41756047429266
 21
139.61303298537797
  0
LINE
  8
_1-1_
  6
CONTINUOUS
 62
    7
 10
163.41756047429266
 20
139.61303298537797
 11
158.61754958694047
 21
139.61303298537797
  0
LINE
  8
_1-1_
  6
CONTINUOUS
 62
    7
 10
158.61754958694047
 20
139.61303298537797
 11
163.41756047429266
 21
140.21303743929477
  0
LINE
  8
_1-1_
  6
CONTINUOUS
 62
    7
 10
96.867593301309128
 20
139.61303298537797
 11
96.867593301309128
 21
140.21303743929477
  0
LINE
  8
_1-1_
  6
CONTINUOUS
 62
    7
 10
96.867593301309128
 20
140.21303743929477
 11
101.66760418866133
 21
140.21303743929477
  0
LINE
  8
_1-1_
  6
CONTINUOUS
 62
    7
 10
101.66760418866133
 20
140.21303743929477
 11
101.66760418866133
 21
139.61303298537797
  0
LINE
  8
_1-1_
  6
CONTINUOUS
 62
    7
 10
101.66760418866133
 20
139.61303298537797
 11
96.867593301309128
 21
139.61303298537797
  0
LINE
  8
_1-1_
  6
CONTINUOUS
 62
    7
 10
96.867593301309128
 20
139.61303298537797
 11
101.66760418866133
 21
140.21303743929477
  0
LINE
  8
_1-1_
  6
CONTINUOUS
 62
    7
 10
291.48695662214953
 20
113.99346016548776
 11
293.51353825749578
 21
116.02004180083405
  0
LINE
  8
_1-1_
  6
CONTINUOUS
 62
    7
 10
289.22421842008026
 20
113.99346016548776
 11
293.51353825749578
 21
118.28278000290329
  0
LINE
  8
_1-1_
  6
CONTINUOUS
 62
    7
 10
288.71352737014359
 20
115.74550731762037
 11
293.51353825749578
 21
120.54551820497255
  0
LINE
  8
_1-1_
  6
CONTINUOUS
 62
    7
 10
288.71352737014359
 20
118.00824551968962
 11
293.51353825749578
 21
122.80824403505068
  0
LINE
  8
_1-1_
  6
CONTINUOUS
 62
    7
 10
288.71352737014359
 20
120.27098372175888
 11
293.51353825749578
 21
125.07099460911107
  0
LINE
  8
_1-1_
  6
CONTINUOUS
 62
    7
 10
288.71352737014359
 20
122.53372192382812
 11
293.51353825749578
 21
127.33372043918919
  0
LINE
  8
_1-1_
  6
CONTINUOUS
 62
    7
 10
288.71352737014359
 20
124.79646012589738
 11
293.51353825749578
 21
129.59645864125847
  0
LINE
  8
_1-1_
  6
CONTINUOUS
 62
    7
 10
288.71352737014359
 20
127.05918595597551
 11
293.51353825749578
 21
131.85919684332771
  0
LINE
  8
_1-1_
  6
CONTINUOUS
 62
    7
 10
288.71352737014359
 20
129.32192415804477
 11
293.51353825749578
 21
134.12193504539698
  0
LINE
  8
_1-1_
  6
CONTINUOUS
 62
    7
 10
288.71352737014359
 20
131.58464998812289
 11
293.51353825749578
 21
136.38466087547511
  0
LINE
  8
_1-1_
  6
CONTINUOUS
 62
    7
 10
288.71352737014359
 20
133.84737581820102
 11
293.51353825749578
 21
138.64739907754435
  0
LINE
  8
_1-1_
  6
CONTINUOUS
 62
    7
 10
288.71352737014359
 20
136.11012639226141
 11
293.51353825749578
 21
140.91013727961359
  0
LINE
  8
_1-1_
  6
CONTINUOUS
 62
    7
 10
288.71352737014359
 20
138.37286459433068
 11
293.51353825749578
 21
143.17287548168287
  0
LINE
  8
_1-2_
  6
CONTINUOUS
 62
    7
 10
297.51352671030406
 20
198.1861093881968
 11
236.51352341110643
 21
198.1861093881968
  0
LINE
  8
_1-2_
  6
CONTINUOUS
 62
    7
 10
297.51352671030406
 20
167.84174738703547
 11
297.51352671030406
 21
198.1861093881968
  0
LINE
  8
_1-2_
  6
CONTINUOUS
 62
    7
 10
236.51352341110643
 20
167.84174738703547
 11
236.51352341110643
 21
198.1861093881968
  0
LINE
  8
_1-2_
  6
CONTINUOUS
 62
    7
 10
236.51352341110643
 20
198.1861093881968
 11
183.5135959934544
 21
198.1861093881968
  0
LINE
  8
_1-2_
  6
CONTINUOUS
 62
    7
 10
183.5135959934544
 20
167.84174738703547
 11
183.5135959934544
 21
198.1861093881968
  0
LINE
  8
_1-2_
  6
CONTINUOUS
 62
    7
 10
183.5135959934544
 20
198.1861093881968
 11
130.51347062394427
 21
198.1861093881968
  0
LINE
  8
_1-2_
  6
CONTINUOUS
 62
    7
 10
130.51347062394427
 20
167.84174738703547
 11
130.51347062394427
 21
198.1861093881968
  0
LINE
  8
_1-2_
  6
CONTINUOUS
 62
    7
 10
130.51347062394427
 20
198.1861093881968
 11
96.486486486486498
 21
198.1861093881968
  0
LINE
  8
_1-2_
  6
CONTINUOUS
 62
    7
 10
161.73680073506125
 20
141.36949693834461
 11
138.26284047719597
 21
76.875315485773868
  0
LINE
  8
_1-2_
  6
CONTINUOUS
 62
    7
 10
152.84366504566091
 20
178.67285651129646
 11
158.91891891891893
 21
178.67285651129646
  0
LINE
  8
_1-2_
  6
CONTINUOUS
 62
    7
 10
291.08108108108109
 20
115.94594594594595
 11
277.22002184068833
 21
77.862990095808698
  0
LINE
  8
_1-2_
  6
CONTINUOUS
 62
    7
 10
277.22002184068833
 20
77.862990095808698
 11
271.62162162162161
 21
77.862990095808698
  0
LINE
  8
_1-2_
  6
CONTINUOUS
 62
    7
 10
309.74165632918078
 20
176.75675675675677
 11
314.59459459459464
 21
176.75675675675677
  0
LINE
  8
_1-2_
  6
CONTINUOUS
 62
    7
 10
134.85287228146115
 20
74.384072793496628
 11
137.35609724714951
 21
74.384072793496628
  0
LINE
  8
_1-2_
  6
CONTINUOUS
 62
    7
 10
134.85287228146115
 20
81.391791266364024
 11
139.90670693887247
 21
81.391791266364024
  0
LINE
  8
_1-2_
  6
CONTINUOUS
 62
    7
 10
134.85287228146115
 20
89.346499056429479
 11
142.80197555954393
 21
89.346499056429479
  0
LINE
  8
_1-2_
  6
CONTINUOUS
 62
    7
 10
134.85287228146115
 20
97.869409097207566
 11
145.90406675596495
 21
97.869409097207566
  0
LINE
  8
_1-2_
  6
CONTINUOUS
 62
    7
 10
134.85287228146115
 20
105.63472026103253
 11
148.73041101404138
 21
105.63472026103253
  0
LINE
  8
_1-2_
  6
CONTINUOUS
 62
    7
 10
138.26284047719597
 20
76.875315485773868
 11
137.35609724714951
 21
74.384072793496628
  0
LINE
  8
_1-2_
  6
CONTINUOUS
 62
    7
 10
293.51353825749578
 20
104.2877939585093
 11
297.51352671030406
 21
104.2877939585093
  0
LINE
  8
_1-2_
  6
CONTINUOUS
 62
    7
 10
293.51353825749578
 20
110.90890008050043
 11
293.51353825749578
 21
104.2877939585093
  0
LINE
  8
_1-2_
  6
CONTINUOUS
 62
    7
 10
297.51352671030406
 20
110.90890008050043
 11
297.51352671030406
 21
104.2877939585093
  0
LINE
  8
_1-0_
  6
CONTINUOUS
 62
    3
 10
139.90796888196792
 20
152.65635309992609
 11
141.29744246199326
 21
152.65635309992609
  0
LINE
  8
ADD_LINE
  6
DOT
 62
    4
 10
109.61185764622044
 20
146.31348068649706
 11
119.79507033889358
 21
146.31348068649706
  0
LINE
  8
_1-0_
  6
CONTINUOUS
 62
    3
 10
141.29744246199326
 20
152.65635309992609
 11
141.29744246199326
 21
149.47511827623524
  0
LINE
  8
_1-0_
  6
CONTINUOUS
 62
    3
 10
141.29744246199326
 20
152.65635309992609
 11
141.29744246199326
 21
149.47511827623524
  0
LINE
  8
_1-0_
  6
CONTINUOUS
 62
    3
 10
141.29744246199326
 20
148.87181050068625
 11
141.29744246199326
 21
148.83313565640836
  0
LINE
  8
_1-0_
  6
CONTINUOUS
 62
    3
 10
138.96903373099664
 20
155.53853215398016
 11
133.29736658044763
 21
152.31357471362966
  0
LINE
  8
_1-0_
  6
CONTINUOUS
 62
    3
 10
192.90794578758448
 20
152.65635309992609
 11
194.29741936760982
 21
152.65635309992609
  0
LINE
  8
_1-0_
  6
CONTINUOUS
 62
    3
 10
133.29736658044763
 20
152.31357471362966
 11
133.29736658044763
 21
149.51361991263727
  0
LINE
  8
_1-0_
  6
CONTINUOUS
 62
    3
 10
137.86983180690456
 20
151.88226235879435
 11
133.29736658044763
 21
149.51361991263727
  0
LINE
  8
_1-0_
  6
CONTINUOUS
 62
    3
 10
194.29741936760982
 20
152.65635309992609
 11
194.29741936760982
 21
149.47511827623524
  0
LINE
  8
_1-0_
  6
CONTINUOUS
 62
    3
 10
194.29741936760982
 20
152.65635309992609
 11
194.29741936760982
 21
149.47511827623524
  0
LINE
  8
_1-0_
  6
CONTINUOUS
 62
    3
 10
191.96901063661318
 20
155.5385445259713
 11
186.29736823004646
 21
152.31357471362966
  0
LINE
  8
_1-0_
  6
CONTINUOUS
 62
    3
 10
245.90794743718328
 20
152.65634072793497
 11
247.29744576119089
 21
152.65634072793497
  0
LINE
  8
_1-0_
  6
CONTINUOUS
 62
    3
 10
186.29736823004646
 20
152.31357471362966
 11
186.29736823004646
 21
149.51361991263727
  0
LINE
  8
_1-0_
  6
CONTINUOUS
 62
    3
 10
190.86983345650339
 20
151.88224998680323
 11
186.29736823004646
 21
149.51361991263727
  0
LINE
  8
_1-0_
  6
CONTINUOUS
 62
    3
 10
247.29744576119089
 20
152.65634072793497
 11
247.29744576119089
 21
149.47511827623524
  0
LINE
  8
_1-0_
  6
CONTINUOUS
 62
    3
 10
247.29744576119089
 20
152.65634072793497
 11
247.29744576119089
 21
149.47511827623524
  0
LINE
  8
_1-0_
  6
CONTINUOUS
 62
    3
 10
244.96898754222974
 20
155.5385445259713
 11
239.29734513566302
 21
152.31357471362966
  0
LINE
  8
_1-0_
  6
CONTINUOUS
 62
    3
 10
239.29734513566302
 20
152.31357471362966
 11
239.29734513566302
 21
149.51361991263727
  0
LINE
  8
_1-0_
  6
CONTINUOUS
 62
    3
 10
243.86981036211995
 20
151.88224998680323
 11
239.29734513566302
 21
149.51361991263727
  0
LINE
  8
_1-0_
  6
CONTINUOUS
 62
    3
 10
300.29742266680745
 20
152.65634072793497
 11
300.29742266680745
 21
149.47511827623524
  0
LINE
  8
_1-0_
  6
CONTINUOUS
 62
    3
 10
300.29742266680745
 20
152.65634072793497
 11
300.29742266680745
 21
149.47511827623524
  0
LINE
  8
_1-0_
  6
CONTINUOUS
 62
    3
 10
300.29742266680745
 20
149.47511827623524
 11
300.29742266680745
 21
136.05634534681167
  0
LINE
  8
_1-0_
  6
CONTINUOUS
 62
    3
 10
297.09743190456084
 20
136.05634534681167
 11
300.29742266680745
 21
136.05634534681167
  0
LINE
  8
_1-0_
  6
CONTINUOUS
 62
    3
 10
297.09743190456084
 20
147.85052737674198
 11
297.09743190456084
 21
136.05634534681167
  0
LINE
  8
_1-2_
  6
CONTINUOUS
 62
    7
 10
144.03484447582349
 20
154.47085406329182
 11
152.84366504566091
 21
178.67285651129646
  0
LINE
  8
_1-2_
  6
CONTINUOUS
 62
    7
 10
297.09743190456084
 20
142.01708407015414
 11
309.74165632918078
 21
176.75675675675677
  0
ARC
  8
_1-0_
  6
CONTINUOUS
 62
    3
 10
138.86807828336148
 20
152.62695724899706
 40
1.0402513194728542
 50
309.08184814453125
 51
1.6144714355468908
  0
ARC
  8
_1-0_
  6
CONTINUOUS
 62
    3
 10
140.80889727618245
 20
153.0901151090055
 40
3.0627306731971538
 50
42.6905517578125
 51
126.92074584960937
  0
ARC
  8
_1-0_
  6
CONTINUOUS
 62
    3
 10
191.86807993296031
 20
152.62695724899706
 40
1.0402513194728542
 50
309.08184814453125
 51
1.6144714355468908
  0
ARC
  8
_1-0_
  6
CONTINUOUS
 62
    3
 10
170.43011639569258
 20
192.47845211544552
 40
46.274049088761615
 50
233.73811340332031
 51
298.51937866210937
  0
ARC
  8
_1-0_
  6
CONTINUOUS
 62
    3
 10
140.62217918602198
 20
148.16368721626901
 40
4.6263270764737516
 50
47.123046875000007
 51
126.50717163085939
  0
ARC
  8
_1-0_
  6
CONTINUOUS
 62
    3
 10
170.73701600770693
 20
191.91782770930112
 40
48.543530025997683
 50
236.25315856933597
 51
299.03501892089844
  0
ARC
  8
_1-0_
  6
CONTINUOUS
 62
    3
 10
193.80889892578125
 20
153.0901151090055
 40
3.0627306731971538
 50
42.6905517578125
 51
126.92074584960937
  0
ARC
  8
_1-0_
  6
CONTINUOUS
 62
    3
 10
244.86808158255914
 20
152.62694487700591
 40
1.0402513194728542
 50
309.08184814453125
 51
1.6144714355468908
  0
ARC
  8
_1-0_
  6
CONTINUOUS
 62
    3
 10
223.43009330130914
 20
192.47845211544552
 40
46.274049088761615
 50
233.73811340332031
 51
298.51937866210937
  0
ARC
  8
_1-0_
  6
CONTINUOUS
 62
    3
 10
193.62218083562078
 20
148.16367484427789
 40
4.6263270764737516
 50
47.123046875000007
 51
126.50717163085939
  0
ARC
  8
_1-0_
  6
CONTINUOUS
 62
    3
 10
223.73701765730576
 20
191.91782770930112
 40
48.543530025997683
 50
236.25315856933597
 51
299.03501892089844
  0
ARC
  8
_1-0_
  6
CONTINUOUS
 62
    3
 10
246.80887583139781
 20
153.0901151090055
 40
3.0627306731971538
 50
42.6905517578125
 51
126.92074584960937
  0
ARC
  8
_1-0_
  6
CONTINUOUS
 62
    3
 10
246.62215774123734
 20
148.16367484427789
 40
4.6263270764737516
 50
47.123046875000007
 51
126.50717163085939
  0
ARC
  8
_1-0_
  6
CONTINUOUS
 62
    3
 10
276.5896936365076
 20
192.91400806323904
 40
46.719762441274284
 50
233.89616394042969
 51
300.49382019042969
  0
ARC
  8
_1-0_
  6
CONTINUOUS
 62
    3
 10
276.73699456292229
 20
191.91782770930112
 40
48.543530025997683
 50
236.25315856933597
 51
294.79837036132812
  0
ARC
  8
_1-0_
  6
CONTINUOUS
 62
    3
 10
117.4300900021115
 20
192.47845211544552
 40
46.274049088761615
 50
246.89369201660159
 51
298.51937866210937
  0
ARC
  8
_1-0_
  6
CONTINUOUS
 62
    3
 10
117.73701435810811
 20
191.91782770930112
 40
48.543530025997683
 50
247.64067077636722
 51
299.03501892089844
  0
TEXT
  8
_0-0_
 62
    7
 10
141.89189395389042
 20
14.594594594594582
 40
2.5
 41
1
 50
0
  1
縮尺
  0
TEXT
  8
_0-0_
 62
    7
 10
377.10214563318203
 20
22.865493362014362
 40
2.5
 41
1
 50
0
  1
ＮＯ
  0
TEXT
  8
_0-0_
 62
    7
 10
14.594594336844779
 20
24.324324324324323
 40
2.5
 41
1
 50
0
  1
和形
  0
TEXT
  8
_0-0_
 62
    7
 10
25.556194717819636
 20
20.211577544341225
 40
2.5
 41
1
 50
0
  1
木造
  0
TEXT
  8
_0-0_
 62
    7
 10
383.23801896378802
 20
18.523427086907475
 40
3
 41
1
 50
0
  1
Ｊ
  0
TEXT
  8
_1-0_
 62
    7
 10
169.90681828679266
 20
13.3181144095756
 40
2.5
 41
1
 50
0
  1
1/5
  0
TEXT
  8
_1-2_
 62
    7
 10
393.24323911924625
 20
14.594594594594582
 40
2.5
 41
1
 50
0
  1
5
  0
TEXT
  8
_1-2_
 62
    7
 10
39.721903414339636
 20
15.395235628695104
 40
2.5
 41
1
 50
0
  1
袖　　2
  0
TEXT
  8
_1-2_
 62
    7
 10
265.13852506070526
 20
198.68611103779563
 40
2.5
 41
1
 50
0
  1
305
  0
TEXT
  8
_1-2_
 62
    7
 10
208.13855970228042
 20
198.68611103779563
 40
2.5
 41
1
 50
0
  1
265
  0
TEXT
  8
_1-2_
 62
    7
 10
155.13853330869932
 20
198.68611103779563
 40
2.5
 41
1
 50
0
  1
265
  0
TEXT
  8
_1-2_
 62
    7
 10
316.33986189558703
 20
175.61333733635982
 40
2.5
 41
1
 50
0
  1
右袖瓦
  0
TEXT
  8
_1-2_
 62
    7
 10
261.56005034575594
 20
77.061464464342279
 40
2.5
 41
1
 50
0
  1
破風板
  0
TEXT
  8
_1-2_
 62
    7
 10
160.14922889503273
 20
177.95341285499367
 40
2.5
 41
1
 50
0
  1
桟瓦
  0
TEXT
  8
_1-2_
 62
    7
 10
294.26353248389989
 20
104.78779560810811
 40
2.5
 41
1
 50
0
  1
20
  0
TEXT
  8
_1-2_
 62
    7
 10
85.243024052800365
 20
104.3160020982897
 40
2.5
 41
1
 50
0
  1
瓦桟
  0
TEXT
  8
_1-2_
 62
    7
 10
85.243024052800365
 20
96.316000448690886
 40
2.5
 41
1
 50
0
  1
流桟
  0
TEXT
  8
_1-2_
 62
    7
 10
85.243019928803321
 20
80.315997149493242
 40
2.5
 41
1
 50
0
  1
野地板　ｔ＝12
  0
TEXT
  8
_1-2_
 62
    7
 10
85.243018897804063
 20
72.315995499894427
 40
2.5
 41
1
 50
0
  1
垂木　60ｘ60
  0
TEXT
  8
_1-2_
 62
    7
 10
85.243018897804063
 20
88.315998799092071
 40
2.5
 41
1
 50
0
  1
下葺き材　アスファルトルーフィング　940
  0
TEXT
  8
_1-2_
 62
    7
 10
94.589703534100508
 20
104.32693893845017
 40
2.5
 41
1
 50
0
  1
15×21　以上　（防腐処理）
  0
TEXT
  8
_1-2_
 62
    7
 10
94.780478606352943
 20
100.70594787597656
 40
2.5
 41
1
 50
0
  1
※　地域により瓦桟木の大きさは、異なります
  0
POINT
  8
_1-2_
 62
    7
 10
297.51352671030406
 20
198.1861093881968
  0
POINT
  8
_1-2_
 62
    7
 10
236.51352341110643
 20
198.1861093881968
  0
POINT
  8
_1-2_
 62
    7
 10
183.5135959934544
 20
198.1861093881968
  0
POINT
  8
_1-2_
 62
    7
 10
130.51347062394427
 20
198.1861093881968
  0
POINT
  8
_1-2_
 62
    7
 10
293.51353825749578
 20
104.2877939585093
  0
POINT
  8
_1-2_
 62
    7
 10
297.51352671030406
 20
104.2877939585093
  0
LINE
  8
_1-1_
  6
CONTINUOUS
 62
    7
 10
288.71352737014359
 20
144.87490083073106
 11
288.71352737014359
 21
129.18736638249578
  0
LINE
  8
_1-1_
  6
CONTINUOUS
 62
    7
 10
288.71352737014359
 20
142.89834099846917
 11
291.48354234438045
 21
145.668355972706
  0
LINE
  8
_1-1_
  6
CONTINUOUS
 62
    7
 10
293.51353825749578
 20
146.36541955068668
 11
293.51353825749578
 21
113.99346016548776
  0
LINE
  8
_1-1_
  6
CONTINUOUS
 62
    7
 10
288.71352737014359
 20
140.63560279639992
 11
293.51353825749578
 21
145.43561368375208
  0
ENDSEC
  0
EOF
