  0
SECTION
  2
HEADER
  9
$ACADVER
  1
AC1009
  9
$INSBASE
 10
0
 20
0
 30
0
  9
$EXTMIN
 10
0
 20
0
  9
$EXTMAX
 10
420
 20
297
  9
$LIMMIN
 10
0
 20
0
  9
$LIMMAX
 10
420
 20
297
  9
$LTSCALE
 40
1
  0
ENDSEC
  0
SECTION
  2
TABLES
  0
TABLE
  2
LTYPE
 70
     9
  0
LTYPE
  2
CONTINUOUS
 70
    64
  3
実線
 72
    65
 73
     0
 40
0.0
  0
LTYPE
  2
DASHED1
 70
    64
  3
--  --  --  --  --  --  --  --  
 72
    65
 73
     2
 40
2.5
 49
1.25
 49
-1.25
  0
LTYPE
  2
DASHED2
 70
    64
  3
----    ----    ----    ----    
 72
    65
 73
     2
 40
5.0
 49
2.5
 49
-2.5
  0
LTYPE
  2
DASHED3
 70
    64
  3
------  ------  ------  ------  
 72
    65
 73
     2
 40
5.0
 49
3.75
 49
-1.25
  0
LTYPE
  2
CENTER1
 70
    64
  3
----- - ----- - ----- - ----- - 
 72
    65
 73
     4
 40
10.0
 49
6.25
 49
-1.25
 49
1.25
 49
-1.25
  0
LTYPE
  2
CENTER2
 70
    64
  3
----------  --  ----------  --  
 72
    65
 73
     4
 40
20.0
 49
12.5
 49
-2.5
 49
2.5
 49
-2.5
  0
LTYPE
  2
PHANTOM1
 70
    64
  3
--- - - --- - - --- - - --- - - 
 72
    65
 73
     6
 40
10.0
 49
3.25
 49
-1.25
 49
1.25
 49
-1.25
 49
1.25
 49
-1.25
  0
LTYPE
  2
PHANTOM2
 70
    64
  3
--------  -  -  --------  -  -  
 72
    65
 73
     6
 40
20.0
 49
10.0
 49
-2.5
 49
1.25
 49
-2.5
 49
1.25
 49
-2.5
  0
LTYPE
  2
DOT
 70
    64
  3
-   -   -   -   -   -   -   -   
 72
    65
 73
     2
 40
2.5
 49
0.625
 49
-1.875
  0
LTYPE
  2
DUMMY
 70
    64
  3
ダミー
 72
    65
 73
     0
 40
0.0
  0
LTYPE
  2
RAND1
 70
    64
  3
ランダム線1
 72
    65
 73
     4
 40
10.0
 49
1.0
 49
-2.0
 49
3.0
 49
-4.0
  0
LTYPE
  2
RAND2
 70
    64
  3
ランダム線2
 72
    65
 73
     4
 40
14.0
 49
2.0
 49
-3.0
 49
4.0
 49
-5.0
  0
LTYPE
  2
RAND3
 70
    64
  3
ランダム線3
 72
    65
 73
     4
 40
18.0
 49
3.0
 49
-4.0
 49
5.0
 49
-6.0
  0
LTYPE
  2
RAND4
 70
    64
  3
ランダム線4
 72
    65
 73
     4
 40
22.0
 49
4.0
 49
-5.0
 49
6.0
 49
-7.0
  0
LTYPE
  2
RAND5
 70
    64
  3
ランダム線5
 72
    65
 73
     4
 40
26.0
 49
5.0
 49
-6.0
 49
7.0
 49
-8.0
  0
LTYPE
  2
LONG1
 70
    64
  3
----------  --  ----------  --  
 72
    65
 73
     4
 40
40.0
 49
32.5
 49
-2.5
 49
2.5
 49
-2.5
  0
LTYPE
  2
LONG2
 70
    64
  3
--------  -  -  --------  -  -  
 72
    65
 73
     6
 40
40.0
 49
30.0
 49
-2.5
 49
1.25
 49
-2.5
 49
1.25
 49
-2.5
  0
LTYPE
  2
LONG3
 70
    64
  3
+++++++++++++++..+++++++++++++++
 72
    65
 73
     2
 40
40.0
 49
37.5
 49
-2.5
  0
LTYPE
  2
LONG4
 70
    64
  3
+++++++++++++++..+++++++++++++++
 72
    65
 73
     2
 40
80.0
 49
75.0
 49
-5.0
  0
LTYPE
  2
LONG5
 70
    64
  3
----------  --  ----------  --  
 72
    65
 73
     4
 40
60.0
 49
37.5
 49
-7.5
 49
7.5
 49
-7.5
  0
LTYPE
  2
dashed
 70
   64
  3
-------   -------------   ------
 72
   65
 73
    2
 40
7.5
 49
6
 49
-1.5
  0
LTYPE
  2
dashed_spaced
 70
   64
  3
----        --------        ----
 72
   65
 73
    2
 40
12
 49
6
 49
-6
  0
LTYPE
  2
long_dashed_dotted
 70
   64
  3
------------- --- --------------
 72
   65
 73
    4
 40
15.25
 49
12
 49
-1.5
 49
0.25
 49
-1.5
  0
LTYPE
  2
long_dashed_double-dotted
 70
   64
  3
----------- --- --- ------------
 72
   65
 73
    6
 40
17
 49
12
 49
-1.5
 49
0.25
 49
-1.5
 49
0.25
 49
-1.5
  0
LTYPE
  2
long_dashed_triplicate-dotted
 70
   64
  3
--------- --- --- --- ----------
 72
   65
 73
    8
 40
18.75
 49
12
 49
-1.5
 49
0.25
 49
-1.5
 49
0.25
 49
-1.5
 49
0.25
 49
-1.5
  0
LTYPE
  2
dotted
 70
   64
  3
   -       -       -       -    
 72
   65
 73
    2
 40
1.75
 49
0.25
 49
-1.5
  0
LTYPE
  2
chain
 70
   64
  3
-------------- -- --------------
 72
   65
 73
    4
 40
18.5
 49
12
 49
-1.5
 49
3.5
 49
-1.5
  0
LTYPE
  2
chain_double_dash
 70
   64
  3
------------ -- -- -------------
 72
   65
 73
    6
 40
23.5
 49
12
 49
-1.5
 49
3.5
 49
-1.5
 49
3.5
 49
-1.5
  0
LTYPE
  2
dashed_dotted
 70
   64
  3
-----------     -     ----------
 72
   65
 73
    4
 40
9.25
 49
6
 49
-1.5
 49
0.25
 49
-1.5
  0
LTYPE
  2
double-dashed_dotted
 70
   64
  3
------   -----------   -   -----
 72
   65
 73
    6
 40
16.75
 49
6
 49
-1.5
 49
6
 49
-1.5
 49
0.25
 49
-1.5
  0
LTYPE
  2
dashed_double-dotted
 70
   64
  3
---------    -    -    ---------
 72
   65
 73
    6
 40
11
 49
6
 49
-1.5
 49
0.25
 49
-1.5
 49
0.25
 49
-1.5
  0
LTYPE
  2
double-dashed_double-dotted
 70
   64
  3
-----   ---------   -   -   ----
 72
   65
 73
    8
 40
18.5
 49
6
 49
-1.5
 49
6
 49
-1.5
 49
0.25
 49
-1.5
 49
0.25
 49
-1.5
  0
LTYPE
  2
dashed_triplicate-dotted
 70
   64
  3
-------    -    -    -    ------
 72
   65
 73
    8
 40
12.75
 49
6
 49
-1.5
 49
0.25
 49
-1.5
 49
0.25
 49
-1.5
 49
0.25
 49
-1.5
  0
LTYPE
  2
double-dashed_triplicate-dotted
 70
   64
  3
-----  ---------  -  -  -  -----
 72
   65
 73
   10
 40
20.25
 49
6
 49
-1.5
 49
6
 49
-1.5
 49
0.25
 49
-1.5
 49
0.25
 49
-1.5
 49
0.25
 49
-1.5
  0
LTYPE
  2
undefined
 70
   64
  3
--------------------------------
 72
   65
 73
    0
 40
0
  0
ENDTAB
  0
TABLE
  2
STYLE
  5
3
100
AcDbSymbolTable
 70
     1
  0
STYLE
  5
10
100
AcDbSymbolTableRecord
100
AcDbTextStyleTableRecord
  2
STANDARD
 70
     0
 40
0.0
 41
1.0
 50
0.0
 71
     0
 42
0.2
  3
txt
  4
bigfont.shx
  0
STYLE
  5
26
100
AcDbSymbolTableRecord
100
AcDbTextStyleTableRecord
  2
TATEGAKI
 70
    68
 40
0.0
 41
1.0
 50
0.0
 71
     0
 42
1.0
  3
txt
  4
bigfont.shx
  0
ENDTAB
  0
TABLE
  2
LAYER
 70
    6
  0
LAYER
  2
_0-0_
 70
   64
 62
    7
  6
CONTINUOUS
  0
LAYER
  2
_1-0_
 70
   64
 62
    7
  6
CONTINUOUS
  0
LAYER
  2
_1-1_
 70
   64
 62
    7
  6
CONTINUOUS
  0
LAYER
  2
_1-2_
 70
   64
 62
    7
  6
CONTINUOUS
  0
LAYER
  2
_1-3_
 70
   64
 62
    7
  6
CONTINUOUS
  0
LAYER
  2
ADD_LINE
 70
   64
 62
    7
  6
CONTINUOUS
  0
ENDTAB
  0
ENDSEC
  0
SECTION
  2
BLOCKS
  0
ENDSEC
  0
SECTION
  2
ENTITIES
  0
LINE
  8
_0-0_
  6
CONTINUOUS
 62
    5
 10
6.7567526327597136
 20
280.13513513513516
 11
406.75677325274495
 21
280.13513513513516
  0
LINE
  8
_0-0_
  6
CONTINUOUS
 62
    5
 10
406.75677325274495
 20
10.13513513513513
 11
6.7567526327597136
 21
10.13513513513513
  0
LINE
  8
_0-0_
  6
CONTINUOUS
 62
    5
 10
406.75677325274495
 20
30.135133073136615
 11
6.7567402607685949
 21
30.135133073136615
  0
LINE
  8
_0-0_
  6
CONTINUOUS
 62
    5
 10
371.75678150073907
 20
10.13513513513513
 11
371.75678150073907
 21
30.135133073136615
  0
LINE
  8
_0-0_
  6
CONTINUOUS
 62
    5
 10
137.02703939901818
 20
30.135133073136615
 11
137.02703939901818
 21
10.13513513513513
  0
LINE
  8
_0-0_
  6
CONTINUOUS
 62
    5
 10
214.86486486486487
 20
30.135133073136615
 11
214.86486486486487
 21
10.13513513513513
  0
LINE
  8
_0-0_
  6
CONTINUOUS
 62
    5
 10
137.02703939901818
 20
20.135134104135886
 11
214.86486486486487
 21
20.135134104135886
  0
LINE
  8
_0-0_
  6
CONTINUOUS
 62
    5
 10
396.48648648648651
 20
25.945945945945951
 11
383.91891891891896
 21
13.378379924877265
  0
LINE
  8
_1-1_
  6
CONTINUOUS
 62
    7
 10
293.34302747571792
 20
132.72644867768159
 11
293.34302747571792
 21
133.32644075960727
  0
LINE
  8
_1-1_
  6
CONTINUOUS
 62
    7
 10
293.34302747571792
 20
133.32644075960727
 11
298.14301361908787
 21
133.32644075960727
  0
LINE
  8
_1-1_
  6
CONTINUOUS
 62
    7
 10
298.14301361908787
 20
133.32644075960727
 11
298.14301361908787
 21
132.72644867768159
  0
LINE
  8
_1-1_
  6
CONTINUOUS
 62
    7
 10
298.14301361908787
 20
132.72644867768159
 11
293.34302747571792
 21
132.72644867768159
  0
LINE
  8
_1-1_
  6
CONTINUOUS
 62
    7
 10
293.34302747571792
 20
132.72644867768159
 11
298.14301361908787
 21
133.32644075960727
  0
LINE
  8
_1-1_
  6
CONTINUOUS
 62
    7
 10
318.13719053526182
 20
117.09926295924832
 11
318.13719053526182
 21
129.09926543364654
  0
LINE
  8
_1-1_
  6
CONTINUOUS
 62
    7
 10
318.13719053526182
 20
129.09926543364654
 11
330.13718063766896
 21
129.09926543364654
  0
LINE
  8
_1-1_
  6
CONTINUOUS
 62
    7
 10
330.13718063766896
 20
117.09926295924832
 11
318.13719053526182
 21
117.09926295924832
  0
LINE
  8
_1-1_
  6
CONTINUOUS
 62
    7
 10
330.13718063766896
 20
129.09926543364654
 11
318.13719053526182
 21
117.09926295924832
  0
LINE
  8
_1-1_
  6
CONTINUOUS
 62
    7
 10
257.53719845333615
 20
117.09926295924832
 11
257.53719845333615
 21
129.09926543364654
  0
LINE
  8
_1-1_
  6
CONTINUOUS
 62
    7
 10
257.53719845333615
 20
129.09926543364654
 11
269.53718855574328
 21
129.09926543364654
  0
LINE
  8
_1-1_
  6
CONTINUOUS
 62
    7
 10
269.53718855574328
 20
129.09926543364654
 11
269.53718855574328
 21
117.09926295924832
  0
LINE
  8
_1-1_
  6
CONTINUOUS
 62
    7
 10
269.53718855574328
 20
117.09926295924832
 11
257.53719845333615
 21
117.09926295924832
  0
LINE
  8
_1-1_
  6
CONTINUOUS
 62
    7
 10
269.53718855574328
 20
129.09926543364654
 11
257.53719845333615
 21
117.09926295924832
  0
LINE
  8
_1-1_
  6
CONTINUOUS
 62
    7
 10
196.93721874340162
 20
117.09926295924832
 11
196.93721874340162
 21
129.09926543364654
  0
LINE
  8
_1-1_
  6
CONTINUOUS
 62
    7
 10
196.93721874340162
 20
129.09926543364654
 11
208.93719647381758
 21
129.09926543364654
  0
LINE
  8
_1-1_
  6
CONTINUOUS
 62
    7
 10
208.93719647381758
 20
129.09926543364654
 11
208.93719647381758
 21
117.09926295924832
  0
LINE
  8
_1-1_
  6
CONTINUOUS
 62
    7
 10
208.93719647381758
 20
117.09926295924832
 11
196.93721874340162
 21
117.09926295924832
  0
LINE
  8
_1-1_
  6
CONTINUOUS
 62
    7
 10
208.93719647381758
 20
129.09926543364654
 11
196.93721874340162
 21
117.09926295924832
  0
LINE
  8
_1-1_
  6
CONTINUOUS
 62
    7
 10
260.96193880648229
 20
132.72644867768159
 11
260.96193880648229
 21
133.32644075960727
  0
LINE
  8
_1-1_
  6
CONTINUOUS
 62
    7
 10
260.96193880648229
 20
133.32644075960727
 11
265.76192494985219
 21
133.32644075960727
  0
LINE
  8
_1-1_
  6
CONTINUOUS
 62
    7
 10
265.76192494985219
 20
133.32644075960727
 11
265.76192494985219
 21
132.72644867768159
  0
LINE
  8
_1-1_
  6
CONTINUOUS
 62
    7
 10
265.76192494985219
 20
132.72644867768159
 11
260.96193880648229
 21
132.72644867768159
  0
LINE
  8
_1-1_
  6
CONTINUOUS
 62
    7
 10
260.96193880648229
 20
132.72644867768159
 11
265.76192494985219
 21
133.32644075960727
  0
LINE
  8
_1-1_
  6
CONTINUOUS
 62
    7
 10
199.32192003404774
 20
132.72644867768159
 11
199.32192003404774
 21
133.32644075960727
  0
LINE
  8
_1-1_
  6
CONTINUOUS
 62
    7
 10
199.32192003404774
 20
133.32644075960727
 11
204.12190617741766
 21
133.32644075960727
  0
LINE
  8
_1-1_
  6
CONTINUOUS
 62
    7
 10
204.12190617741766
 20
133.32644075960727
 11
204.12190617741766
 21
132.72644867768159
  0
LINE
  8
_1-1_
  6
CONTINUOUS
 62
    7
 10
204.12190617741766
 20
132.72644867768159
 11
199.32192003404774
 21
132.72644867768159
  0
LINE
  8
_1-1_
  6
CONTINUOUS
 62
    7
 10
199.32192003404774
 20
132.72644867768159
 11
204.12190617741766
 21
133.32644075960727
  0
LINE
  8
_1-1_
  6
CONTINUOUS
 62
    7
 10
143.20922439162797
 20
199.29039620064401
 11
143.20922439162797
 21
115.94594594594595
  0
LINE
  8
_1-1_
  6
CONTINUOUS
 62
    7
 10
172.64642251504435
 20
136.32645065720018
 11
172.64642251504435
 21
133.32645313159841
  0
LINE
  8
_1-1_
  6
CONTINUOUS
 62
    7
 10
180.00335280959672
 20
132.72644867768159
 11
180.00335280959672
 21
133.32644075960727
  0
LINE
  8
_1-1_
  6
CONTINUOUS
 62
    7
 10
180.00335280959672
 20
133.32644075960727
 11
175.2034161541913
 21
133.32644075960727
  0
LINE
  8
_1-1_
  6
CONTINUOUS
 62
    7
 10
175.2034161541913
 20
133.32644075960727
 11
175.2034161541913
 21
132.72644867768159
  0
LINE
  8
_1-1_
  6
CONTINUOUS
 62
    7
 10
175.2034161541913
 20
132.72644867768159
 11
180.00335280959672
 21
132.72644867768159
  0
LINE
  8
_1-1_
  6
CONTINUOUS
 62
    7
 10
180.00335280959672
 20
132.72644867768159
 11
175.2034161541913
 21
133.32644075960727
  0
LINE
  8
_1-1_
  6
CONTINUOUS
 62
    3
 10
171.59138859929266
 20
132.47366415487755
 11
171.59138859929266
 21
136.32645065720018
  0
LINE
  8
_1-1_
  6
CONTINUOUS
 62
    3
 10
171.59138859929266
 20
136.32645065720018
 11
167.48260085647172
 21
136.32645065720018
  0
LINE
  8
_1-1_
  6
CONTINUOUS
 62
    3
 10
171.59138859929266
 20
132.47366415487755
 11
147.67650294948268
 21
132.47366415487755
  0
LINE
  8
_1-1_
  6
CONTINUOUS
 62
    7
 10
144.17030540672511
 20
132.3484348606419
 11
147.170315304318
 21
132.3484348606419
  0
LINE
  8
_1-1_
  6
CONTINUOUS
 62
    7
 10
143.20922439162797
 20
115.94594594594595
 11
143.20922439162797
 21
85.12808310019004
  0
LINE
  8
_1-1_
  6
CONTINUOUS
 62
    7
 10
155.20921449403505
 20
117.09926295924832
 11
155.20921449403505
 21
129.09926543364654
  0
LINE
  8
_1-1_
  6
CONTINUOUS
 62
    7
 10
155.20921449403505
 20
129.09926543364654
 11
143.20922439162797
 21
129.09926543364654
  0
LINE
  8
_1-1_
  6
CONTINUOUS
 62
    7
 10
143.20922439162797
 20
129.09926543364654
 11
143.20922439162797
 21
117.09926295924832
  0
LINE
  8
_1-1_
  6
CONTINUOUS
 62
    7
 10
143.20922439162797
 20
117.09926295924832
 11
155.20921449403505
 21
117.09926295924832
  0
LINE
  8
ADD_LINE
  6
DOT
 62
    4
 10
143.20922439162797
 20
214.86486486486487
 11
143.20922439162797
 21
112.59930997281462
  0
LINE
  8
_1-1_
  6
CONTINUOUS
 62
    7
 10
143.20922439162797
 20
199.29039620064401
 11
143.20922439162797
 21
214.86486486486487
  0
LINE
  8
_1-3_
  6
CONTINUOUS
 62
    7
 10
149.54722224055109
 20
200.51151172534841
 11
159.20858434728675
 21
227.0558785103463
  0
LINE
  8
_1-3_
  6
CONTINUOUS
 62
    7
 10
160.44669898780617
 20
133.70864868164062
 11
182.64224903003591
 21
72.726918813344597
  0
LINE
  8
_1-3_
  6
CONTINUOUS
 62
    7
 10
160.44669898780617
 20
133.70864868164062
 11
159.50536367055534
 21
132.41811391469597
  0
LINE
  8
_1-3_
  6
CONTINUOUS
 62
    7
 10
159.20858434728675
 20
227.0558785103463
 11
162.7287869840055
 21
227.0558785103463
  0
LINE
  8
_1-3_
  6
CONTINUOUS
 62
    7
 10
165.75972685942779
 20
203.15468865471919
 11
168.5568361024599
 21
203.15468865471919
  0
LINE
  8
_1-3_
  6
CONTINUOUS
 62
    7
 10
172.61697717615078
 20
189.93169011296453
 11
174.60075172218117
 21
189.93169011296453
  0
LINE
  8
_1-3_
  6
CONTINUOUS
 62
    7
 10
174.22108005832982
 20
179.00342374234586
 11
176.54340176968961
 21
179.00342374234586
  0
LINE
  8
_1-3_
  6
CONTINUOUS
 62
    7
 10
182.64224903003591
 20
72.726918813344597
 11
191.69577521246833
 21
72.726918813344597
  0
LINE
  8
_1-1_
  6
CONTINUOUS
 62
    7
 10
184.18027310758023
 20
136.32645065720018
 11
172.64642251504435
 21
136.32645065720018
  0
LINE
  8
_1-1_
  6
CONTINUOUS
 62
    7
 10
148.33721676388302
 20
117.09926295924832
 11
143.20922439162797
 21
117.09926295924832
  0
LINE
  8
_1-1_
  6
CONTINUOUS
 62
    7
 10
155.20921449403505
 20
129.09926543364654
 11
143.20922439162797
 21
117.09926295924832
  0
LINE
  8
_1-1_
  6
CONTINUOUS
 62
    7
 10
143.20922439162797
 20
129.09926543364654
 11
148.33721676388302
 21
129.09926543364654
  0
LINE
  8
_1-1_
  6
CONTINUOUS
 62
    7
 10
184.18027310758023
 20
136.32645065720018
 11
380.5695487357475
 21
136.32645065720018
  0
LINE
  8
_1-1_
  6
CONTINUOUS
 62
    7
 10
172.64642251504435
 20
133.32645313159841
 11
380.5695487357475
 21
133.32645313159841
  0
LINE
  8
_1-1_
  6
CONTINUOUS
 62
    7
 10
175.2034161541913
 20
132.72644867768159
 11
380.5695487357475
 21
132.72644867768159
  0
LINE
  8
_1-1_
  6
DASHED1
 62
    3
 10
380.5695487357475
 20
131.99859206740922
 11
143.20921201963682
 21
131.99859206740922
  0
LINE
  8
_1-1_
  6
CONTINUOUS
 62
    7
 10
380.5695487357475
 20
131.49927087732263
 11
143.20922439162797
 21
131.49927087732263
  0
LINE
  8
_1-1_
  6
CONTINUOUS
 62
    7
 10
380.5695487357475
 20
129.09926543364654
 11
143.20922439162797
 21
129.09926543364654
  0
LINE
  8
_1-1_
  6
CONTINUOUS
 62
    7
 10
330.13718063766896
 20
129.09925306165542
 11
330.13718063766896
 21
117.09926295924832
  0
LINE
  8
_1-3_
  6
CONTINUOUS
 62
    7
 10
294.6549039273649
 20
174.37440614442568
 11
280.26103251689193
 21
174.37440614442568
  0
LINE
  8
_1-3_
  6
CONTINUOUS
 62
    7
 10
294.88969957506339
 20
180.47896926467484
 11
282.48291840424412
 21
180.47896926467484
  0
LINE
  8
_1-3_
  6
CONTINUOUS
 62
    7
 10
294.6549039273649
 20
186.81832803262247
 11
284.79024526235219
 21
186.81832803262247
  0
LINE
  8
_1-3_
  6
CONTINUOUS
 62
    7
 10
294.18533737595021
 20
192.2185042097762
 11
286.75575874947214
 21
192.2185042097762
  0
LINE
  8
ADD_LINE
  6
DOT
 62
    7
 10
378.7371826171875
 20
117.09926295924832
 11
378.7371826171875
 21
129.09926543364654
  0
LINE
  8
_1-1_
  6
CONTINUOUS
 62
    7
 10
378.7371826171875
 20
117.09926295924832
 11
378.7371826171875
 21
129.09926543364654
  0
LINE
  8
_1-1_
  6
CONTINUOUS
 62
    7
 10
380.5695487357475
 20
117.09926295924832
 11
378.7371826171875
 21
117.09926295924832
  0
LINE
  8
_1-1_
  6
CONTINUOUS
 62
    7
 10
380.5695487357475
 20
118.93162907780828
 11
378.7371826171875
 21
117.09926295924832
  0
LINE
  8
_1-1_
  6
CONTINUOUS
 62
    7
 10
378.7371826171875
 20
129.09926543364654
 11
380.5695487357475
 21
129.09926543364654
  0
LINE
  8
_1-3_
  6
CONTINUOUS
 62
    7
 10
135.91420354069891
 20
132.47366415487755
 11
122.9375932023332
 21
132.47366415487755
  0
LINE
  8
_1-3_
  6
CONTINUOUS
 62
    7
 10
294.71124597497891
 20
168.66038966823268
 11
278.18130080764359
 21
168.66038966823268
  0
LINE
  8
_1-3_
  6
CONTINUOUS
 62
    7
 10
262.09051183752115
 20
124.4512939453125
 11
288.97764463682432
 21
198.32306733002534
  0
LINE
  8
_1-3_
  6
CONTINUOUS
 62
    7
 10
294.18533737595021
 20
198.32306733002534
 11
288.97764463682432
 21
198.32306733002534
  0
LINE
  8
_1-3_
  6
CONTINUOUS
 62
    7
 10
111.22522714975719
 20
132.47366415487755
 11
135.91420354069891
 21
132.47366415487755
  0
LINE
  8
_1-0_
  6
CONTINUOUS
 62
    3
 10
207.55116230732688
 20
146.16986661343961
 11
208.94063588735222
 21
146.16986661343961
  0
LINE
  8
_1-0_
  6
CONTINUOUS
 62
    3
 10
147.94059547218117
 20
145.82708822714318
 11
147.94059547218117
 21
143.02713342615075
  0
LINE
  8
_1-0_
  6
CONTINUOUS
 62
    3
 10
152.5130606986381
 20
145.39577587230787
 11
147.94059547218117
 21
143.02713342615075
  0
LINE
  8
_1-0_
  6
CONTINUOUS
 62
    3
 10
208.94063588735222
 20
146.16986661343961
 11
208.94063588735222
 21
142.98863178974875
  0
LINE
  8
_1-0_
  6
CONTINUOUS
 62
    3
 10
208.94063588735222
 20
146.16986661343961
 11
208.94063588735222
 21
142.98863178974875
  0
LINE
  8
_1-0_
  6
CONTINUOUS
 62
    3
 10
206.61222715635557
 20
149.05205803948482
 11
200.94058474978885
 21
145.82708822714318
  0
LINE
  8
_1-0_
  6
CONTINUOUS
 62
    3
 10
260.55116395692568
 20
146.16985424144849
 11
261.94066228093328
 21
146.16985424144849
  0
LINE
  8
_1-0_
  6
CONTINUOUS
 62
    3
 10
200.94058474978885
 20
145.82708822714318
 11
200.94058474978885
 21
143.02713342615075
  0
LINE
  8
_1-0_
  6
CONTINUOUS
 62
    3
 10
205.51304997624578
 20
145.39576350031672
 11
200.94058474978885
 21
143.02713342615075
  0
LINE
  8
_1-0_
  6
CONTINUOUS
 62
    3
 10
261.94066228093328
 20
146.16985424144849
 11
261.94066228093328
 21
142.98863178974875
  0
LINE
  8
_1-0_
  6
CONTINUOUS
 62
    3
 10
260.5512381888725
 20
146.16986661343961
 11
261.94071176889781
 21
146.16986661343961
  0
LINE
  8
_1-0_
  6
CONTINUOUS
 62
    3
 10
261.94071176889781
 20
146.16986661343961
 11
261.94071176889781
 21
142.98863178974875
  0
LINE
  8
_1-0_
  6
CONTINUOUS
 62
    3
 10
261.94071176889781
 20
146.16986661343961
 11
261.94071176889781
 21
142.98863178974875
  0
LINE
  8
_1-0_
  6
CONTINUOUS
 62
    3
 10
259.6123030379012
 20
149.05204566749367
 11
253.94063588735222
 21
145.82708822714318
  0
LINE
  8
_1-0_
  6
CONTINUOUS
 62
    3
 10
253.94063588735222
 20
145.82708822714318
 11
253.94063588735222
 21
143.02713342615075
  0
LINE
  8
_1-0_
  6
CONTINUOUS
 62
    3
 10
258.51310111380911
 20
145.39577587230787
 11
253.94063588735222
 21
143.02713342615075
  0
LINE
  8
_1-0_
  6
CONTINUOUS
 62
    3
 10
314.94068867451438
 20
146.16986661343961
 11
314.94068867451438
 21
142.98863178974875
  0
LINE
  8
_1-0_
  6
CONTINUOUS
 62
    3
 10
314.94068867451438
 20
146.16986661343961
 11
314.94068867451438
 21
142.98863178974875
  0
LINE
  8
_1-0_
  6
CONTINUOUS
 62
    3
 10
153.61226262273016
 20
149.05204566749367
 11
147.94059547218117
 21
145.82708822714318
  0
LINE
  8
_1-0_
  6
CONTINUOUS
 62
    3
 10
312.61227994351776
 20
149.05204566749367
 11
306.94063753695104
 21
145.82708822714318
  0
LINE
  8
_1-0_
  6
CONTINUOUS
 62
    3
 10
366.55121674408787
 20
146.16986661343961
 11
367.94071506809547
 21
146.16986661343961
  0
LINE
  8
_1-0_
  6
CONTINUOUS
 62
    3
 10
306.94063753695104
 20
145.82708822714318
 11
306.94063753695104
 21
143.02713342615075
  0
LINE
  8
_1-0_
  6
CONTINUOUS
 62
    3
 10
311.51310276340797
 20
145.39577587230787
 11
306.94063753695104
 21
143.02713342615075
  0
LINE
  8
_1-0_
  6
CONTINUOUS
 62
    3
 10
367.94071506809547
 20
146.16986661343961
 11
367.94071506809547
 21
142.98863178974875
  0
LINE
  8
_1-0_
  6
CONTINUOUS
 62
    3
 10
367.94071506809547
 20
146.16986661343961
 11
367.94071506809547
 21
142.98863178974875
  0
LINE
  8
_1-0_
  6
CONTINUOUS
 62
    3
 10
365.61228159311656
 20
149.05204566749367
 11
359.94063918654984
 21
145.82708822714318
  0
LINE
  8
_1-0_
  6
CONTINUOUS
 62
    3
 10
359.94063918654984
 20
145.82708822714318
 11
359.94063918654984
 21
143.02713342615075
  0
LINE
  8
_1-0_
  6
CONTINUOUS
 62
    3
 10
364.51310441300677
 20
145.39577587230787
 11
359.94063918654984
 21
143.02713342615075
  0
LINE
  8
_1-0_
  6
CONTINUOUS
 62
    3
 10
313.55119035050677
 20
146.16986661343961
 11
314.94068867451438
 21
146.16986661343961
  0
LINE
  8
_1-1_
  6
CONTINUOUS
 62
    7
 10
147.170315304318
 20
132.3484348606419
 11
147.170315304318
 21
149.23219423036318
  0
LINE
  8
_1-1_
  6
CONTINUOUS
 62
    7
 10
147.170315304318
 20
149.23219423036318
 11
144.17030540672511
 21
149.23219423036318
  0
LINE
  8
_1-1_
  6
CONTINUOUS
 62
    7
 10
144.17030540672511
 20
149.23219423036318
 11
144.17030540672511
 21
132.3484348606419
  0
LINE
  8
_1-1_
  6
CONTINUOUS
 62
    7
 10
147.170315304318
 20
149.23219423036318
 11
144.17030540672511
 21
132.3484348606419
  0
LINE
  8
_1-1_
  6
CONTINUOUS
 62
    3
 10
147.67650294948268
 20
132.47366415487755
 11
147.67650294948268
 21
149.35742352459883
  0
LINE
  8
_1-0_
  6
CONTINUOUS
 62
    3
 10
170.44811764278927
 20
150.10314529006547
 11
170.44811764278927
 21
144.70314232078761
  0
LINE
  8
_1-2_
  6
CONTINUOUS
 62
    3
 10
149.94809949720229
 20
153.70314726958404
 11
149.94809949720229
 21
150.10314529006547
  0
LINE
  8
_1-1_
  6
CONTINUOUS
 62
    7
 10
162.81341140334672
 20
152.86988129486909
 11
163.35391895191091
 21
155.82078675966005
  0
LINE
  8
_1-1_
  6
CONTINUOUS
 62
    7
 10
163.35391895191091
 20
155.82078675966005
 11
145.64846141918287
 21
159.06385679502745
  0
LINE
  8
_1-1_
  6
CONTINUOUS
 62
    7
 10
145.64846141918287
 20
159.06385679502745
 11
145.10795387061867
 21
156.11295133023648
  0
LINE
  8
_1-1_
  6
CONTINUOUS
 62
    7
 10
145.10795387061867
 20
156.11295133023648
 11
162.81341140334672
 21
152.86988129486909
  0
LINE
  8
_1-1_
  6
CONTINUOUS
 62
    7
 10
163.35391895191091
 20
155.82078675966005
 11
145.10795387061867
 21
156.11295133023648
  0
LINE
  8
_1-1_
  6
CONTINUOUS
 62
    3
 10
164.23777399836359
 20
156.04737977723818
 11
164.34734035182643
 21
152.43160350902662
  0
LINE
  8
_1-1_
  6
CONTINUOUS
 62
    7
 10
150.20922274202914
 20
159.66316841744089
 11
147.80922967034419
 21
159.66316841744089
  0
LINE
  8
_1-1_
  6
CONTINUOUS
 62
    7
 10
147.80922967034419
 20
161.22488485800255
 11
147.80922967034419
 21
169.22488650760135
  0
LINE
  8
_1-1_
  6
CONTINUOUS
 62
    7
 10
147.80922967034419
 20
169.22488650760135
 11
144.2092276908256
 21
169.22488650760135
  0
LINE
  8
_1-1_
  6
CONTINUOUS
 62
    7
 10
144.2092276908256
 20
169.22488650760135
 11
144.2092276908256
 21
161.22488485800255
  0
LINE
  8
_1-1_
  6
CONTINUOUS
 62
    7
 10
144.2092276908256
 20
161.22488485800255
 11
147.80922967034419
 21
161.22488485800255
  0
LINE
  8
_1-1_
  6
CONTINUOUS
 62
    7
 10
144.2092276908256
 20
169.22488650760135
 11
147.80922967034419
 21
161.22488485800255
  0
LINE
  8
_1-1_
  6
CONTINUOUS
 62
    3
 10
164.23777399836359
 20
156.04737977723818
 11
143.92625550966005
 21
159.76779834644216
  0
LINE
  8
_1-1_
  6
CONTINUOUS
 62
    3
 10
143.92625550966005
 20
159.76779834644216
 11
143.92625550966005
 21
184.88897787558068
  0
LINE
  8
_1-1_
  6
CONTINUOUS
 62
    7
 10
147.80922967034419
 20
159.66316841744089
 11
147.80922967034419
 21
214.86486486486487
  0
LINE
  8
_1-1_
  6
CONTINUOUS
 62
    7
 10
150.20922274202914
 20
159.66316841744089
 11
150.20922274202914
 21
214.86486486486487
  0
LINE
  8
_1-3_
  6
CONTINUOUS
 62
    7
 10
153.56500161660685
 20
156.53367326066302
 11
165.75972685942779
 21
203.15468865471919
  0
LINE
  8
_1-3_
  6
CONTINUOUS
 62
    7
 10
164.31952811576227
 20
154.01834848764781
 11
172.61697717615078
 21
189.93169011296453
  0
LINE
  8
_1-3_
  6
CONTINUOUS
 62
    7
 10
167.89424174540753
 20
148.50434999208193
 11
174.22108005832982
 21
179.00342374234586
  0
LINE
  8
_1-2_
  6
CONTINUOUS
 62
    3
 10
164.34734035182643
 20
152.43160350902662
 11
163.93324980864654
 21
153.08008142419763
  0
LINE
  8
_1-1_
  6
CONTINUOUS
 62
    3
 10
147.67650294948268
 20
149.35742352459883
 11
147.67650294948268
 21
154.21632508973818
  0
LINE
  8
_1-1_
  6
CONTINUOUS
 62
    3
 10
147.67650294948268
 20
154.21632508973818
 11
149.54462412241344
 21
151.09791523701438
  0
LINE
  8
_1-2_
  6
CONTINUOUS
 62
    7
 10
98.635946737753386
 20
189.68707110430745
 11
98.635946737753386
 21
159.76779834644216
  0
LINE
  8
_1-2_
  6
CONTINUOUS
 62
    7
 10
135.91420354069891
 20
159.76779834644216
 11
98.635946737753386
 21
159.76779834644216
  0
LINE
  8
_1-2_
  6
CONTINUOUS
 62
    7
 10
135.91420354069891
 20
189.68707110430745
 11
98.635946737753386
 21
189.68707110430745
  0
LINE
  8
_1-3_
  6
CONTINUOUS
 62
    7
 10
98.635946737753386
 20
189.68707110430745
 11
135.91420354069891
 21
189.68707110430745
  0
LINE
  8
_1-3_
  6
CONTINUOUS
 62
    7
 10
98.635946737753386
 20
199.68706698031039
 11
135.91420354069891
 21
199.68706698031039
  0
LINE
  8
_1-3_
  6
CONTINUOUS
 62
    7
 10
98.635946737753386
 20
189.68707110430745
 11
98.635946737753386
 21
199.68706698031039
  0
LINE
  8
_1-3_
  6
CONTINUOUS
 62
    7
 10
111.22522714975719
 20
199.68706698031039
 11
135.91420354069891
 21
199.68706698031039
  0
LINE
  8
_1-3_
  6
CONTINUOUS
 62
    7
 10
111.22522714975719
 20
199.68706698031039
 11
111.22522714975719
 21
132.47366415487755
  0
LINE
  8
_1-2_
  6
CONTINUOUS
 62
    3
 10
143.92625550966005
 20
184.88897787558068
 11
143.92625550966005
 21
189.68707110430745
  0
LINE
  8
_1-1_
  6
DASHED1
 62
    3
 10
143.67376791464318
 20
131.99859206740922
 11
143.67376791464318
 21
199.68706698031039
  0
ARC
  8
_1-0_
  6
CONTINUOUS
 62
    3
 10
155.45212616791596
 20
146.60362862251901
 40
3.0627306731971538
 50
42.6905517578125
 51
126.92074584960937
  0
ARC
  8
_1-0_
  6
CONTINUOUS
 62
    3
 10
206.51129645270271
 20
146.14047076251057
 40
1.0402513194728542
 50
309.08184814453125
 51
1.6144714355468908
  0
ARC
  8
_1-0_
  6
CONTINUOUS
 62
    3
 10
185.07334528742612
 20
185.99196562895904
 40
46.274049088761615
 50
233.73811340332031
 51
298.51937866210937
  0
ARC
  8
_1-0_
  6
CONTINUOUS
 62
    3
 10
155.2654080777555
 20
141.67720072978253
 40
4.6263270764737516
 50
47.123046875000007
 51
126.50717163085939
  0
ARC
  8
_1-0_
  6
CONTINUOUS
 62
    3
 10
185.38024489944047
 20
185.43134122281461
 40
48.543530025997683
 50
236.25315856933597
 51
299.03501892089844
  0
ARC
  8
_1-0_
  6
CONTINUOUS
 62
    3
 10
208.45211544552367
 20
146.60362862251901
 40
3.0627306731971538
 50
42.6905517578125
 51
126.92074584960937
  0
ARC
  8
_1-0_
  6
CONTINUOUS
 62
    3
 10
259.51129810230151
 20
146.14045839051943
 40
1.0402513194728542
 50
309.08184814453125
 51
1.6144714355468908
  0
ARC
  8
_1-0_
  6
CONTINUOUS
 62
    3
 10
238.07330982105154
 20
185.99196562895904
 40
46.274049088761615
 50
233.73811340332031
 51
298.51937866210937
  0
ARC
  8
_1-0_
  6
CONTINUOUS
 62
    3
 10
208.26539735536318
 20
141.67718835779138
 40
4.6263270764737516
 50
47.123046875000007
 51
126.50717163085939
  0
ARC
  8
_1-0_
  6
CONTINUOUS
 62
    3
 10
238.38023417704815
 20
185.43134122281461
 40
48.543530025997683
 50
236.25315856933597
 51
299.03501892089844
  0
ARC
  8
_1-0_
  6
CONTINUOUS
 62
    3
 10
259.51134759026604
 20
146.14047076251057
 40
1.0402513194728542
 50
309.08184814453125
 51
1.6144714355468908
  0
ARC
  8
_1-0_
  6
CONTINUOUS
 62
    3
 10
261.45216658308703
 20
146.60362862251901
 40
3.0627306731971538
 50
42.6905517578125
 51
126.92074584960937
  0
ARC
  8
_1-0_
  6
CONTINUOUS
 62
    3
 10
291.07338570259714
 20
185.99196562895904
 40
46.274049088761615
 50
233.73811340332031
 51
298.51937866210937
  0
ARC
  8
_1-0_
  6
CONTINUOUS
 62
    3
 10
261.26544849292651
 20
141.67720072978253
 40
4.6263270764737516
 50
47.123046875000007
 51
126.50717163085939
  0
ARC
  8
_1-0_
  6
CONTINUOUS
 62
    3
 10
291.38028531461151
 20
185.43134122281461
 40
48.543530025997683
 50
236.25315856933597
 51
299.03501892089844
  0
ARC
  8
_1-0_
  6
CONTINUOUS
 62
    3
 10
314.45216823268584
 20
146.60362862251901
 40
3.0627306731971538
 50
42.6905517578125
 51
126.92074584960937
  0
ARC
  8
_1-0_
  6
CONTINUOUS
 62
    3
 10
365.5113508894637
 20
146.14047076251057
 40
1.0402513194728542
 50
309.08184814453125
 51
1.6144714355468908
  0
ARC
  8
_1-0_
  6
CONTINUOUS
 62
    3
 10
344.0733626082137
 20
185.99196562895904
 40
46.274049088761615
 50
233.73811340332031
 51
298.51937866210937
  0
ARC
  8
_1-0_
  6
CONTINUOUS
 62
    3
 10
314.26545014252537
 20
141.67720072978253
 40
4.6263270764737516
 50
47.123046875000007
 51
126.50717163085939
  0
ARC
  8
_1-0_
  6
CONTINUOUS
 62
    3
 10
344.38028696421031
 20
185.43134122281461
 40
48.543530025997683
 50
236.25315856933597
 51
299.03501892089844
  0
ARC
  8
_1-0_
  6
CONTINUOUS
 62
    3
 10
367.45216988228464
 20
146.60362862251901
 40
3.0627306731971538
 50
42.6905517578125
 51
126.92074584960937
  0
ARC
  8
_1-0_
  6
CONTINUOUS
 62
    3
 10
367.26545179212417
 20
141.67720072978253
 40
4.6263270764737516
 50
47.123046875000007
 51
126.50717163085939
  0
ARC
  8
_1-0_
  6
CONTINUOUS
 62
    3
 10
312.5113244958826
 20
146.14047076251057
 40
1.0402513194728542
 50
309.08184814453125
 51
1.6144714355468908
  0
ARC
  8
_1-0_
  6
CONTINUOUS
 62
    3
 10
397.38028861380917
 20
185.43134122281461
 40
48.543530025997683
 50
236.25315856933597
 51
240.35987854003909
  0
ARC
  8
_1-0_
  6
CONTINUOUS
 62
    3
 10
397.0733642578125
 20
185.99196562895904
 40
46.274049088761615
 50
233.73811340332031
 51
239.19131469726562
  0
ARC
  8
_1-0_
  6
CONTINUOUS
 62
    3
 10
149.94809949720229
 20
108.49112845755913
 40
41.612016832506335
 50
60.485351562499993
 51
90
  0
ARC
  8
_1-0_
  6
CONTINUOUS
 62
    3
 10
149.94809949720229
 20
93.53512325802366
 40
60.168024011560391
 50
70.079711914062528
 51
90.000000000000028
  0
TEXT
  8
_0-0_
 62
    7
 10
141.89189395389042
 20
14.594594594594582
 40
2.5
 41
1
 50
0
  1
縮尺
  0
TEXT
  8
_0-0_
 62
    7
 10
377.10214563318203
 20
22.865493362014362
 40
2.5
 41
1
 50
0
  1
ＮＯ
  0
TEXT
  8
_0-0_
 62
    7
 10
14.594594336844779
 20
24.324324324324323
 40
2.5
 41
1
 50
0
  1
和形
  0
TEXT
  8
_0-0_
 62
    7
 10
25.556194717819636
 20
20.211577544341225
 40
2.5
 41
1
 50
0
  1
木造
  0
TEXT
  8
_0-0_
 62
    7
 10
383.23801896378802
 20
18.523427086907475
 40
3
 41
1
 50
0
  1
Ｊ
  0
TEXT
  8
_1-0_
 62
    7
 10
169.90681828679266
 20
13.3181144095756
 40
2.5
 41
1
 50
0
  1
1/5
  0
TEXT
  8
_1-3_
 62
    7
 10
39.721904445338907
 20
15.395235628695104
 40
2.5
 41
1
 50
0
  1
壁際　　4
  0
TEXT
  8
_1-3_
 62
    7
 10
296.02295746674406
 20
197.21641746727198
 40
2.5
 41
1
 50
0
  1
桟瓦
  0
TEXT
  8
_1-3_
 62
    7
 10
296.02295746674406
 20
191.21642241606841
 40
2.5
 41
1
 50
0
  1
瓦桟
  0
TEXT
  8
_1-3_
 62
    7
 10
296.02295746674406
 20
185.21642736486487
 40
2.5
 41
1
 50
0
  1
流桟
  0
TEXT
  8
_1-3_
 62
    7
 10
296.02296571473823
 20
173.21643726245779
 40
2.5
 41
1
 50
0
  1
野地板　ｔ＝12
  0
TEXT
  8
_1-3_
 62
    7
 10
167.50734690073375
 20
226.320140941723
 40
2.5
 41
1
 50
0
  1
外壁
  0
TEXT
  8
_1-3_
 62
    7
 10
179.36663859599346
 20
201.92221564215583
 40
2.5
 41
1
 50
0
  1
雨押え板
  0
TEXT
  8
_1-3_
 62
    7
 10
169.39352911871833
 20
201.64808943464951
 40
2.5
 41
1
 50
0
  1
15ｘ90
  0
TEXT
  8
_1-3_
 62
    7
 10
176.12785339355469
 20
189.01361413904141
 40
2.5
 41
1
 50
0
  1
水切り鉄板
  0
TEXT
  8
_1-3_
 62
    7
 10
180.52208565376901
 20
178.51377744932432
 40
2.5
 41
1
 50
0
  1
割のし
  0
TEXT
  8
_1-3_
 62
    7
 10
192.61641425055427
 20
72.245122548696159
 40
2.5
 41
1
 50
0
  1
捨谷
  0
TEXT
  8
_1-3_
 62
    7
 10
295.81791233372041
 20
179.4106725744299
 40
2.5
 41
1
 50
0
  1
下葺き材　ゴムアス系ルーフィング
  0
TEXT
  8
_1-3_
 62
    7
 10
296.02294921875
 20
167.71182910816091
 40
2.5
 41
1
 50
0
  1
垂木　60ｘ60
  0
TEXT
  8
_1-3_
 62
    7
 10
395.52540959538646
 20
14.912342896332603
 40
2.5
 41
1
 50
0
  1
10
  0
TEXT
  8
_1-3_
 62
    7
 10
304.98727746911953
 20
191.26761771537164
 40
2.5
 41
1
 50
0
  1
15×30　（樹脂桟木）
  0
TEXT
  8
_1-3_
 62
    7
 10
304.98853528821792
 20
188.44003625818203
 40
2.5
 41
1
 50
0
  1
※　地域により瓦桟木の大きさは、異なります
  0
TEXT
  8
_1-2_
 62
    7
 10
98.135945088154571
 20
172.85244091137037
 40
2.5
 41
1
 50
90
  1
150
  0
TEXT
  8
_1-3_
 62
    7
 10
98.135945088154571
 20
193.43706904230891
 40
2.5
 41
1
 50
90
  1
50
  0
TEXT
  8
_1-3_
 62
    7
 10
32.70152561084646
 20
197.25394171637458
 40
3
 41
1
 50
0
  1
下葺き材立上げ長さは、300ｍｍ以上かつ
  0
TEXT
  8
_1-3_
 62
    7
 10
33.088147137616147
 20
191.6068577122044
 40
3
 41
1
 50
0
  1
雨押え板上端より50mm以上とする
  0
TEXT
  8
_1-3_
 62
    7
 10
111.05415962837839
 20
148.29028773952177
 40
2.5
 41
1
 50
90
  1
300 以上
  0
POINT
  8
_1-3_
 62
    7
 10
111.22522714975719
 20
132.47366415487755
  0
POINT
  8
_1-2_
 62
    7
 10
98.635946737753386
 20
189.68707110430745
  0
POINT
  8
_1-2_
 62
    7
 10
98.635946737753386
 20
159.76779834644216
  0
POINT
  8
_1-3_
 62
    7
 10
98.635946737753386
 20
189.68707110430745
  0
POINT
  8
_1-3_
 62
    7
 10
98.635946737753386
 20
199.68706698031039
  0
POINT
  8
_1-3_
 62
    7
 10
111.22522714975719
 20
199.68706698031039
  0
ENDSEC
  0
EOF
