0
SECTION
2
HEADER
  9
$EXTMIN
10
0
20
0
30
0
  9
$EXTMAX
10
1583.993
20
1324.122
30
0
  9
$LTSCALE
40
5.000
  9
$DIMSCALE
40
5.000
  9
$PDMODE
70
0
  9
$PDSIZE
40
40
0
ENDSEC
0
SECTION
2
TABLES
0
TABLE
2
LTYPE
70
9
0
LTYPE
5
1f4
2
CONTINUOUS
70
0
3
実線
72
65
73
0
40
0.0
0
LTYPE
5
1f5
2
DOT
70
0
3
--  --  --  --  --  --  --  --     
72
65
73
2
40
5.000
49
1.000
49
-4.000
0
LTYPE
5
1f6
2
DASHED
70
0
3
----    ----    ----    ----    
72
65
73
2
40
5.000
49
2.000
49
-3.000
0
LTYPE
5
1f7
2
DASHED2
70
0
3
------  ------  ------  ------ 
72
65
73
2
40
10.000
49
4.000
49
-6.000
0
LTYPE
5
1f8
2
CENTER
70
0
3
----- - ----- - ----- - ----- - 
72
65
73
4
40
9.000
49
6.000
49
-1.000
49
1.000
49
-1.000
0
LTYPE
5
1f9
2
CENTER2
70
0
3
----------  --  ----------  -- 
72
65
73
4
40
18.000
49
12.000
49
-2.000
49
2.000
49
-2.000
0
LTYPE
5
1fa
2
PHANTOM
70
0
3
--- - - --- - - --- - - --- - -
72
65
73
6
40
10.000
49
5.000
49
-1.000
49
1.000
49
-1.000
49
1.000
49
-1.000
0
LTYPE
5
1fb
2
PHANTOM2
70
0
3
--------  -  -  --------  -  -
72
65
73
6
40
16.000
49
6.000
49
-2.000
49
2.000
49
-2.000
49
2.000
49
-2.000
0
LTYPE
5
1fc
2
HIDDEN
70
0
3
-   -   -   -   -   -   -   -   
72
65
73
2
40
2.500
49
0.500
49
-2.000
0
ENDTAB
0
TABLE
2
STYLE
70
1
0
STYLE
5
1fd
100
AcDbSymbolTableRecord
100
AcDbTextStyleTableRecord
2
STANDARD
70
0
40
0.0
41
1.0
50
0.0
71
0
42
0.0
3
txt.shx
4
extfont.shx
0
STYLE
5
1fe
100
AcDbSymbolTableRecord
100
AcDbTextStyleTableRecord
2
TATEGAKI
70
4
40
0.0
41
1.0
50
0.0
71
0
42
0.0
3
txt.shx
4
extfont.shx
0
STYLE
5
1ff
100
AcDbSymbolTableRecord
100
AcDbTextStyleTableRecord
2
MT
70
0
40
0.0
41
1.0
50
0.0
71
0
42
0.0
3
MS Mincho
4

0
STYLE
5
200
100
AcDbSymbolTableRecord
100
AcDbTextStyleTableRecord
2
TMT
70
4
40
0.0
41
1.0
50
0.0
71
0
42
0.0
3
@MS Mincho
4

0
ENDTAB
0
TABLE
2
LAYER
5
3da3
100
AcDbSymbolTable
70
10
0
LAYER
5
3da4
100
AcDbSymbolTableRecord
100
AcDbLayerTableRecord
2
0
70
64
62
  7
  6
CONTINUOUS
0
LAYER
5
3da5
100
AcDbSymbolTableRecord
100
AcDbLayerTableRecord
2
0-0
70
64
62
  7
  6
CONTINUOUS
0
LAYER
5
3da6
100
AcDbSymbolTableRecord
100
AcDbLayerTableRecord
2
0-1
70
64
62
  7
  6
CONTINUOUS
0
LAYER
5
3da7
100
AcDbSymbolTableRecord
100
AcDbLayerTableRecord
2
0-2
70
64
62
  7
  6
CONTINUOUS
0
LAYER
5
3da8
100
AcDbSymbolTableRecord
100
AcDbLayerTableRecord
2
ADD_LINE
70
64
62
  -7
  6
CONTINUOUS
0
ENDTAB
0
ENDSEC
0
SECTION
2
ENTITIES
0
LINE
5
3da9
8
0-0
6
CONTINUOUS
62
  7
10
1482.973
20
943.446
30
0.0
11
1457.973
21
946.074
31
0.0
0
LINE
5
3daa
8
0-0
6
CONTINUOUS
62
  7
10
1482.973
20
1148.446
30
0.0
11
1457.973
21
1145.818
31
0.0
0
LINE
5
3dab
8
0-0
6
CONTINUOUS
62
  7
10
1477.973
20
951.010
30
0.0
11
1482.973
21
946.463
31
0.0
0
LINE
5
3dac
8
0-0
6
CONTINUOUS
62
  7
10
1482.973
20
1148.446
30
0.0
11
1457.973
21
1145.818
31
0.0
0
LINE
5
3dad
8
0-0
6
CONTINUOUS
62
  7
10
1477.973
20
1140.882
30
0.0
11
1482.973
21
1145.430
31
0.0
0
LINE
5
3dae
8
0-0
6
CONTINUOUS
62
  7
10
1482.973
20
1148.446
30
0.0
11
1482.973
21
1145.430
31
0.0
0
LINE
5
3daf
8
0-0
6
CONTINUOUS
62
  7
10
1482.973
20
946.463
30
0.0
11
1482.973
21
943.446
31
0.0
0
LINE
5
3db0
8
0-0
6
CONTINUOUS
62
  7
10
1457.973
20
1145.818
30
0.0
11
1385.609
21
1068.106
31
0.0
0
LINE
5
3db1
8
0-0
6
CONTINUOUS
62
  7
10
1381.735
20
1063.946
30
0.0
11
1381.515
21
1063.593
31
0.0
0
LINE
5
3db2
8
0-0
6
CONTINUOUS
62
  7
10
1381.515
20
1063.593
30
0.0
11
1381.308
21
1063.254
31
0.0
0
LINE
5
3db3
8
0-0
6
CONTINUOUS
62
  7
10
1381.308
20
1063.254
30
0.0
11
1381.110
21
1062.924
31
0.0
0
LINE
5
3db4
8
0-0
6
CONTINUOUS
62
  7
10
1381.110
20
1062.924
30
0.0
11
1380.920
21
1062.595
31
0.0
0
LINE
5
3db5
8
0-0
6
CONTINUOUS
62
  7
10
1380.920
20
1062.595
30
0.0
11
1380.736
21
1062.266
31
0.0
0
LINE
5
3db6
8
0-0
6
CONTINUOUS
62
  7
10
1380.736
20
1062.266
30
0.0
11
1380.559
21
1061.933
31
0.0
0
LINE
5
3db7
8
0-0
6
CONTINUOUS
62
  7
10
1380.559
20
1061.933
30
0.0
11
1380.387
21
1061.595
31
0.0
0
LINE
5
3db8
8
0-0
6
CONTINUOUS
62
  7
10
1380.387
20
1061.595
30
0.0
11
1380.220
21
1061.251
31
0.0
0
LINE
5
3db9
8
0-0
6
CONTINUOUS
62
  7
10
1380.220
20
1061.251
30
0.0
11
1380.058
21
1060.901
31
0.0
0
LINE
5
3dba
8
0-0
6
CONTINUOUS
62
  7
10
1380.058
20
1060.901
30
0.0
11
1379.902
21
1060.543
31
0.0
0
LINE
5
3dbb
8
0-0
6
CONTINUOUS
62
  7
10
1379.902
20
1060.543
30
0.0
11
1379.749
21
1060.179
31
0.0
0
LINE
5
3dbc
8
0-0
6
CONTINUOUS
62
  7
10
1379.749
20
1060.179
30
0.0
11
1379.602
21
1059.808
31
0.0
0
LINE
5
3dbd
8
0-0
6
CONTINUOUS
62
  7
10
1379.602
20
1059.808
30
0.0
11
1379.459
21
1059.431
31
0.0
0
LINE
5
3dbe
8
0-0
6
CONTINUOUS
62
  7
10
1379.459
20
1059.431
30
0.0
11
1379.322
21
1059.048
31
0.0
0
LINE
5
3dbf
8
0-0
6
CONTINUOUS
62
  7
10
1379.322
20
1059.048
30
0.0
11
1379.189
21
1058.659
31
0.0
0
LINE
5
3dc0
8
0-0
6
CONTINUOUS
62
  7
10
1379.189
20
1058.659
30
0.0
11
1379.061
21
1058.264
31
0.0
0
LINE
5
3dc1
8
0-0
6
CONTINUOUS
62
  7
10
1379.061
20
1058.264
30
0.0
11
1378.939
21
1057.865
31
0.0
0
LINE
5
3dc2
8
0-0
6
CONTINUOUS
62
  7
10
1378.939
20
1057.865
30
0.0
11
1378.821
21
1057.463
31
0.0
0
LINE
5
3dc3
8
0-0
6
CONTINUOUS
62
  7
10
1378.821
20
1057.463
30
0.0
11
1378.708
21
1057.056
31
0.0
0
LINE
5
3dc4
8
0-0
6
CONTINUOUS
62
  7
10
1378.708
20
1057.056
30
0.0
11
1378.600
21
1056.647
31
0.0
0
LINE
5
3dc5
8
0-0
6
CONTINUOUS
62
  7
10
1378.600
20
1056.647
30
0.0
11
1378.496
21
1056.237
31
0.0
0
LINE
5
3dc6
8
0-0
6
CONTINUOUS
62
  7
10
1378.496
20
1056.237
30
0.0
11
1378.398
21
1055.825
31
0.0
0
LINE
5
3dc7
8
0-0
6
CONTINUOUS
62
  7
10
1378.398
20
1055.825
30
0.0
11
1378.304
21
1055.414
31
0.0
0
LINE
5
3dc8
8
0-0
6
CONTINUOUS
62
  7
10
1378.304
20
1055.414
30
0.0
11
1378.215
21
1055.005
31
0.0
0
LINE
5
3dc9
8
0-0
6
CONTINUOUS
62
  7
10
1378.215
20
1055.005
30
0.0
11
1378.131
21
1054.599
31
0.0
0
LINE
5
3dca
8
0-0
6
CONTINUOUS
62
  7
10
1378.131
20
1054.599
30
0.0
11
1378.051
21
1054.195
31
0.0
0
LINE
5
3dcb
8
0-0
6
CONTINUOUS
62
  7
10
1378.051
20
1054.195
30
0.0
11
1377.975
21
1053.797
31
0.0
0
LINE
5
3dcc
8
0-0
6
CONTINUOUS
62
  7
10
1377.975
20
1053.797
30
0.0
11
1377.903
21
1053.406
31
0.0
0
LINE
5
3dcd
8
0-0
6
CONTINUOUS
62
  7
10
1377.903
20
1053.406
30
0.0
11
1377.836
21
1053.022
31
0.0
0
LINE
5
3dce
8
0-0
6
CONTINUOUS
62
  7
10
1377.836
20
1053.022
30
0.0
11
1377.773
21
1052.646
31
0.0
0
LINE
5
3dcf
8
0-0
6
CONTINUOUS
62
  7
10
1377.773
20
1052.646
30
0.0
11
1377.714
21
1052.280
31
0.0
0
LINE
5
3dd0
8
0-0
6
CONTINUOUS
62
  7
10
1377.714
20
1052.280
30
0.0
11
1377.658
21
1051.924
31
0.0
0
LINE
5
3dd1
8
0-0
6
CONTINUOUS
62
  7
10
1377.658
20
1051.924
30
0.0
11
1377.607
21
1051.579
31
0.0
0
LINE
5
3dd2
8
0-0
6
CONTINUOUS
62
  7
10
1377.607
20
1051.579
30
0.0
11
1377.558
21
1051.246
31
0.0
0
LINE
5
3dd3
8
0-0
6
CONTINUOUS
62
  7
10
1377.558
20
1051.246
30
0.0
11
1377.513
21
1050.924
31
0.0
0
LINE
5
3dd4
8
0-0
6
CONTINUOUS
62
  7
10
1377.513
20
1050.924
30
0.0
11
1377.471
21
1050.615
31
0.0
0
LINE
5
3dd5
8
0-0
6
CONTINUOUS
62
  7
10
1377.471
20
1050.615
30
0.0
11
1377.433
21
1050.317
31
0.0
0
LINE
5
3dd6
8
0-0
6
CONTINUOUS
62
  7
10
1377.433
20
1050.317
30
0.0
11
1377.397
21
1050.031
31
0.0
0
LINE
5
3dd7
8
0-0
6
CONTINUOUS
62
  7
10
1377.397
20
1050.031
30
0.0
11
1377.364
21
1049.755
31
0.0
0
LINE
5
3dd8
8
0-0
6
CONTINUOUS
62
  7
10
1377.364
20
1049.755
30
0.0
11
1377.333
21
1049.488
31
0.0
0
LINE
5
3dd9
8
0-0
6
CONTINUOUS
62
  7
10
1377.333
20
1049.488
30
0.0
11
1377.305
21
1049.230
31
0.0
0
LINE
5
3dda
8
0-0
6
CONTINUOUS
62
  7
10
1377.305
20
1049.230
30
0.0
11
1377.278
21
1048.980
31
0.0
0
LINE
5
3ddb
8
0-0
6
CONTINUOUS
62
  7
10
1377.278
20
1048.980
30
0.0
11
1377.252
21
1048.735
31
0.0
0
LINE
5
3ddc
8
0-0
6
CONTINUOUS
62
  7
10
1377.252
20
1048.735
30
0.0
11
1377.229
21
1048.494
31
0.0
0
LINE
5
3ddd
8
0-0
6
CONTINUOUS
62
  7
10
1377.229
20
1048.494
30
0.0
11
1377.206
21
1048.255
31
0.0
0
LINE
5
3dde
8
0-0
6
CONTINUOUS
62
  7
10
1377.206
20
1048.255
30
0.0
11
1377.183
21
1048.016
31
0.0
0
LINE
5
3ddf
8
0-0
6
CONTINUOUS
62
  7
10
1377.183
20
1048.016
30
0.0
11
1377.162
21
1047.775
31
0.0
0
LINE
5
3de0
8
0-0
6
CONTINUOUS
62
  7
10
1377.162
20
1047.775
30
0.0
11
1377.139
21
1047.531
31
0.0
0
LINE
5
3de1
8
0-0
6
CONTINUOUS
62
  7
10
1377.139
20
1047.531
30
0.0
11
1377.116
21
1047.282
31
0.0
0
LINE
5
3de2
8
0-0
6
CONTINUOUS
62
  7
10
1377.116
20
1047.282
30
0.0
11
1377.092
21
1047.028
31
0.0
0
LINE
5
3de3
8
0-0
6
CONTINUOUS
62
  7
10
1377.092
20
1047.028
30
0.0
11
1377.066
21
1046.766
31
0.0
0
LINE
5
3de4
8
0-0
6
CONTINUOUS
62
  7
10
1377.066
20
1046.766
30
0.0
11
1377.038
21
1046.498
31
0.0
0
LINE
5
3de5
8
0-0
6
CONTINUOUS
62
  7
10
1377.038
20
1046.498
30
0.0
11
1377.007
21
1046.224
31
0.0
0
LINE
5
3de6
8
0-0
6
CONTINUOUS
62
  7
10
1377.007
20
1046.224
30
0.0
11
1376.973
21
1045.946
31
0.0
0
LINE
5
3de7
8
0-0
6
CONTINUOUS
62
  7
10
1381.735
20
1027.946
30
0.0
11
1381.515
21
1028.300
31
0.0
0
LINE
5
3de8
8
0-0
6
CONTINUOUS
62
  7
10
1381.515
20
1028.300
30
0.0
11
1381.308
21
1028.638
31
0.0
0
LINE
5
3de9
8
0-0
6
CONTINUOUS
62
  7
10
1381.308
20
1028.638
30
0.0
11
1381.110
21
1028.969
31
0.0
0
LINE
5
3dea
8
0-0
6
CONTINUOUS
62
  7
10
1381.110
20
1028.969
30
0.0
11
1380.920
21
1029.297
31
0.0
0
LINE
5
3deb
8
0-0
6
CONTINUOUS
62
  7
10
1380.920
20
1029.297
30
0.0
11
1380.736
21
1029.626
31
0.0
0
LINE
5
3dec
8
0-0
6
CONTINUOUS
62
  7
10
1380.736
20
1029.626
30
0.0
11
1380.559
21
1029.959
31
0.0
0
LINE
5
3ded
8
0-0
6
CONTINUOUS
62
  7
10
1380.559
20
1029.959
30
0.0
11
1380.387
21
1030.297
31
0.0
0
LINE
5
3dee
8
0-0
6
CONTINUOUS
62
  7
10
1380.387
20
1030.297
30
0.0
11
1380.220
21
1030.641
31
0.0
0
LINE
5
3def
8
0-0
6
CONTINUOUS
62
  7
10
1380.220
20
1030.641
30
0.0
11
1380.058
21
1030.991
31
0.0
0
LINE
5
3df0
8
0-0
6
CONTINUOUS
62
  7
10
1380.058
20
1030.991
30
0.0
11
1379.902
21
1031.349
31
0.0
0
LINE
5
3df1
8
0-0
6
CONTINUOUS
62
  7
10
1379.902
20
1031.349
30
0.0
11
1379.749
21
1031.713
31
0.0
0
LINE
5
3df2
8
0-0
6
CONTINUOUS
62
  7
10
1379.749
20
1031.713
30
0.0
11
1379.602
21
1032.084
31
0.0
0
LINE
5
3df3
8
0-0
6
CONTINUOUS
62
  7
10
1379.602
20
1032.084
30
0.0
11
1379.459
21
1032.461
31
0.0
0
LINE
5
3df4
8
0-0
6
CONTINUOUS
62
  7
10
1379.459
20
1032.461
30
0.0
11
1379.322
21
1032.845
31
0.0
0
LINE
5
3df5
8
0-0
6
CONTINUOUS
62
  7
10
1379.322
20
1032.845
30
0.0
11
1379.189
21
1033.234
31
0.0
0
LINE
5
3df6
8
0-0
6
CONTINUOUS
62
  7
10
1379.189
20
1033.234
30
0.0
11
1379.061
21
1033.628
31
0.0
0
LINE
5
3df7
8
0-0
6
CONTINUOUS
62
  7
10
1379.061
20
1033.628
30
0.0
11
1378.939
21
1034.027
31
0.0
0
LINE
5
3df8
8
0-0
6
CONTINUOUS
62
  7
10
1378.939
20
1034.027
30
0.0
11
1378.821
21
1034.430
31
0.0
0
LINE
5
3df9
8
0-0
6
CONTINUOUS
62
  7
10
1378.821
20
1034.430
30
0.0
11
1378.708
21
1034.836
31
0.0
0
LINE
5
3dfa
8
0-0
6
CONTINUOUS
62
  7
10
1378.708
20
1034.836
30
0.0
11
1378.600
21
1035.245
31
0.0
0
LINE
5
3dfb
8
0-0
6
CONTINUOUS
62
  7
10
1378.600
20
1035.245
30
0.0
11
1378.496
21
1035.656
31
0.0
0
LINE
5
3dfc
8
0-0
6
CONTINUOUS
62
  7
10
1378.496
20
1035.656
30
0.0
11
1378.398
21
1036.067
31
0.0
0
LINE
5
3dfd
8
0-0
6
CONTINUOUS
62
  7
10
1378.398
20
1036.067
30
0.0
11
1378.304
21
1036.478
31
0.0
0
LINE
5
3dfe
8
0-0
6
CONTINUOUS
62
  7
10
1378.304
20
1036.478
30
0.0
11
1378.215
21
1036.887
31
0.0
0
LINE
5
3dff
8
0-0
6
CONTINUOUS
62
  7
10
1378.215
20
1036.887
30
0.0
11
1378.131
21
1037.294
31
0.0
0
LINE
5
3e00
8
0-0
6
CONTINUOUS
62
  7
10
1378.131
20
1037.294
30
0.0
11
1378.051
21
1037.697
31
0.0
0
LINE
5
3e01
8
0-0
6
CONTINUOUS
62
  7
10
1378.051
20
1037.697
30
0.0
11
1377.975
21
1038.095
31
0.0
0
LINE
5
3e02
8
0-0
6
CONTINUOUS
62
  7
10
1377.975
20
1038.095
30
0.0
11
1377.903
21
1038.486
31
0.0
0
LINE
5
3e03
8
0-0
6
CONTINUOUS
62
  7
10
1377.903
20
1038.486
30
0.0
11
1377.836
21
1038.870
31
0.0
0
LINE
5
3e04
8
0-0
6
CONTINUOUS
62
  7
10
1377.836
20
1038.870
30
0.0
11
1377.773
21
1039.246
31
0.0
0
LINE
5
3e05
8
0-0
6
CONTINUOUS
62
  7
10
1377.773
20
1039.246
30
0.0
11
1377.714
21
1039.613
31
0.0
0
LINE
5
3e06
8
0-0
6
CONTINUOUS
62
  7
10
1377.714
20
1039.613
30
0.0
11
1377.658
21
1039.968
31
0.0
0
LINE
5
3e07
8
0-0
6
CONTINUOUS
62
  7
10
1377.658
20
1039.968
30
0.0
11
1377.607
21
1040.313
31
0.0
0
LINE
5
3e08
8
0-0
6
CONTINUOUS
62
  7
10
1377.607
20
1040.313
30
0.0
11
1377.558
21
1040.646
31
0.0
0
LINE
5
3e09
8
0-0
6
CONTINUOUS
62
  7
10
1377.558
20
1040.646
30
0.0
11
1377.513
21
1040.968
31
0.0
0
LINE
5
3e0a
8
0-0
6
CONTINUOUS
62
  7
10
1377.513
20
1040.968
30
0.0
11
1377.471
21
1041.277
31
0.0
0
LINE
5
3e0b
8
0-0
6
CONTINUOUS
62
  7
10
1377.471
20
1041.277
30
0.0
11
1377.433
21
1041.575
31
0.0
0
LINE
5
3e0c
8
0-0
6
CONTINUOUS
62
  7
10
1377.433
20
1041.575
30
0.0
11
1377.397
21
1041.861
31
0.0
0
LINE
5
3e0d
8
0-0
6
CONTINUOUS
62
  7
10
1377.397
20
1041.861
30
0.0
11
1377.364
21
1042.138
31
0.0
0
LINE
5
3e0e
8
0-0
6
CONTINUOUS
62
  7
10
1377.364
20
1042.138
30
0.0
11
1377.333
21
1042.404
31
0.0
0
LINE
5
3e0f
8
0-0
6
CONTINUOUS
62
  7
10
1377.333
20
1042.404
30
0.0
11
1377.305
21
1042.661
31
0.0
0
LINE
5
3e10
8
0-0
6
CONTINUOUS
62
  7
10
1377.305
20
1042.661
30
0.0
11
1377.278
21
1042.912
31
0.0
0
LINE
5
3e11
8
0-0
6
CONTINUOUS
62
  7
10
1377.278
20
1042.912
30
0.0
11
1377.252
21
1043.157
31
0.0
0
LINE
5
3e12
8
0-0
6
CONTINUOUS
62
  7
10
1377.252
20
1043.157
30
0.0
11
1377.229
21
1043.398
31
0.0
0
LINE
5
3e13
8
0-0
6
CONTINUOUS
62
  7
10
1377.229
20
1043.398
30
0.0
11
1377.206
21
1043.638
31
0.0
0
LINE
5
3e14
8
0-0
6
CONTINUOUS
62
  7
10
1377.206
20
1043.638
30
0.0
11
1377.183
21
1043.877
31
0.0
0
LINE
5
3e15
8
0-0
6
CONTINUOUS
62
  7
10
1377.183
20
1043.877
30
0.0
11
1377.162
21
1044.117
31
0.0
0
LINE
5
3e16
8
0-0
6
CONTINUOUS
62
  7
10
1377.162
20
1044.117
30
0.0
11
1377.139
21
1044.361
31
0.0
0
LINE
5
3e17
8
0-0
6
CONTINUOUS
62
  7
10
1377.139
20
1044.361
30
0.0
11
1377.116
21
1044.610
31
0.0
0
LINE
5
3e18
8
0-0
6
CONTINUOUS
62
  7
10
1377.116
20
1044.610
30
0.0
11
1377.092
21
1044.865
31
0.0
0
LINE
5
3e19
8
0-0
6
CONTINUOUS
62
  7
10
1377.092
20
1044.865
30
0.0
11
1377.066
21
1045.126
31
0.0
0
LINE
5
3e1a
8
0-0
6
CONTINUOUS
62
  7
10
1377.066
20
1045.126
30
0.0
11
1377.038
21
1045.394
31
0.0
0
LINE
5
3e1b
8
0-0
6
CONTINUOUS
62
  7
10
1377.038
20
1045.394
30
0.0
11
1377.007
21
1045.668
31
0.0
0
LINE
5
3e1c
8
0-0
6
CONTINUOUS
62
  7
10
1377.007
20
1045.668
30
0.0
11
1376.973
21
1045.946
31
0.0
0
LINE
5
3e1d
8
0-0
6
CONTINUOUS
62
  7
10
1385.609
20
1068.106
30
0.0
11
1381.735
21
1063.946
31
0.0
0
LINE
5
3e1e
8
0-0
6
CONTINUOUS
62
  7
10
1385.609
20
1023.786
30
0.0
11
1381.735
21
1027.946
31
0.0
0
LINE
5
3e1f
8
0-0
6
CONTINUOUS
62
  7
10
1476.457
20
1140.723
30
0.0
11
1398.050
21
1056.521
31
0.0
0
LINE
5
3e20
8
0-0
6
CONTINUOUS
62
  7
10
1477.973
20
1140.882
30
0.0
11
1476.457
21
1140.723
31
0.0
0
LINE
5
3e21
8
0-0
6
CONTINUOUS
62
  7
10
1477.973
20
951.010
30
0.0
11
1476.457
21
951.169
31
0.0
0
LINE
5
3e22
8
0-0
6
CONTINUOUS
62
  7
10
1457.973
20
946.074
30
0.0
11
1385.905
21
1023.468
31
0.0
0
LINE
5
3e23
8
0-0
6
CONTINUOUS
62
  7
10
1476.457
20
951.169
30
0.0
11
1398.346
21
1035.053
31
0.0
0
LINE
5
3e24
8
0-0
6
CONTINUOUS
62
  7
10
1381.735
20
1027.946
30
0.0
11
1385.905
21
1023.468
31
0.0
0
LINE
5
3e25
8
ADD_LINE
6
HIDDEN
62
  3
10
1482.973
20
1148.446
30
0.0
11
1570.970
21
1148.446
31
0.0
0
LINE
5
3e26
8
ADD_LINE
6
HIDDEN
62
  3
10
1482.973
20
943.446
30
0.0
11
1583.993
21
943.446
31
0.0
0
LINE
5
3e27
8
0-0
6
CONTINUOUS
62
  7
10
1167.568
20
1145.996
30
0.0
11
1167.568
21
945.896
31
0.0
0
LINE
5
3e28
8
0-0
6
CONTINUOUS
62
  7
10
857.568
20
1135.996
30
0.0
11
872.568
21
1145.996
31
0.0
0
LINE
5
3e29
8
0-0
6
CONTINUOUS
62
  7
10
857.568
20
955.896
30
0.0
11
872.568
21
945.896
31
0.0
0
LINE
5
3e2a
8
0-0
6
CONTINUOUS
62
  7
10
758.961
20
1029.234
30
0.0
11
857.568
21
955.896
31
0.0
0
LINE
5
3e2b
8
0-0
6
CONTINUOUS
62
  7
10
758.961
20
1062.658
30
0.0
11
857.568
21
1135.996
31
0.0
0
LINE
5
3e2c
8
0-0
6
CONTINUOUS
62
  7
10
1167.568
20
1145.996
30
0.0
11
872.568
21
1145.996
31
0.0
0
LINE
5
3e2d
8
0-0
6
CONTINUOUS
62
  7
10
1167.568
20
945.896
30
0.0
11
872.568
21
945.896
31
0.0
0
LINE
5
3e2e
8
0-0
6
CONTINUOUS
62
  7
10
1155.568
20
1140.996
30
0.0
11
1155.568
21
950.896
31
0.0
0
LINE
5
3e2f
8
0-0
6
CONTINUOUS
62
  7
10
1148.568
20
1140.996
30
0.0
11
1148.568
21
950.896
31
0.0
0
LINE
5
3e30
8
ADD_LINE
6
HIDDEN
62
  3
10
1560.388
20
1045.946
30
0.0
11
991.568
21
1045.946
31
0.0
0
LINE
5
3e31
8
ADD_LINE
6
HIDDEN
62
  3
10
985.568
20
1045.946
30
0.0
11
393.243
21
1045.946
31
0.0
0
LINE
5
3e32
8
0-0
6
CONTINUOUS
62
  7
10
1021.568
20
1045.946
30
0.0
11
1167.568
21
1045.946
31
0.0
0
LINE
5
3e33
8
0-0
6
CONTINUOUS
62
  7
10
750.568
20
1045.946
30
0.0
11
985.568
21
1045.946
31
0.0
0
LINE
5
3e34
8
0-0
6
CONTINUOUS
62
  7
10
991.568
20
1045.946
30
0.0
11
1015.568
21
1045.946
31
0.0
0
LINE
5
3e35
8
0-0
6
CONTINUOUS
62
  7
10
1167.568
20
603.649
30
0.0
11
1167.568
21
498.649
31
0.0
0
LINE
5
3e36
8
0-0
6
CONTINUOUS
62
  7
10
750.568
20
461.334
30
0.0
11
752.180
21
458.464
31
0.0
0
LINE
5
3e37
8
0-0
6
CONTINUOUS
62
  7
10
872.568
20
523.649
30
0.0
11
864.568
21
498.649
31
0.0
0
LINE
5
3e38
8
0-0
6
CONTINUOUS
62
  7
10
854.568
20
505.649
30
0.0
11
864.568
21
498.649
31
0.0
0
LINE
5
3e39
8
0-0
6
CONTINUOUS
62
  7
10
784.635
20
457.437
30
0.0
11
750.568
21
461.334
31
0.0
0
LINE
5
3e3a
8
0-0
6
CONTINUOUS
62
  7
10
804.716
20
462.301
30
0.0
11
854.568
21
505.649
31
0.0
0
LINE
5
3e3b
8
0-0
6
CONTINUOUS
62
  7
10
787.351
20
454.441
30
0.0
11
752.180
21
458.464
31
0.0
0
LINE
5
3e3c
8
0-0
6
CONTINUOUS
62
  7
10
1167.568
20
523.649
30
0.0
11
872.568
21
523.649
31
0.0
0
LINE
5
3e3d
8
0-0
6
CONTINUOUS
62
  7
10
1167.568
20
603.649
30
0.0
11
1155.568
21
603.649
31
0.0
0
LINE
5
3e3e
8
0-0
6
CONTINUOUS
62
  7
10
1148.568
20
603.649
30
0.0
11
1148.568
21
527.878
31
0.0
0
LINE
5
3e3f
8
0-0
6
CONTINUOUS
62
  7
10
1155.568
20
603.649
30
0.0
11
1155.568
21
527.878
31
0.0
0
LINE
5
3e40
8
0-0
6
CONTINUOUS
62
  7
10
801.568
20
603.649
30
0.0
11
750.568
21
461.334
31
0.0
0
LINE
5
3e41
8
0-0
6
CONTINUOUS
62
  7
10
1148.568
20
603.649
30
0.0
11
801.568
21
603.649
31
0.0
0
LINE
5
3e42
8
0-0
6
CONTINUOUS
62
  7
10
811.568
20
602.314
30
0.0
11
811.812
21
602.219
31
0.0
0
LINE
5
3e43
8
0-0
6
CONTINUOUS
62
  7
10
811.812
20
602.219
30
0.0
11
812.052
21
602.112
31
0.0
0
LINE
5
3e44
8
0-0
6
CONTINUOUS
62
  7
10
812.052
20
602.112
30
0.0
11
812.289
21
601.994
31
0.0
0
LINE
5
3e45
8
0-0
6
CONTINUOUS
62
  7
10
812.289
20
601.994
30
0.0
11
812.519
21
601.868
31
0.0
0
LINE
5
3e46
8
0-0
6
CONTINUOUS
62
  7
10
812.519
20
601.868
30
0.0
11
812.743
21
601.733
31
0.0
0
LINE
5
3e47
8
0-0
6
CONTINUOUS
62
  7
10
812.743
20
601.733
30
0.0
11
812.958
21
601.592
31
0.0
0
LINE
5
3e48
8
0-0
6
CONTINUOUS
62
  7
10
812.958
20
601.592
30
0.0
11
813.165
21
601.444
31
0.0
0
LINE
5
3e49
8
0-0
6
CONTINUOUS
62
  7
10
813.165
20
601.444
30
0.0
11
813.361
21
601.292
31
0.0
0
LINE
5
3e4a
8
0-0
6
CONTINUOUS
62
  7
10
813.361
20
601.292
30
0.0
11
813.546
21
601.137
31
0.0
0
LINE
5
3e4b
8
0-0
6
CONTINUOUS
62
  7
10
813.546
20
601.137
30
0.0
11
813.718
21
600.980
31
0.0
0
LINE
5
3e4c
8
0-0
6
CONTINUOUS
62
  7
10
813.718
20
600.980
30
0.0
11
813.877
21
600.821
31
0.0
0
LINE
5
3e4d
8
0-0
6
CONTINUOUS
62
  7
10
813.877
20
600.821
30
0.0
11
814.021
21
600.663
31
0.0
0
LINE
5
3e4e
8
0-0
6
CONTINUOUS
62
  7
10
814.021
20
600.663
30
0.0
11
814.149
21
600.506
31
0.0
0
LINE
5
3e4f
8
0-0
6
CONTINUOUS
62
  7
10
814.149
20
600.506
30
0.0
11
814.259
21
600.352
31
0.0
0
LINE
5
3e50
8
0-0
6
CONTINUOUS
62
  7
10
814.259
20
600.352
30
0.0
11
872.568
21
523.649
31
0.0
0
LINE
5
3e51
8
0-0
6
CONTINUOUS
62
  7
10
801.568
20
603.649
30
0.0
11
811.568
21
602.314
31
0.0
0
LINE
5
3e52
8
0-0
6
CONTINUOUS
62
  7
10
864.568
20
498.649
30
0.0
11
861.781
21
498.649
31
0.0
0
LINE
5
3e53
8
0-0
6
CONTINUOUS
62
  7
10
1167.568
20
498.649
30
0.0
11
875.956
21
498.649
31
0.0
0
LINE
5
3e54
8
0-0
6
CONTINUOUS
62
  7
10
864.568
20
498.649
30
0.0
11
861.781
21
498.649
31
0.0
0
LINE
5
3e55
8
0-0
6
CONTINUOUS
62
  7
10
854.568
20
505.649
30
0.0
11
856.658
21
502.235
31
0.0
0
LINE
5
3e56
8
0-0
6
CONTINUOUS
62
  7
10
856.658
20
502.235
30
0.0
11
861.781
21
498.649
31
0.0
0
LINE
5
3e57
8
0-0
6
CONTINUOUS
62
  7
10
807.431
20
459.305
30
0.0
11
856.658
21
502.235
31
0.0
0
LINE
5
3e58
8
0-0
6
CONTINUOUS
62
  7
10
875.956
20
498.649
30
0.0
11
864.568
21
498.649
31
0.0
0
LINE
5
3e59
8
0-0
6
CONTINUOUS
62
  7
10
570.967
20
1071.364
30
0.0
11
499.324
21
1145.996
31
0.0
0
LINE
5
3e5a
8
0-0
6
CONTINUOUS
62
  7
10
579.324
20
1041.303
30
0.0
11
579.324
21
1050.589
31
0.0
0
LINE
5
3e5b
8
0-0
6
CONTINUOUS
62
  7
10
570.967
20
1020.528
30
0.0
11
499.324
21
945.896
31
0.0
0
LINE
5
3e5c
8
0-0
6
CONTINUOUS
62
  7
10
439.833
20
1101.738
30
0.0
11
474.324
21
1137.996
31
0.0
0
LINE
5
3e5d
8
0-0
6
CONTINUOUS
62
  7
10
434.324
20
1003.939
30
0.0
11
434.324
21
1087.953
31
0.0
0
LINE
5
3e5e
8
0-0
6
CONTINUOUS
62
  7
10
499.324
20
945.896
30
0.0
11
474.324
21
945.896
31
0.0
0
LINE
5
3e5f
8
0-0
6
CONTINUOUS
62
  7
10
499.324
20
1145.996
30
0.0
11
474.324
21
1145.996
31
0.0
0
LINE
5
3e60
8
0-0
6
CONTINUOUS
62
  7
10
474.324
20
1137.996
30
0.0
11
477.344
21
1141.170
31
0.0
0
LINE
5
3e61
8
0-0
6
CONTINUOUS
62
  7
10
477.344
20
1141.170
30
0.0
11
474.324
21
1141.170
31
0.0
0
LINE
5
3e62
8
0-0
6
CONTINUOUS
62
  7
10
474.324
20
1145.996
30
0.0
11
474.324
21
1141.170
31
0.0
0
LINE
5
3e63
8
0-0
6
CONTINUOUS
62
  7
10
439.833
20
990.155
30
0.0
11
474.324
21
953.896
31
0.0
0
LINE
5
3e64
8
0-0
6
CONTINUOUS
62
  7
10
474.324
20
950.896
30
0.0
11
474.324
21
945.896
31
0.0
0
LINE
5
3e65
8
0-0
6
CONTINUOUS
62
  7
10
477.178
20
950.896
30
0.0
11
474.324
21
950.896
31
0.0
0
LINE
5
3e66
8
0-0
6
CONTINUOUS
62
  7
10
474.324
20
953.896
30
0.0
11
477.178
21
950.896
31
0.0
0
LINE
5
3e67
8
0-0
6
CONTINUOUS
62
  7
10
434.324
20
1045.946
30
0.0
11
579.324
21
1045.946
31
0.0
0
LINE
5
3e68
8
0-0
6
CONTINUOUS
62
  7
10
438.324
20
1005.538
30
0.0
11
438.324
21
1086.354
31
0.0
0
LINE
5
3e69
8
0-0
6
CONTINUOUS
62
  7
10
477.344
20
1141.170
30
0.0
11
443.833
21
1100.139
31
0.0
0
LINE
5
3e6a
8
0-0
6
CONTINUOUS
62
  7
10
477.178
20
950.896
30
0.0
11
443.833
21
991.753
31
0.0
0
LINE
5
3e6b
8
0-2
6
CONTINUOUS
62
  7
10
434.324
20
1321.622
30
0.0
11
579.324
21
1321.622
31
0.0
0
LINE
5
3e6c
8
0-2
6
CONTINUOUS
62
  7
10
434.324
20
1208.108
30
0.0
11
434.324
21
1321.622
31
0.0
0
LINE
5
3e6d
8
0-2
6
CONTINUOUS
62
  7
10
579.324
20
1208.108
30
0.0
11
579.324
21
1321.622
31
0.0
0
LINE
5
3e6e
8
0-2
6
CONTINUOUS
62
  7
10
802.193
20
1048.179
30
0.0
11
872.568
21
1145.996
31
0.0
0
LINE
5
3e6f
8
0-2
6
CONTINUOUS
62
  7
10
802.193
20
1043.713
30
0.0
11
872.568
21
945.896
31
0.0
0
LINE
5
3e70
8
0-2
6
CONTINUOUS
62
  7
10
750.568
20
1321.622
30
0.0
11
1167.568
21
1321.622
31
0.0
0
LINE
5
3e71
8
0-2
6
CONTINUOUS
62
  7
10
750.568
20
1208.108
30
0.0
11
750.568
21
1321.622
31
0.0
0
LINE
5
3e72
8
0-2
6
CONTINUOUS
62
  7
10
1167.568
20
1208.108
30
0.0
11
1167.568
21
1321.622
31
0.0
0
LINE
5
3e73
8
0-2
6
CONTINUOUS
62
  7
10
750.568
20
1208.108
30
0.0
11
750.568
21
1268.919
31
0.0
0
LINE
5
3e74
8
0-2
6
CONTINUOUS
62
  7
10
750.568
20
1272.648
30
0.0
11
872.568
21
1272.648
31
0.0
0
LINE
5
3e75
8
0-2
6
CONTINUOUS
62
  7
10
750.568
20
1208.108
30
0.0
11
750.568
21
1272.648
31
0.0
0
LINE
5
3e76
8
0-2
6
CONTINUOUS
62
  7
10
872.568
20
1208.108
30
0.0
11
872.568
21
1272.648
31
0.0
0
LINE
5
3e77
8
0-2
6
CONTINUOUS
62
  7
10
872.568
20
1272.648
30
0.0
11
1167.568
21
1272.648
31
0.0
0
LINE
5
3e78
8
0-2
6
CONTINUOUS
62
  7
10
1167.568
20
1208.108
30
0.0
11
1167.568
21
1272.648
31
0.0
0
LINE
5
3e79
8
0-2
6
CONTINUOUS
62
  7
10
1277.027
20
1145.996
30
0.0
11
1277.027
21
945.896
31
0.0
0
LINE
5
3e7a
8
0-2
6
CONTINUOUS
62
  7
10
1204.054
20
1145.996
30
0.0
11
1277.027
21
1145.996
31
0.0
0
LINE
5
3e7b
8
0-2
6
CONTINUOUS
62
  7
10
1204.054
20
945.896
30
0.0
11
1277.027
21
945.896
31
0.0
0
LINE
5
3e7c
8
0-2
6
CONTINUOUS
62
  7
10
1277.027
20
498.649
30
0.0
11
1277.027
21
603.649
31
0.0
0
LINE
5
3e7d
8
0-2
6
CONTINUOUS
62
  7
10
1204.054
20
498.649
30
0.0
11
1277.027
21
498.649
31
0.0
0
LINE
5
3e7e
8
0-2
6
CONTINUOUS
62
  7
10
1204.054
20
603.649
30
0.0
11
1277.027
21
603.649
31
0.0
0
LINE
5
3e7f
8
0-2
6
CONTINUOUS
62
  7
10
1376.973
20
1321.622
30
0.0
11
1482.973
21
1321.622
31
0.0
0
LINE
5
3e80
8
0-2
6
CONTINUOUS
62
  7
10
1376.973
20
1208.108
30
0.0
11
1376.973
21
1321.622
31
0.0
0
LINE
5
3e81
8
0-2
6
CONTINUOUS
62
  7
10
1482.973
20
1208.108
30
0.0
11
1482.973
21
1321.622
31
0.0
0
LINE
5
3e82
8
0-2
6
CONTINUOUS
62
  7
10
571.622
20
603.649
30
0.0
11
571.622
21
461.334
31
0.0
0
LINE
5
3e83
8
0-2
6
CONTINUOUS
62
  7
10
697.297
20
603.649
30
0.0
11
571.622
21
603.649
31
0.0
0
LINE
5
3e84
8
0-2
6
CONTINUOUS
62
  7
10
697.297
20
461.334
30
0.0
11
571.622
21
461.334
31
0.0
0
LINE
5
3e85
8
0-2
6
CONTINUOUS
62
  7
10
801.568
20
741.892
30
0.0
11
1167.568
21
741.892
31
0.0
0
LINE
5
3e86
8
0-2
6
CONTINUOUS
62
  7
10
801.568
20
640.541
30
0.0
11
801.568
21
741.892
31
0.0
0
LINE
5
3e87
8
0-2
6
CONTINUOUS
62
  7
10
1167.568
20
640.541
30
0.0
11
1167.568
21
741.892
31
0.0
0
LINE
5
3e88
8
ADD_LINE
6
HIDDEN
62
  3
10
801.568
20
603.649
30
0.0
11
801.568
21
618.664
31
0.0
0
LINE
5
3e89
8
ADD_LINE
6
HIDDEN
62
  3
10
801.568
20
603.649
30
0.0
11
801.568
21
587.795
31
0.0
0
LINE
5
3e8a
8
ADD_LINE
6
HIDDEN
62
  3
10
801.568
20
603.649
30
0.0
11
788.161
21
603.649
31
0.0
0
ARC
5
3e8b
8
0-0
6
CONTINUOUS
62
  7
10
1410.077
20
1045.951
30
0.0
40
16.012
50
138.689087
51
222.893845
0
ARC
5
3e8c
8
0-0
6
CONTINUOUS
62
  7
10
806.131
20
1045.874
30
0.0
40
4.563
50
149.650696
51
179.088135
0
ARC
5
3e8d
8
0-0
6
CONTINUOUS
62
  7
10
806.131
20
1046.019
30
0.0
40
4.563
50
180.911865
51
210.349304
0
ARC
5
3e8e
8
0-0
6
CONTINUOUS
62
  7
10
771.401
20
1045.946
30
0.0
40
20.833
50
126.663300
51
233.337311
0
ARC
5
3e8f
8
0-0
6
CONTINUOUS
62
  7
10
1152.068
20
952.959
30
0.0
40
4.062
50
210.509644
51
329.489471
0
ARC
5
3e90
8
0-0
6
CONTINUOUS
62
  7
10
1152.068
20
1138.934
30
0.0
40
4.062
50
30.508270
51
149.492615
0
CIRCLE
5
3e91
8
0-0
6
CONTINUOUS
62
  7
10
1018.568
20
1045.946
30
0.0
40
3.000
0
CIRCLE
5
3e92
8
0-0
6
CONTINUOUS
62
  7
10
988.568
20
1045.946
30
0.0
40
3.000
0
ARC
5
3e93
8
0-0
6
CONTINUOUS
62
  7
10
788.045
20
487.243
30
0.0
40
30.000
50
263.473816
51
303.759033
0
ARC
5
3e94
8
0-0
6
CONTINUOUS
62
  7
10
790.760
20
484.246
30
0.0
40
30.000
50
263.473816
51
303.759094
0
ARC
5
3e95
8
0-0
6
CONTINUOUS
62
  7
10
1152.068
20
529.009
30
0.0
40
3.678
50
197.897980
51
342.102600
0
ARC
5
3e96
8
0-0
6
CONTINUOUS
62
  7
10
1152.068
20
604.577
30
0.0
40
3.621
50
194.860046
51
345.140442
0
ARC
5
3e97
8
0-0
6
CONTINUOUS
62
  7
10
549.324
20
1050.589
30
0.0
40
30.000
50
0.000000
51
43.829178
0
ARC
5
3e98
8
0-0
6
CONTINUOUS
62
  7
10
549.324
20
1041.303
30
0.0
40
30.000
50
316.170898
51
0.000000
0
ARC
5
3e99
8
0-0
6
CONTINUOUS
62
  7
10
454.324
20
1087.953
30
0.0
40
20.000
50
136.430878
51
180.000000
0
ARC
5
3e9a
8
0-0
6
CONTINUOUS
62
  7
10
454.324
20
1003.939
30
0.0
40
20.000
50
180.000000
51
223.568741
0
ARC
5
3e9b
8
0-0
6
CONTINUOUS
62
  7
10
458.324
20
1086.354
30
0.0
40
20.000
50
136.430878
51
180.000000
0
ARC
5
3e9c
8
0-0
6
CONTINUOUS
62
  7
10
458.324
20
1005.538
30
0.0
40
20.000
50
180.000000
51
223.568741
0
CIRCLE
5
3e9d
8
ADD_LINE
6
HIDDEN
62
  3
10
801.568
20
603.649
30
0.0
40
3.000
0
TEXT
5
3e9e
100
AcDbEntity
8
0-2
62
7
100
AcDbText
10
497.449
20
1324.122
30
0.0
40
9.750
41
0.800
50
0.000
1
145
100
AcDbText
0
TEXT
5
3e9f
100
AcDbEntity
8
0-2
62
7
100
AcDbText
10
949.693
20
1324.122
30
0.0
40
9.750
41
0.800
50
0.000
1
417
100
AcDbText
0
TEXT
5
3ea0
100
AcDbEntity
8
0-2
62
7
100
AcDbText
10
802.193
20
1275.148
30
0.0
40
9.750
41
0.800
50
0.000
1
122
100
AcDbText
0
TEXT
5
3ea1
100
AcDbEntity
8
0-2
62
7
100
AcDbText
10
1010.693
20
1275.148
30
0.0
40
9.750
41
0.800
50
0.000
1
295
100
AcDbText
0
TEXT
5
3ea2
100
AcDbEntity
8
0-2
62
7
100
AcDbText
10
1274.527
20
1036.571
30
0.0
40
9.750
41
0.800
50
90.000
1
200
100
AcDbText
0
TEXT
5
3ea3
100
AcDbEntity
8
0-2
62
7
100
AcDbText
10
1274.527
20
541.774
30
0.0
40
9.750
41
0.800
50
90.000
1
105
100
AcDbText
0
TEXT
5
3ea4
100
AcDbEntity
8
0-2
62
7
100
AcDbText
10
1420.598
20
1324.122
30
0.0
40
9.750
41
0.800
50
0.000
1
105
100
AcDbText
0
TEXT
5
3ea5
100
AcDbEntity
8
0-2
62
7
100
AcDbText
10
569.122
20
523.117
30
0.0
40
9.750
41
0.800
50
90.000
1
142
100
AcDbText
0
TEXT
5
3ea6
100
AcDbEntity
8
0-2
62
7
100
AcDbText
10
975.193
20
744.392
30
0.0
40
9.750
41
0.800
50
0.000
1
366
100
AcDbText
0
POINT
5
3ea7
8
0-2
62
  7
10
434.324
20
1321.622
30
0.0
0
POINT
5
3ea8
8
0-2
62
  7
10
579.324
20
1321.622
30
0.0
0
POINT
5
3ea9
8
0-2
62
  7
10
750.568
20
1321.622
30
0.0
0
POINT
5
3eaa
8
0-2
62
  7
10
1167.568
20
1321.622
30
0.0
0
POINT
5
3eab
8
0-2
62
  7
10
750.568
20
1272.648
30
0.0
0
POINT
5
3eac
8
0-2
62
  7
10
872.568
20
1272.648
30
0.0
0
POINT
5
3ead
8
0-2
62
  7
10
1167.568
20
1272.648
30
0.0
0
POINT
5
3eae
8
0-2
62
  7
10
1277.027
20
1145.996
30
0.0
0
POINT
5
3eaf
8
0-2
62
  7
10
1277.027
20
945.896
30
0.0
0
POINT
5
3eb0
8
0-2
62
  7
10
1277.027
20
498.649
30
0.0
0
POINT
5
3eb1
8
0-2
62
  7
10
1277.027
20
603.649
30
0.0
0
POINT
5
3eb2
8
0-2
62
  7
10
1376.973
20
1321.622
30
0.0
0
POINT
5
3eb3
8
0-2
62
  7
10
1482.973
20
1321.622
30
0.0
0
POINT
5
3eb4
8
0-2
62
  7
10
571.622
20
603.649
30
0.0
0
POINT
5
3eb5
8
0-2
62
  7
10
571.622
20
461.334
30
0.0
0
POINT
5
3eb6
8
0-2
62
  7
10
801.568
20
741.892
30
0.0
0
POINT
5
3eb7
8
0-2
62
  7
10
1167.568
20
741.892
30
0.0
0
ENDSEC
0
EOF
