0
SECTION
2
HEADER
  9
$EXTMIN
10
0
20
0
30
0
  9
$EXTMAX
10
1690.541
20
1243.041
30
0
  9
$LTSCALE
40
5.000
  9
$DIMSCALE
40
5.000
  9
$PDMODE
70
0
  9
$PDSIZE
40
40
0
ENDSEC
0
SECTION
2
TABLES
0
TABLE
2
LTYPE
70
9
0
LTYPE
5
1f4
2
CONTINUOUS
70
0
3
実線
72
65
73
0
40
0.0
0
LTYPE
5
1f5
2
DOT
70
0
3
--  --  --  --  --  --  --  --     
72
65
73
2
40
5.000
49
1.000
49
-4.000
0
LTYPE
5
1f6
2
DASHED
70
0
3
----    ----    ----    ----    
72
65
73
2
40
5.000
49
2.000
49
-3.000
0
LTYPE
5
1f7
2
DASHED2
70
0
3
------  ------  ------  ------ 
72
65
73
2
40
10.000
49
4.000
49
-6.000
0
LTYPE
5
1f8
2
CENTER
70
0
3
----- - ----- - ----- - ----- - 
72
65
73
4
40
9.000
49
6.000
49
-1.000
49
1.000
49
-1.000
0
LTYPE
5
1f9
2
CENTER2
70
0
3
----------  --  ----------  -- 
72
65
73
4
40
18.000
49
12.000
49
-2.000
49
2.000
49
-2.000
0
LTYPE
5
1fa
2
PHANTOM
70
0
3
--- - - --- - - --- - - --- - -
72
65
73
6
40
10.000
49
5.000
49
-1.000
49
1.000
49
-1.000
49
1.000
49
-1.000
0
LTYPE
5
1fb
2
PHANTOM2
70
0
3
--------  -  -  --------  -  -
72
65
73
6
40
16.000
49
6.000
49
-2.000
49
2.000
49
-2.000
49
2.000
49
-2.000
0
LTYPE
5
1fc
2
HIDDEN
70
0
3
-   -   -   -   -   -   -   -   
72
65
73
2
40
2.500
49
0.500
49
-2.000
0
ENDTAB
0
TABLE
2
STYLE
70
1
0
STYLE
5
1fd
100
AcDbSymbolTableRecord
100
AcDbTextStyleTableRecord
2
STANDARD
70
0
40
0.0
41
1.0
50
0.0
71
0
42
0.0
3
txt.shx
4
extfont.shx
0
STYLE
5
1fe
100
AcDbSymbolTableRecord
100
AcDbTextStyleTableRecord
2
TATEGAKI
70
4
40
0.0
41
1.0
50
0.0
71
0
42
0.0
3
txt.shx
4
extfont.shx
0
STYLE
5
1ff
100
AcDbSymbolTableRecord
100
AcDbTextStyleTableRecord
2
MT
70
0
40
0.0
41
1.0
50
0.0
71
0
42
0.0
3
MS Mincho
4

0
STYLE
5
200
100
AcDbSymbolTableRecord
100
AcDbTextStyleTableRecord
2
TMT
70
4
40
0.0
41
1.0
50
0.0
71
0
42
0.0
3
@MS Mincho
4

0
ENDTAB
0
TABLE
2
LAYER
5
3f3f
100
AcDbSymbolTable
70
10
0
LAYER
5
3f40
100
AcDbSymbolTableRecord
100
AcDbLayerTableRecord
2
0
70
64
62
  7
  6
CONTINUOUS
0
LAYER
5
3f41
100
AcDbSymbolTableRecord
100
AcDbLayerTableRecord
2
0-0
70
64
62
  7
  6
CONTINUOUS
0
LAYER
5
3f42
100
AcDbSymbolTableRecord
100
AcDbLayerTableRecord
2
0-1
70
64
62
  7
  6
CONTINUOUS
0
LAYER
5
3f43
100
AcDbSymbolTableRecord
100
AcDbLayerTableRecord
2
0-2
70
64
62
  7
  6
CONTINUOUS
0
LAYER
5
3f44
100
AcDbSymbolTableRecord
100
AcDbLayerTableRecord
2
ADD_LINE
70
64
62
  -7
  6
CONTINUOUS
0
ENDTAB
0
ENDSEC
0
SECTION
2
ENTITIES
0
LINE
5
3f45
8
ADD_LINE
6
HIDDEN
62
  3
10
413.514
20
981.081
30
0.0
11
1690.541
21
981.081
31
0.0
0
LINE
5
3f46
8
0-0
6
CONTINUOUS
62
  7
10
677.838
20
1078.581
30
0.0
11
587.838
21
981.081
31
0.0
0
LINE
5
3f47
8
0-0
6
CONTINUOUS
62
  7
10
587.838
20
981.081
30
0.0
11
677.838
21
883.581
31
0.0
0
LINE
5
3f48
8
0-0
6
CONTINUOUS
62
  7
10
767.838
20
1078.581
30
0.0
11
677.838
21
981.081
31
0.0
0
LINE
5
3f49
8
0-0
6
CONTINUOUS
62
  7
10
677.838
20
981.081
30
0.0
11
767.838
21
883.581
31
0.0
0
LINE
5
3f4a
8
0-0
6
CONTINUOUS
62
  7
10
1115.838
20
1078.581
30
0.0
11
1025.838
21
981.081
31
0.0
0
LINE
5
3f4b
8
0-0
6
CONTINUOUS
62
  7
10
677.838
20
1078.581
30
0.0
11
1115.838
21
1078.581
31
0.0
0
LINE
5
3f4c
8
0-0
6
CONTINUOUS
62
  7
10
1115.838
20
883.581
30
0.0
11
1025.838
21
981.081
31
0.0
0
LINE
5
3f4d
8
0-0
6
CONTINUOUS
62
  7
10
677.838
20
883.581
30
0.0
11
1115.838
21
883.581
31
0.0
0
LINE
5
3f4e
8
0-0
6
CONTINUOUS
62
  7
10
988.838
20
984.081
30
0.0
11
1012.838
21
984.081
31
0.0
0
LINE
5
3f4f
8
0-0
6
CONTINUOUS
62
  7
10
988.838
20
978.081
30
0.0
11
1012.838
21
978.081
31
0.0
0
LINE
5
3f50
8
0-0
6
CONTINUOUS
62
  7
10
1471.622
20
1078.581
30
0.0
11
1446.622
21
981.081
31
0.0
0
LINE
5
3f51
8
0-0
6
CONTINUOUS
62
  7
10
1446.622
20
981.081
30
0.0
11
1471.622
21
883.581
31
0.0
0
LINE
5
3f52
8
0-0
6
CONTINUOUS
62
  7
10
1472.138
20
1078.581
30
0.0
11
1447.138
21
981.081
31
0.0
0
LINE
5
3f53
8
0-0
6
CONTINUOUS
62
  7
10
1471.622
20
1078.581
30
0.0
11
1472.138
21
1078.581
31
0.0
0
LINE
5
3f54
8
0-0
6
CONTINUOUS
62
  7
10
1447.138
20
981.081
30
0.0
11
1472.138
21
883.581
31
0.0
0
LINE
5
3f55
8
0-0
6
CONTINUOUS
62
  7
10
1471.622
20
883.581
30
0.0
11
1472.138
21
883.581
31
0.0
0
LINE
5
3f56
8
0-0
6
CONTINUOUS
62
  7
10
677.838
20
515.541
30
0.0
11
680.838
21
485.541
31
0.0
0
LINE
5
3f57
8
0-0
6
CONTINUOUS
62
  7
10
587.838
20
485.541
30
0.0
11
680.838
21
485.541
31
0.0
0
LINE
5
3f58
8
0-0
6
CONTINUOUS
62
  7
10
677.838
20
515.541
30
0.0
11
764.444
21
491.483
31
0.0
0
LINE
5
3f59
8
0-0
6
CONTINUOUS
62
  7
10
587.838
20
485.541
30
0.0
11
674.741
21
458.504
31
0.0
0
LINE
5
3f5a
8
0-0
6
CONTINUOUS
62
  7
10
680.838
20
485.541
30
0.0
11
767.742
21
458.504
31
0.0
0
LINE
5
3f5b
8
0-0
6
CONTINUOUS
62
  7
10
767.742
20
458.504
30
0.0
11
674.741
21
458.504
31
0.0
0
LINE
5
3f5c
8
0-0
6
CONTINUOUS
62
  7
10
767.742
20
458.504
30
0.0
11
764.444
21
491.483
31
0.0
0
LINE
5
3f5d
8
0-0
6
CONTINUOUS
62
  7
10
764.444
20
491.483
30
0.0
11
1112.443
21
491.483
31
0.0
0
LINE
5
3f5e
8
0-0
6
CONTINUOUS
62
  7
10
1025.838
20
515.541
30
0.0
11
1112.443
21
491.483
31
0.0
0
LINE
5
3f5f
8
0-0
6
CONTINUOUS
62
  7
10
768.294
20
458.004
30
0.0
11
764.996
21
490.983
31
0.0
0
LINE
5
3f60
8
0-0
6
CONTINUOUS
62
  7
10
764.996
20
490.983
30
0.0
11
1112.443
21
490.983
31
0.0
0
LINE
5
3f61
8
0-0
6
CONTINUOUS
62
  7
10
1112.443
20
491.483
30
0.0
11
1112.443
21
490.983
31
0.0
0
LINE
5
3f62
8
0-0
6
CONTINUOUS
62
  7
10
768.294
20
458.004
30
0.0
11
674.665
21
458.004
31
0.0
0
LINE
5
3f63
8
0-0
6
CONTINUOUS
62
  7
10
587.838
20
485.541
30
0.0
11
587.838
21
485.017
31
0.0
0
LINE
5
3f64
8
0-0
6
CONTINUOUS
62
  7
10
587.838
20
485.017
30
0.0
11
674.665
21
458.004
31
0.0
0
LINE
5
3f65
8
0-0
6
CONTINUOUS
62
  7
10
1014.838
20
514.541
30
0.0
11
986.838
21
514.541
31
0.0
0
LINE
5
3f66
8
0-0
6
CONTINUOUS
62
  7
10
677.838
20
515.541
30
0.0
11
985.838
21
515.541
31
0.0
0
LINE
5
3f67
8
0-0
6
CONTINUOUS
62
  7
10
1015.838
20
515.541
30
0.0
11
1025.838
21
515.541
31
0.0
0
LINE
5
3f68
8
0-2
6
CONTINUOUS
62
  7
10
587.838
20
1240.541
30
0.0
11
1115.838
21
1240.541
31
0.0
0
LINE
5
3f69
8
0-2
6
CONTINUOUS
62
  7
10
587.838
20
1127.027
30
0.0
11
587.838
21
1240.541
31
0.0
0
LINE
5
3f6a
8
0-2
6
CONTINUOUS
62
  7
10
1115.838
20
1127.027
30
0.0
11
1115.838
21
1240.541
31
0.0
0
LINE
5
3f6b
8
0-2
6
CONTINUOUS
62
  7
10
1446.622
20
1240.541
30
0.0
11
1471.622
21
1240.541
31
0.0
0
LINE
5
3f6c
8
0-2
6
CONTINUOUS
62
  7
10
1446.622
20
1127.027
30
0.0
11
1446.622
21
1240.541
31
0.0
0
LINE
5
3f6d
8
0-2
6
CONTINUOUS
62
  7
10
1471.622
20
1127.027
30
0.0
11
1471.622
21
1240.541
31
0.0
0
LINE
5
3f6e
8
0-2
6
CONTINUOUS
62
  7
10
587.838
20
1187.838
30
0.0
11
677.838
21
1187.838
31
0.0
0
LINE
5
3f6f
8
0-2
6
CONTINUOUS
62
  7
10
587.838
20
1127.027
30
0.0
11
587.838
21
1187.838
31
0.0
0
LINE
5
3f70
8
0-2
6
CONTINUOUS
62
  7
10
677.838
20
1127.027
30
0.0
11
677.838
21
1187.838
31
0.0
0
LINE
5
3f71
8
0-2
6
CONTINUOUS
62
  7
10
677.838
20
1187.838
30
0.0
11
767.838
21
1187.838
31
0.0
0
LINE
5
3f72
8
0-2
6
CONTINUOUS
62
  7
10
767.838
20
1127.027
30
0.0
11
767.838
21
1187.838
31
0.0
0
LINE
5
3f73
8
0-2
6
CONTINUOUS
62
  7
10
767.838
20
1187.838
30
0.0
11
1115.838
21
1187.838
31
0.0
0
LINE
5
3f74
8
0-2
6
CONTINUOUS
62
  7
10
1115.838
20
1127.027
30
0.0
11
1115.838
21
1187.838
31
0.0
0
LINE
5
3f75
8
0-2
6
CONTINUOUS
62
  7
10
1228.378
20
1078.581
30
0.0
11
1228.378
21
883.581
31
0.0
0
LINE
5
3f76
8
0-2
6
CONTINUOUS
62
  7
10
1159.459
20
1078.581
30
0.0
11
1228.378
21
1078.581
31
0.0
0
LINE
5
3f77
8
0-2
6
CONTINUOUS
62
  7
10
1159.459
20
883.581
30
0.0
11
1228.378
21
883.581
31
0.0
0
CIRCLE
5
3f78
8
0-0
6
CONTINUOUS
62
  7
10
652.838
20
981.081
30
0.0
40
3.000
0
CIRCLE
5
3f79
8
0-0
6
CONTINUOUS
62
  7
10
827.838
20
981.081
30
0.0
40
3.000
0
ARC
5
3f7a
8
0-0
6
CONTINUOUS
62
  7
10
988.838
20
981.081
30
0.0
40
3.000
50
90.002365
51
269.997620
0
ARC
5
3f7b
8
0-0
6
CONTINUOUS
62
  7
10
1012.838
20
981.081
30
0.0
40
3.000
50
270.002380
51
89.997635
0
ARC
5
3f7c
8
0-0
6
CONTINUOUS
62
  7
10
986.838
20
515.541
30
0.0
40
1.000
50
180.000000
51
270.000000
0
ARC
5
3f7d
8
0-0
6
CONTINUOUS
62
  7
10
1014.838
20
515.541
30
0.0
40
1.000
50
270.000000
51
0.000000
0
CIRCLE
5
3f7e
8
ADD_LINE
6
HIDDEN
62
  3
10
587.838
20
981.081
30
0.0
40
3.000
0
TEXT
5
3f7f
100
AcDbEntity
8
0-2
62
7
100
AcDbText
10
842.463
20
1243.041
30
0.0
40
9.750
41
0.800
50
0.000
1
528
100
AcDbText
0
TEXT
5
3f80
100
AcDbEntity
8
0-2
62
7
100
AcDbText
10
1452.872
20
1243.041
30
0.0
40
9.750
41
0.800
50
0.000
1
25
100
AcDbText
0
TEXT
5
3f81
100
AcDbEntity
8
0-2
62
7
100
AcDbText
10
626.588
20
1190.338
30
0.0
40
9.750
41
0.800
50
0.000
1
90
100
AcDbText
0
TEXT
5
3f82
100
AcDbEntity
8
0-2
62
7
100
AcDbText
10
716.588
20
1190.338
30
0.0
40
9.750
41
0.800
50
0.000
1
90
100
AcDbText
0
TEXT
5
3f83
100
AcDbEntity
8
0-2
62
7
100
AcDbText
10
932.463
20
1190.338
30
0.0
40
9.750
41
0.800
50
0.000
1
348
100
AcDbText
0
TEXT
5
3f84
100
AcDbEntity
8
0-2
62
7
100
AcDbText
10
1225.878
20
971.706
30
0.0
40
9.750
41
0.800
50
90.000
1
195
100
AcDbText
0
POINT
5
3f85
8
0-2
62
  7
10
587.838
20
1240.541
30
0.0
0
POINT
5
3f86
8
0-2
62
  7
10
1115.838
20
1240.541
30
0.0
0
POINT
5
3f87
8
0-2
62
  7
10
1446.622
20
1240.541
30
0.0
0
POINT
5
3f88
8
0-2
62
  7
10
1471.622
20
1240.541
30
0.0
0
POINT
5
3f89
8
0-2
62
  7
10
587.838
20
1187.838
30
0.0
0
POINT
5
3f8a
8
0-2
62
  7
10
677.838
20
1187.838
30
0.0
0
POINT
5
3f8b
8
0-2
62
  7
10
767.838
20
1187.838
30
0.0
0
POINT
5
3f8c
8
0-2
62
  7
10
1115.838
20
1187.838
30
0.0
0
POINT
5
3f8d
8
0-2
62
  7
10
1228.378
20
1078.581
30
0.0
0
POINT
5
3f8e
8
0-2
62
  7
10
1228.378
20
883.581
30
0.0
0
ENDSEC
0
EOF
