0
SECTION
2
HEADER
  9
$EXTMIN
10
0
20
0
30
0
  9
$EXTMAX
10
1565.958
20
1367.719
30
0
  9
$LTSCALE
40
5.000
  9
$DIMSCALE
40
5.000
  9
$PDMODE
70
0
  9
$PDSIZE
40
40
0
ENDSEC
0
SECTION
2
TABLES
0
TABLE
2
LTYPE
70
9
0
LTYPE
5
1f4
2
CONTINUOUS
70
0
3
実線
72
65
73
0
40
0.0
0
LTYPE
5
1f5
2
DOT
70
0
3
--  --  --  --  --  --  --  --     
72
65
73
2
40
5.000
49
1.000
49
-4.000
0
LTYPE
5
1f6
2
DASHED
70
0
3
----    ----    ----    ----    
72
65
73
2
40
5.000
49
2.000
49
-3.000
0
LTYPE
5
1f7
2
DASHED2
70
0
3
------  ------  ------  ------ 
72
65
73
2
40
10.000
49
4.000
49
-6.000
0
LTYPE
5
1f8
2
CENTER
70
0
3
----- - ----- - ----- - ----- - 
72
65
73
4
40
9.000
49
6.000
49
-1.000
49
1.000
49
-1.000
0
LTYPE
5
1f9
2
CENTER2
70
0
3
----------  --  ----------  -- 
72
65
73
4
40
18.000
49
12.000
49
-2.000
49
2.000
49
-2.000
0
LTYPE
5
1fa
2
PHANTOM
70
0
3
--- - - --- - - --- - - --- - -
72
65
73
6
40
10.000
49
5.000
49
-1.000
49
1.000
49
-1.000
49
1.000
49
-1.000
0
LTYPE
5
1fb
2
PHANTOM2
70
0
3
--------  -  -  --------  -  -
72
65
73
6
40
16.000
49
6.000
49
-2.000
49
2.000
49
-2.000
49
2.000
49
-2.000
0
LTYPE
5
1fc
2
HIDDEN
70
0
3
-   -   -   -   -   -   -   -   
72
65
73
2
40
2.500
49
0.500
49
-2.000
0
ENDTAB
0
TABLE
2
STYLE
70
1
0
STYLE
5
1fd
100
AcDbSymbolTableRecord
100
AcDbTextStyleTableRecord
2
STANDARD
70
0
40
0.0
41
1.0
50
0.0
71
0
42
0.0
3
txt.shx
4
extfont.shx
0
STYLE
5
1fe
100
AcDbSymbolTableRecord
100
AcDbTextStyleTableRecord
2
TATEGAKI
70
4
40
0.0
41
1.0
50
0.0
71
0
42
0.0
3
txt.shx
4
extfont.shx
0
STYLE
5
1ff
100
AcDbSymbolTableRecord
100
AcDbTextStyleTableRecord
2
MT
70
0
40
0.0
41
1.0
50
0.0
71
0
42
0.0
3
MS Mincho
4

0
STYLE
5
200
100
AcDbSymbolTableRecord
100
AcDbTextStyleTableRecord
2
TMT
70
4
40
0.0
41
1.0
50
0.0
71
0
42
0.0
3
@MS Mincho
4

0
ENDTAB
0
TABLE
2
LAYER
5
10c7
100
AcDbSymbolTable
70
10
0
LAYER
5
10c8
100
AcDbSymbolTableRecord
100
AcDbLayerTableRecord
2
0
70
64
62
  7
  6
CONTINUOUS
0
LAYER
5
10c9
100
AcDbSymbolTableRecord
100
AcDbLayerTableRecord
2
0-0
70
64
62
  7
  6
CONTINUOUS
0
LAYER
5
10ca
100
AcDbSymbolTableRecord
100
AcDbLayerTableRecord
2
ADD_LINE
70
64
62
  -7
  6
CONTINUOUS
0
ENDTAB
0
ENDSEC
0
SECTION
2
ENTITIES
0
LINE
5
10cb
8
0-0
6
CONTINUOUS
62
  7
10
1153.458
20
576.105
30
0.0
11
1160.406
21
576.105
31
0.0
0
LINE
5
10cc
8
0-0
6
CONTINUOUS
62
  7
10
1160.406
20
576.105
30
0.0
11
1160.406
21
560.199
31
0.0
0
LINE
5
10cd
8
0-0
6
CONTINUOUS
62
  7
10
855.405
20
701.160
30
0.0
11
1160.406
21
701.160
31
0.0
0
LINE
5
10ce
8
0-0
6
CONTINUOUS
62
  7
10
855.405
20
629.158
30
0.0
11
855.405
21
701.160
31
0.0
0
LINE
5
10cf
8
0-0
6
CONTINUOUS
62
  7
10
1160.406
20
629.158
30
0.0
11
1160.406
21
701.160
31
0.0
0
LINE
5
10d0
8
0-0
6
CONTINUOUS
62
  7
10
855.405
20
665.159
30
0.0
11
1120.406
21
665.159
31
0.0
0
LINE
5
10d1
8
0-0
6
CONTINUOUS
62
  7
10
855.405
20
629.158
30
0.0
11
855.405
21
665.159
31
0.0
0
LINE
5
10d2
8
0-0
6
CONTINUOUS
62
  7
10
1120.406
20
629.158
30
0.0
11
1120.406
21
665.159
31
0.0
0
LINE
5
10d3
8
0-0
6
CONTINUOUS
62
  7
10
900.405
20
1205.553
30
0.0
11
1160.405
21
1205.553
31
0.0
0
LINE
5
10d4
8
0-0
6
CONTINUOUS
62
  7
10
900.405
20
1165.554
30
0.0
11
900.405
21
1205.553
31
0.0
0
LINE
5
10d5
8
0-0
6
CONTINUOUS
62
  7
10
855.405
20
1165.554
30
0.0
11
900.405
21
1165.554
31
0.0
0
LINE
5
10d6
8
0-0
6
CONTINUOUS
62
  7
10
925.406
20
1197.553
30
0.0
11
925.406
21
1205.553
31
0.0
0
LINE
5
10d7
8
0-0
6
CONTINUOUS
62
  7
10
925.406
20
1197.553
30
0.0
11
1152.406
21
1197.553
31
0.0
0
LINE
5
10d8
8
0-0
6
CONTINUOUS
62
  7
10
1353.514
20
1165.554
30
0.0
11
1359.514
21
1165.554
31
0.0
0
LINE
5
10d9
8
0-0
6
CONTINUOUS
62
  7
10
1359.514
20
1205.553
30
0.0
11
1359.514
21
1165.554
31
0.0
0
LINE
5
10da
8
0-0
6
CONTINUOUS
62
  7
10
855.405
20
1365.219
30
0.0
11
1160.405
21
1365.219
31
0.0
0
LINE
5
10db
8
0-0
6
CONTINUOUS
62
  7
10
855.405
20
1239.935
30
0.0
11
855.405
21
1365.219
31
0.0
0
LINE
5
10dc
8
0-0
6
CONTINUOUS
62
  7
10
1160.405
20
1239.935
30
0.0
11
1160.405
21
1365.219
31
0.0
0
LINE
5
10dd
8
0-0
6
CONTINUOUS
62
  7
10
1160.405
20
1314.379
30
0.0
11
900.405
21
1314.379
31
0.0
0
LINE
5
10de
8
0-0
6
CONTINUOUS
62
  7
10
1160.405
20
1239.935
30
0.0
11
1160.405
21
1314.379
31
0.0
0
LINE
5
10df
8
0-0
6
CONTINUOUS
62
  7
10
900.405
20
1239.935
30
0.0
11
900.405
21
1314.379
31
0.0
0
LINE
5
10e0
8
0-0
6
CONTINUOUS
62
  7
10
900.405
20
1314.379
30
0.0
11
855.406
21
1314.379
31
0.0
0
LINE
5
10e1
8
0-0
6
CONTINUOUS
62
  7
10
855.406
20
1239.935
30
0.0
11
855.406
21
1314.379
31
0.0
0
LINE
5
10e2
8
0-0
6
CONTINUOUS
62
  7
10
940.405
20
910.553
30
0.0
11
1160.405
21
910.553
31
0.0
0
LINE
5
10e3
8
0-0
6
CONTINUOUS
62
  7
10
1160.406
20
576.105
30
0.0
11
1160.406
21
540.182
31
0.0
0
LINE
5
10e4
8
0-0
6
CONTINUOUS
62
  7
10
1402.514
20
908.261
30
0.0
11
1434.578
21
902.608
31
0.0
0
LINE
5
10e5
8
0-0
6
CONTINUOUS
62
  7
10
1428.514
20
917.893
30
0.0
11
1426.083
21
904.105
31
0.0
0
LINE
5
10e6
8
0-0
6
CONTINUOUS
62
  7
10
1385.514
20
1205.553
30
0.0
11
1385.514
21
1197.553
31
0.0
0
LINE
5
10e7
8
0-0
6
CONTINUOUS
62
  7
10
1359.514
20
1197.553
30
0.0
11
1389.514
21
1197.553
31
0.0
0
LINE
5
10e8
8
0-0
6
CONTINUOUS
62
  7
10
1153.458
20
576.105
30
0.0
11
1160.406
21
576.105
31
0.0
0
LINE
5
10e9
8
0-0
6
CONTINUOUS
62
  7
10
1160.406
20
576.105
30
0.0
11
1160.406
21
560.199
31
0.0
0
LINE
5
10ea
8
0-0
6
CONTINUOUS
62
  7
10
1160.406
20
576.105
30
0.0
11
1160.406
21
560.199
31
0.0
0
LINE
5
10eb
8
ADD_LINE
6
HIDDEN
62
  3
10
884.791
20
559.459
30
0.0
11
836.972
21
559.459
31
0.0
0
LINE
5
10ec
8
ADD_LINE
6
HIDDEN
62
  3
10
855.405
20
592.192
30
0.0
11
855.405
21
539.567
31
0.0
0
LINE
5
10ed
8
0-0
6
CONTINUOUS
62
  7
10
1160.405
20
910.553
30
0.0
11
1160.405
21
1205.553
31
0.0
0
LINE
5
10ee
8
0-0
6
CONTINUOUS
62
  7
10
1160.405
20
935.554
30
0.0
11
1135.405
21
910.553
31
0.0
0
LINE
5
10ef
8
0-0
6
CONTINUOUS
62
  7
10
940.405
20
910.553
30
0.0
11
1160.405
21
910.553
31
0.0
0
LINE
5
10f0
8
0-0
6
CONTINUOUS
62
  7
10
1152.406
20
965.553
30
0.0
11
1152.406
21
1197.553
31
0.0
0
LINE
5
10f1
8
0-0
6
CONTINUOUS
62
  7
10
1152.406
20
965.553
30
0.0
11
1160.405
21
965.553
31
0.0
0
LINE
5
10f2
8
0-0
6
CONTINUOUS
62
  7
10
1389.514
20
910.553
30
0.0
11
1389.514
21
1197.553
31
0.0
0
LINE
5
10f3
8
0-0
6
CONTINUOUS
62
  7
10
1353.514
20
933.142
30
0.0
11
1353.514
21
1165.554
31
0.0
0
LINE
5
10f4
8
0-0
6
CONTINUOUS
62
  7
10
1406.514
20
921.772
30
0.0
11
1428.514
21
917.893
31
0.0
0
LINE
5
10f5
8
0-0
6
CONTINUOUS
62
  7
10
1359.514
20
1205.553
30
0.0
11
1406.514
21
1205.553
31
0.0
0
LINE
5
10f6
8
0-0
6
CONTINUOUS
62
  7
10
1406.514
20
921.772
30
0.0
11
1406.514
21
1205.553
31
0.0
0
LINE
5
10f7
8
0-0
6
CONTINUOUS
62
  7
10
645.312
20
1205.553
30
0.0
11
645.312
21
910.553
31
0.0
0
LINE
5
10f8
8
0-0
6
CONTINUOUS
62
  7
10
806.144
20
1205.553
30
0.0
11
645.312
21
1205.553
31
0.0
0
LINE
5
10f9
8
0-0
6
CONTINUOUS
62
  7
10
806.144
20
910.553
30
0.0
11
645.312
21
910.553
31
0.0
0
LINE
5
10fa
8
0-0
6
CONTINUOUS
62
  7
10
753.668
20
1205.553
30
0.0
11
753.668
21
1165.554
31
0.0
0
LINE
5
10fb
8
0-0
6
CONTINUOUS
62
  7
10
806.144
20
1205.553
30
0.0
11
753.668
21
1205.553
31
0.0
0
LINE
5
10fc
8
0-0
6
CONTINUOUS
62
  7
10
806.144
20
1165.554
30
0.0
11
753.668
21
1165.554
31
0.0
0
LINE
5
10fd
8
0-0
6
CONTINUOUS
62
  7
10
1565.958
20
1205.553
30
0.0
11
1565.958
21
910.553
31
0.0
0
LINE
5
10fe
8
0-0
6
CONTINUOUS
62
  7
10
1480.071
20
1205.553
30
0.0
11
1565.958
21
1205.553
31
0.0
0
LINE
5
10ff
8
0-0
6
CONTINUOUS
62
  7
10
1480.071
20
910.553
30
0.0
11
1565.958
21
910.553
31
0.0
0
LINE
5
1100
8
0-0
6
CONTINUOUS
62
  7
10
1389.514
20
1314.379
30
0.0
11
1406.514
21
1314.379
31
0.0
0
LINE
5
1101
8
0-0
6
CONTINUOUS
62
  7
10
1389.514
20
1239.935
30
0.0
11
1389.514
21
1314.379
31
0.0
0
LINE
5
1102
8
0-0
6
CONTINUOUS
62
  7
10
1406.514
20
1239.935
30
0.0
11
1406.514
21
1314.379
31
0.0
0
LINE
5
1103
8
0-0
6
CONTINUOUS
62
  7
10
743.480
20
601.070
30
0.0
11
743.480
21
511.070
31
0.0
0
LINE
5
1104
8
0-0
6
CONTINUOUS
62
  7
10
798.178
20
601.070
30
0.0
11
743.480
21
601.070
31
0.0
0
LINE
5
1105
8
0-0
6
CONTINUOUS
62
  7
10
798.178
20
511.070
30
0.0
11
743.480
21
511.070
31
0.0
0
LINE
5
1106
8
0-0
6
CONTINUOUS
62
  7
10
955.406
20
551.324
30
0.0
11
955.406
21
523.552
31
0.0
0
LINE
5
1107
8
0-0
6
CONTINUOUS
62
  7
10
1090.406
20
541.735
30
0.0
11
1090.406
21
521.009
31
0.0
0
LINE
5
1108
8
0-0
6
CONTINUOUS
62
  7
10
961.406
20
545.265
30
0.0
11
961.406
21
525.711
31
0.0
0
LINE
5
1109
8
0-0
6
CONTINUOUS
62
  7
10
960.406
20
546.608
30
0.0
11
960.406
21
524.991
31
0.0
0
LINE
5
110a
8
0-0
6
CONTINUOUS
62
  7
10
1084.406
20
536.663
30
0.0
11
1084.406
21
523.368
31
0.0
0
LINE
5
110b
8
0-0
6
CONTINUOUS
62
  7
10
1085.406
20
537.826
30
0.0
11
1085.406
21
522.618
31
0.0
0
LINE
5
110c
8
ADD_LINE
6
HIDDEN
62
  3
10
1120.406
20
580.206
30
0.0
11
1120.406
21
545.410
31
0.0
0
LINE
5
110d
8
0-0
6
CONTINUOUS
62
  7
10
940.405
20
910.553
30
0.0
11
940.405
21
894.553
31
0.0
0
LINE
5
110e
8
0-0
6
CONTINUOUS
62
  7
10
850.405
20
910.553
30
0.0
11
850.405
21
894.553
31
0.0
0
LINE
5
110f
8
0-0
6
CONTINUOUS
62
  7
10
850.405
20
894.553
30
0.0
11
940.405
21
894.553
31
0.0
0
LINE
5
1110
8
0-0
6
CONTINUOUS
62
  7
10
850.405
20
910.553
30
0.0
11
853.891
21
910.553
31
0.0
0
LINE
5
1111
8
0-0
6
CONTINUOUS
62
  7
10
855.405
20
913.038
30
0.0
11
855.405
21
1165.554
31
0.0
0
LINE
5
1112
8
0-0
6
CONTINUOUS
62
  7
10
1434.578
20
902.608
30
0.0
11
1431.799
21
886.851
31
0.0
0
LINE
5
1113
8
0-0
6
CONTINUOUS
62
  7
10
1431.674
20
886.873
30
0.0
11
1431.799
21
886.851
31
0.0
0
LINE
5
1114
8
0-0
6
CONTINUOUS
62
  7
10
1343.167
20
902.479
30
0.0
11
1431.674
21
886.873
31
0.0
0
LINE
5
1115
8
0-0
6
CONTINUOUS
62
  7
10
1402.514
20
908.261
30
0.0
11
1351.051
21
917.336
31
0.0
0
LINE
5
1116
8
0-0
6
CONTINUOUS
62
  7
10
743.480
20
910.553
30
0.0
11
743.480
21
894.553
31
0.0
0
LINE
5
1117
8
0-0
6
CONTINUOUS
62
  7
10
806.144
20
910.553
30
0.0
11
743.480
21
910.553
31
0.0
0
LINE
5
1118
8
0-0
6
CONTINUOUS
62
  7
10
806.144
20
894.553
30
0.0
11
743.480
21
894.553
31
0.0
0
LINE
5
1119
8
ADD_LINE
6
HIDDEN
62
  3
10
1111.284
20
559.459
30
0.0
11
1131.019
21
559.459
31
0.0
0
CIRCLE
5
111a
8
0-0
6
CONTINUOUS
62
  7
10
905.406
20
990.553
30
0.0
40
3.000
0
CIRCLE
5
111b
8
0-0
6
CONTINUOUS
62
  7
10
905.406
20
1010.553
30
0.0
40
3.000
0
CIRCLE
5
111c
8
0-0
6
CONTINUOUS
62
  7
10
895.405
20
556.070
30
0.0
40
45.000
0
ARC
5
111d
8
0-0
6
CONTINUOUS
62
  7
10
1146.654
20
576.326
30
0.0
40
6.808
50
318.432068
51
358.142212
0
ARC
5
111e
8
0-0
6
CONTINUOUS
62
  7
10
1043.058
20
801.710
30
0.0
40
254.299
50
245.643051
51
297.481079
0
ARC
5
111f
8
0-0
6
CONTINUOUS
62
  7
10
1024.457
20
764.283
30
0.0
40
262.113
50
247.626801
51
301.242676
0
CIRCLE
5
1120
8
ADD_LINE
6
HIDDEN
62
  3
10
855.405
20
559.459
30
0.0
40
3.000
0
CIRCLE
5
1121
8
0-0
6
CONTINUOUS
62
  7
10
970.405
20
1185.554
30
0.0
40
3.000
0
CIRCLE
5
1122
8
0-0
6
CONTINUOUS
62
  7
10
1080.406
20
1185.554
30
0.0
40
3.000
0
CIRCLE
5
1123
8
0-0
6
CONTINUOUS
62
  7
10
895.405
20
556.070
30
0.0
40
36.000
0
CIRCLE
5
1124
8
0-0
6
CONTINUOUS
62
  7
10
895.405
20
556.070
30
0.0
40
26.000
0
CIRCLE
5
1125
8
0-0
6
CONTINUOUS
62
  7
10
895.405
20
556.070
30
0.0
40
27.000
0
ARC
5
1126
8
0-0
6
CONTINUOUS
62
  7
10
900.857
20
562.537
30
0.0
40
8.562
50
89.708176
51
225.900665
0
ARC
5
1127
8
0-0
6
CONTINUOUS
62
  7
10
900.818
20
554.817
30
0.0
40
16.283
50
5.536682
51
89.708099
0
ARC
5
1128
8
0-0
6
CONTINUOUS
62
  7
10
894.690
20
554.223
30
0.0
40
22.440
50
271.434967
51
5.536697
0
ARC
5
1129
8
0-0
6
CONTINUOUS
62
  7
10
901.940
20
558.765
30
0.0
40
7.432
50
96.586990
51
198.658157
0
ARC
5
112a
8
0-0
6
CONTINUOUS
62
  7
10
902.555
20
553.438
30
0.0
40
12.795
50
33.625534
51
96.586975
0
ARC
5
112b
8
0-0
6
CONTINUOUS
62
  7
10
900.890
20
552.330
30
0.0
40
14.794
50
357.056061
51
33.625488
0
ARC
5
112c
8
0-0
6
CONTINUOUS
62
  7
10
894.837
20
552.642
30
0.0
40
20.855
50
271.140259
51
357.056091
0
ARC
5
112d
8
0-0
6
CONTINUOUS
62
  7
10
898.280
20
548.115
30
0.0
40
8.562
50
329.708191
51
465.900665
0
ARC
5
112e
8
0-0
6
CONTINUOUS
62
  7
10
891.614
20
552.009
30
0.0
40
16.283
50
245.536682
51
329.708099
0
ARC
5
112f
8
0-0
6
CONTINUOUS
62
  7
10
894.163
20
557.614
30
0.0
40
22.440
50
511.434967
51
245.536697
0
ARC
5
1130
8
0-0
6
CONTINUOUS
62
  7
10
894.472
20
549.064
30
0.0
40
7.432
50
336.586975
51
438.658142
0
ARC
5
1131
8
0-0
6
CONTINUOUS
62
  7
10
889.551
20
551.195
30
0.0
40
12.795
50
273.625549
51
336.586975
0
ARC
5
1132
8
0-0
6
CONTINUOUS
62
  7
10
889.424
20
553.191
30
0.0
40
14.794
50
597.056030
51
273.625488
0
ARC
5
1133
8
0-0
6
CONTINUOUS
62
  7
10
892.721
20
558.277
30
0.0
40
20.855
50
511.140259
51
597.056091
0
ARC
5
1134
8
0-0
6
CONTINUOUS
62
  7
10
887.079
20
557.559
30
0.0
40
8.562
50
209.708176
51
345.900665
0
ARC
5
1135
8
0-0
6
CONTINUOUS
62
  7
10
893.785
20
561.384
30
0.0
40
16.283
50
125.536682
51
209.708099
0
ARC
5
1136
8
0-0
6
CONTINUOUS
62
  7
10
897.363
20
556.374
30
0.0
40
22.440
50
391.434967
51
125.536697
0
ARC
5
1137
8
0-0
6
CONTINUOUS
62
  7
10
889.804
20
560.382
30
0.0
40
7.432
50
216.586990
51
318.658142
0
ARC
5
1138
8
0-0
6
CONTINUOUS
62
  7
10
894.110
20
563.578
30
0.0
40
12.795
50
153.625534
51
216.586975
0
ARC
5
1139
8
0-0
6
CONTINUOUS
62
  7
10
895.902
20
562.690
30
0.0
40
14.794
50
477.056061
51
153.625488
0
ARC
5
113a
8
0-0
6
CONTINUOUS
62
  7
10
898.659
20
557.292
30
0.0
40
20.855
50
391.140259
51
477.056091
0
CIRCLE
5
113b
8
ADD_LINE
6
HIDDEN
62
  7
10
895.405
20
556.070
30
0.0
40
31.500
0
CIRCLE
5
113c
8
0-0
6
CONTINUOUS
62
  7
10
895.405
20
587.570
30
0.0
40
1.500
0
CIRCLE
5
113d
8
0-0
6
CONTINUOUS
62
  7
10
883.351
20
585.172
30
0.0
40
1.500
0
CIRCLE
5
113e
8
0-0
6
CONTINUOUS
62
  7
10
873.132
20
578.344
30
0.0
40
1.500
0
CIRCLE
5
113f
8
0-0
6
CONTINUOUS
62
  7
10
866.303
20
568.125
30
0.0
40
1.500
0
CIRCLE
5
1140
8
0-0
6
CONTINUOUS
62
  7
10
863.905
20
556.070
30
0.0
40
1.500
0
CIRCLE
5
1141
8
0-0
6
CONTINUOUS
62
  7
10
866.303
20
544.016
30
0.0
40
1.500
0
CIRCLE
5
1142
8
0-0
6
CONTINUOUS
62
  7
10
873.132
20
533.796
30
0.0
40
1.500
0
CIRCLE
5
1143
8
0-0
6
CONTINUOUS
62
  7
10
883.351
20
526.968
30
0.0
40
1.500
0
CIRCLE
5
1144
8
0-0
6
CONTINUOUS
62
  7
10
895.405
20
524.570
30
0.0
40
1.500
0
CIRCLE
5
1145
8
0-0
6
CONTINUOUS
62
  7
10
907.460
20
526.968
30
0.0
40
1.500
0
CIRCLE
5
1146
8
0-0
6
CONTINUOUS
62
  7
10
917.679
20
533.796
30
0.0
40
1.500
0
CIRCLE
5
1147
8
0-0
6
CONTINUOUS
62
  7
10
924.508
20
544.016
30
0.0
40
1.500
0
CIRCLE
5
1148
8
0-0
6
CONTINUOUS
62
  7
10
926.905
20
556.070
30
0.0
40
1.500
0
CIRCLE
5
1149
8
0-0
6
CONTINUOUS
62
  7
10
924.508
20
568.125
30
0.0
40
1.500
0
CIRCLE
5
114a
8
0-0
6
CONTINUOUS
62
  7
10
917.679
20
578.344
30
0.0
40
1.500
0
CIRCLE
5
114b
8
0-0
6
CONTINUOUS
62
  7
10
907.460
20
585.172
30
0.0
40
1.500
0
ARC
5
114c
8
0-0
6
CONTINUOUS
62
  7
10
956.959
20
551.291
30
0.0
40
1.554
50
73.284592
51
178.790741
0
ARC
5
114d
8
0-0
6
CONTINUOUS
62
  7
10
958.717
20
523.778
30
0.0
40
3.318
50
183.907471
51
246.736267
0
ARC
5
114e
8
0-0
6
CONTINUOUS
62
  7
10
1088.734
20
541.735
30
0.0
40
1.673
50
358.435120
51
101.300797
0
ARC
5
114f
8
0-0
6
CONTINUOUS
62
  7
10
1087.048
20
521.391
30
0.0
40
3.380
50
293.693634
51
353.519409
0
ARC
5
1150
8
0-0
6
CONTINUOUS
62
  7
10
1026.671
20
722.156
30
0.0
40
213.003
50
251.023300
51
286.847839
0
ARC
5
1151
8
0-0
6
CONTINUOUS
62
  7
10
1042.238
20
817.384
30
0.0
40
277.871
50
252.224289
51
279.564056
0
ARC
5
1152
8
0-0
6
CONTINUOUS
62
  7
10
1042.238
20
817.384
30
0.0
40
283.871
50
253.456223
51
278.542755
0
ARC
5
1153
8
0-0
6
CONTINUOUS
62
  7
10
1026.671
20
722.156
30
0.0
40
207.003
50
251.621948
51
286.195068
0
ARC
5
1154
8
0-0
6
CONTINUOUS
62
  7
10
1026.671
20
722.156
30
0.0
40
208.003
50
251.423080
51
286.402008
0
ARC
5
1155
8
0-0
6
CONTINUOUS
62
  7
10
1042.238
20
817.384
30
0.0
40
282.871
50
253.184555
51
278.778076
0
ARC
5
1156
8
0-0
6
CONTINUOUS
62
  7
10
1026.239
20
524.974
30
0.0
40
4.833
50
133.603226
51
226.396774
0
ARC
5
1157
8
0-0
6
CONTINUOUS
62
  7
10
1019.573
20
524.974
30
0.0
40
4.833
50
313.603210
51
46.396774
0
ARC
5
1158
8
0-0
6
CONTINUOUS
62
  7
10
1028.104
20
516.479
30
0.0
40
4.833
50
433.603210
51
526.396790
0
ARC
5
1159
8
0-0
6
CONTINUOUS
62
  7
10
1024.771
20
522.252
30
0.0
40
4.833
50
613.603210
51
346.396790
0
ARC
5
115a
8
0-0
6
CONTINUOUS
62
  7
10
1017.708
20
516.479
30
0.0
40
4.833
50
373.603210
51
466.396759
0
ARC
5
115b
8
0-0
6
CONTINUOUS
62
  7
10
1021.042
20
522.252
30
0.0
40
4.833
50
553.603210
51
286.396759
0
ARC
5
115c
8
0-0
6
CONTINUOUS
62
  7
10
1036.473
20
524.350
30
0.0
40
3.325
50
118.669327
51
162.529541
0
ARC
5
115d
8
0-0
6
CONTINUOUS
62
  7
10
1036.194
20
524.861
30
0.0
40
2.743
50
5.894485
51
118.669556
0
ARC
5
115e
8
0-0
6
CONTINUOUS
62
  7
10
1030.048
20
524.226
30
0.0
40
8.921
50
299.185181
51
5.894394
0
ARC
5
115f
8
0-0
6
CONTINUOUS
62
  7
10
1032.887
20
522.371
30
0.0
40
4.675
50
356.162231
51
20.095398
0
ARC
5
1160
8
0-0
6
CONTINUOUS
62
  7
10
1030.071
20
522.560
30
0.0
40
7.497
50
305.255981
51
356.162292
0
ARC
5
1161
8
0-0
6
CONTINUOUS
62
  7
10
1034.610
20
524.936
30
0.0
40
1.372
50
162.529739
51
350.784485
0
ARC
5
1162
8
0-0
6
CONTINUOUS
62
  7
10
1036.188
20
523.579
30
0.0
40
1.160
50
20.095261
51
101.137894
0
ARC
5
1163
8
0-0
6
CONTINUOUS
62
  7
10
1042.758
20
528.590
30
0.0
40
3.325
50
118.669327
51
162.529541
0
ARC
5
1164
8
0-0
6
CONTINUOUS
62
  7
10
1040.895
20
529.177
30
0.0
40
1.372
50
162.529739
51
350.784485
0
ARC
5
1165
8
0-0
6
CONTINUOUS
62
  7
10
1042.935
20
528.277
30
0.0
40
3.685
50
27.623322
51
118.737656
0
ARC
5
1166
8
0-0
6
CONTINUOUS
62
  7
10
1041.113
20
527.323
30
0.0
40
5.741
50
352.538086
51
27.623352
0
ARC
5
1167
8
0-0
6
CONTINUOUS
62
  7
10
1035.137
20
528.106
30
0.0
40
11.768
50
301.023010
51
352.538025
0
ARC
5
1168
8
0-0
6
CONTINUOUS
62
  7
10
1043.167
20
528.188
30
0.0
40
1.197
50
57.783249
51
140.024597
0
ARC
5
1169
8
0-0
6
CONTINUOUS
62
  7
10
1042.690
20
527.432
30
0.0
40
2.091
50
13.292587
51
57.783340
0
ARC
5
116a
8
0-0
6
CONTINUOUS
62
  7
10
1035.318
20
525.690
30
0.0
40
9.666
50
307.499268
51
13.292603
0
ARC
5
116b
8
0-0
6
CONTINUOUS
62
  7
10
1059.197
20
527.311
30
0.0
40
1.059
50
70.999924
51
284.594666
0
ARC
5
116c
8
0-0
6
CONTINUOUS
62
  7
10
1058.139
20
531.373
30
0.0
40
5.256
50
284.594360
51
317.841919
0
ARC
5
116d
8
0-0
6
CONTINUOUS
62
  7
10
1059.995
20
529.692
30
0.0
40
2.752
50
317.842133
51
88.084778
0
ARC
5
116e
8
0-0
6
CONTINUOUS
62
  7
10
1059.850
20
525.362
30
0.0
40
7.085
50
88.084595
51
144.448746
0
ARC
5
116f
8
0-0
6
CONTINUOUS
62
  7
10
1057.962
20
529.227
30
0.0
40
1.825
50
329.919250
51
96.700760
0
ARC
5
1170
8
0-0
6
CONTINUOUS
62
  7
10
1058.574
20
524.018
30
0.0
40
7.070
50
96.700546
51
129.401627
0
ARC
5
1171
8
0-0
6
CONTINUOUS
62
  7
10
1053.315
20
520.491
30
0.0
40
1.732
50
105.240036
51
245.231003
0
ARC
5
1172
8
0-0
6
CONTINUOUS
62
  7
10
1053.508
20
520.910
30
0.0
40
2.193
50
245.230499
51
347.897675
0
ARC
5
1173
8
0-0
6
CONTINUOUS
62
  7
10
1049.865
20
521.692
30
0.0
40
5.920
50
347.897827
51
23.524200
0
ARC
5
1174
8
0-0
6
CONTINUOUS
62
  7
10
1052.935
20
523.028
30
0.0
40
2.570
50
23.523972
51
95.717041
0
ARC
5
1175
8
0-0
6
CONTINUOUS
62
  7
10
1053.354
20
518.851
30
0.0
40
6.768
50
95.716873
51
134.316071
0
ARC
5
1176
8
0-0
6
CONTINUOUS
62
  7
10
1050.022
20
521.100
30
0.0
40
2.946
50
21.140121
51
118.294769
0
ARC
5
1177
8
0-0
6
CONTINUOUS
62
  7
10
1067.547
20
525.840
30
0.0
40
1.964
50
194.560944
51
281.428284
0
ARC
5
1178
8
0-0
6
CONTINUOUS
62
  7
10
1067.077
20
528.167
30
0.0
40
4.339
50
281.428650
51
4.337677
0
ARC
5
1179
8
0-0
6
CONTINUOUS
62
  7
10
1066.309
20
528.109
30
0.0
40
5.109
50
4.337646
51
31.598572
0
ARC
5
117a
8
0-0
6
CONTINUOUS
62
  7
10
1067.476
20
528.826
30
0.0
40
3.739
50
31.598648
51
76.162277
0
ARC
5
117b
8
0-0
6
CONTINUOUS
62
  7
10
1064.715
20
517.616
30
0.0
40
15.285
50
76.162231
51
87.898865
0
ARC
5
117c
8
0-0
6
CONTINUOUS
62
  7
10
1064.052
20
527.398
30
0.0
40
5.627
50
27.324509
51
77.447830
0
ARC
5
117d
8
0-0
6
CONTINUOUS
62
  7
10
1067.376
20
529.115
30
0.0
40
1.885
50
314.762085
51
27.325027
0
ARC
5
117e
8
0-0
6
CONTINUOUS
62
  7
10
1067.714
20
525.883
30
0.0
40
2.137
50
62.412979
51
194.560898
0
ARC
5
117f
8
0-0
6
CONTINUOUS
62
  7
10
1078.602
20
531.392
30
0.0
40
2.554
50
164.464676
51
224.605484
0
ARC
5
1180
8
0-0
6
CONTINUOUS
62
  7
10
1079.103
20
531.253
30
0.0
40
3.073
50
75.783356
51
164.464722
0
ARC
5
1181
8
0-0
6
CONTINUOUS
62
  7
10
1078.939
20
530.607
30
0.0
40
3.740
50
29.405350
51
75.783447
0
ARC
5
1182
8
0-0
6
CONTINUOUS
62
  7
10
1078.467
20
530.340
30
0.0
40
4.282
50
358.669006
51
29.405548
0
ARC
5
1183
8
0-0
6
CONTINUOUS
62
  7
10
1048.372
20
531.040
30
0.0
40
34.384
50
355.607056
51
358.669006
0
ARC
5
1184
8
0-0
6
CONTINUOUS
62
  7
10
1078.875
20
528.696
30
0.0
40
3.792
50
312.097961
51
355.606873
0
ARC
5
1185
8
0-0
6
CONTINUOUS
62
  7
10
1079.610
20
527.883
30
0.0
40
2.695
50
258.603699
51
312.097839
0
ARC
5
1186
8
0-0
6
CONTINUOUS
62
  7
10
1080.460
20
532.099
30
0.0
40
6.996
50
237.413803
51
258.603638
0
ARC
5
1187
8
0-0
6
CONTINUOUS
62
  7
10
1078.375
20
528.929
30
0.0
40
3.203
50
238.301224
51
313.787506
0
ARC
5
1188
8
0-0
6
CONTINUOUS
62
  7
10
1077.781
20
530.582
30
0.0
40
1.401
50
224.605423
51
350.741547
0
ARC
5
1189
8
0-0
6
CONTINUOUS
62
  7
10
1079.088
20
528.185
30
0.0
40
2.173
50
313.787659
51
88.016068
0
ARC
5
118a
8
0-0
6
CONTINUOUS
62
  7
10
1077.127
20
525.252
30
0.0
40
3.677
50
149.772629
51
210.227783
0
ARC
5
118b
8
0-0
6
CONTINUOUS
62
  7
10
1070.772
20
525.252
30
0.0
40
3.677
50
329.772217
51
30.227371
0
ARC
5
118c
8
0-0
6
CONTINUOUS
62
  7
10
1009.339
20
524.350
30
0.0
40
3.325
50
377.470459
51
421.330688
0
ARC
5
118d
8
0-0
6
CONTINUOUS
62
  7
10
1009.618
20
524.861
30
0.0
40
2.743
50
421.330444
51
534.105530
0
ARC
5
118e
8
0-0
6
CONTINUOUS
62
  7
10
1015.764
20
524.226
30
0.0
40
8.921
50
534.105591
51
240.814804
0
ARC
5
118f
8
0-0
6
CONTINUOUS
62
  7
10
1012.925
20
522.371
30
0.0
40
4.675
50
519.904602
51
183.837784
0
ARC
5
1190
8
0-0
6
CONTINUOUS
62
  7
10
1015.741
20
522.560
30
0.0
40
7.497
50
183.837708
51
234.744003
0
ARC
5
1191
8
0-0
6
CONTINUOUS
62
  7
10
1011.202
20
524.936
30
0.0
40
1.372
50
189.215500
51
377.470276
0
ARC
5
1192
8
0-0
6
CONTINUOUS
62
  7
10
1009.624
20
523.579
30
0.0
40
1.160
50
438.862122
51
519.904724
0
ARC
5
1193
8
0-0
6
CONTINUOUS
62
  7
10
1003.054
20
528.590
30
0.0
40
3.325
50
377.470459
51
421.330688
0
ARC
5
1194
8
0-0
6
CONTINUOUS
62
  7
10
1004.917
20
529.177
30
0.0
40
1.372
50
189.215500
51
377.470276
0
ARC
5
1195
8
0-0
6
CONTINUOUS
62
  7
10
1002.877
20
528.277
30
0.0
40
3.685
50
421.262329
51
512.376709
0
ARC
5
1196
8
0-0
6
CONTINUOUS
62
  7
10
1004.699
20
527.323
30
0.0
40
5.741
50
512.376648
51
187.461929
0
ARC
5
1197
8
0-0
6
CONTINUOUS
62
  7
10
1010.675
20
528.106
30
0.0
40
11.768
50
187.461960
51
238.977005
0
ARC
5
1198
8
0-0
6
CONTINUOUS
62
  7
10
1002.645
20
528.188
30
0.0
40
1.197
50
399.975403
51
482.216736
0
ARC
5
1199
8
0-0
6
CONTINUOUS
62
  7
10
1003.122
20
527.432
30
0.0
40
2.091
50
482.216675
51
526.707397
0
ARC
5
119a
8
0-0
6
CONTINUOUS
62
  7
10
1010.495
20
525.690
30
0.0
40
9.666
50
526.707397
51
232.500748
0
ARC
5
119b
8
0-0
6
CONTINUOUS
62
  7
10
988.047
20
530.174
30
0.0
40
1.059
50
255.405319
51
469.000061
0
ARC
5
119c
8
0-0
6
CONTINUOUS
62
  7
10
989.104
20
534.236
30
0.0
40
5.256
50
222.158081
51
255.405624
0
ARC
5
119d
8
0-0
6
CONTINUOUS
62
  7
10
987.249
20
532.555
30
0.0
40
2.752
50
451.915222
51
222.157867
0
ARC
5
119e
8
0-0
6
CONTINUOUS
62
  7
10
987.393
20
528.225
30
0.0
40
7.085
50
395.551270
51
451.915405
0
ARC
5
119f
8
0-0
6
CONTINUOUS
62
  7
10
989.282
20
532.090
30
0.0
40
1.825
50
443.299255
51
210.080750
0
ARC
5
11a0
8
0-0
6
CONTINUOUS
62
  7
10
988.670
20
526.881
30
0.0
40
7.070
50
410.598389
51
443.299438
0
ARC
5
11a1
8
0-0
6
CONTINUOUS
62
  7
10
992.497
20
521.350
30
0.0
40
1.732
50
294.768982
51
434.759949
0
ARC
5
11a2
8
0-0
6
CONTINUOUS
62
  7
10
992.304
20
521.769
30
0.0
40
2.193
50
192.102325
51
294.769501
0
ARC
5
11a3
8
0-0
6
CONTINUOUS
62
  7
10
995.948
20
522.550
30
0.0
40
5.920
50
516.475830
51
192.102158
0
ARC
5
11a4
8
0-0
6
CONTINUOUS
62
  7
10
992.877
20
523.887
30
0.0
40
2.570
50
444.282959
51
516.476013
0
ARC
5
11a5
8
0-0
6
CONTINUOUS
62
  7
10
992.458
20
519.710
30
0.0
40
6.768
50
405.683929
51
444.283142
0
ARC
5
11a6
8
0-0
6
CONTINUOUS
62
  7
10
995.790
20
521.959
30
0.0
40
2.946
50
421.705231
51
518.859863
0
ARC
5
11a7
8
0-0
6
CONTINUOUS
62
  7
10
978.264
20
524.981
30
0.0
40
1.964
50
258.571716
51
345.439056
0
ARC
5
11a8
8
0-0
6
CONTINUOUS
62
  7
10
978.735
20
527.308
30
0.0
40
4.339
50
535.662354
51
258.571350
0
ARC
5
11a9
8
0-0
6
CONTINUOUS
62
  7
10
979.503
20
527.250
30
0.0
40
5.109
50
508.401428
51
535.662354
0
ARC
5
11aa
8
0-0
6
CONTINUOUS
62
  7
10
978.336
20
527.968
30
0.0
40
3.739
50
463.837708
51
508.401367
0
ARC
5
11ab
8
0-0
6
CONTINUOUS
62
  7
10
981.098
20
516.757
30
0.0
40
15.285
50
452.101135
51
463.837769
0
ARC
5
11ac
8
0-0
6
CONTINUOUS
62
  7
10
981.760
20
526.539
30
0.0
40
5.627
50
462.552185
51
512.675476
0
ARC
5
11ad
8
0-0
6
CONTINUOUS
62
  7
10
978.436
20
528.256
30
0.0
40
1.885
50
512.674988
51
225.237930
0
ARC
5
11ae
8
0-0
6
CONTINUOUS
62
  7
10
978.098
20
525.024
30
0.0
40
2.137
50
345.439087
51
477.587036
0
ARC
5
11af
8
0-0
6
CONTINUOUS
62
  7
10
967.210
20
537.405
30
0.0
40
2.554
50
315.394531
51
375.535339
0
ARC
5
11b0
8
0-0
6
CONTINUOUS
62
  7
10
966.709
20
537.265
30
0.0
40
3.073
50
375.535278
51
464.216644
0
ARC
5
11b1
8
0-0
6
CONTINUOUS
62
  7
10
966.873
20
536.619
30
0.0
40
3.740
50
464.216553
51
510.594666
0
ARC
5
11b2
8
0-0
6
CONTINUOUS
62
  7
10
967.346
20
536.353
30
0.0
40
4.282
50
510.594452
51
181.330994
0
ARC
5
11b3
8
0-0
6
CONTINUOUS
62
  7
10
997.440
20
537.052
30
0.0
40
34.384
50
181.330978
51
184.392944
0
ARC
5
11b4
8
0-0
6
CONTINUOUS
62
  7
10
966.937
20
534.709
30
0.0
40
3.792
50
184.393143
51
227.902039
0
ARC
5
11b5
8
0-0
6
CONTINUOUS
62
  7
10
966.202
20
533.895
30
0.0
40
2.695
50
227.902145
51
281.396301
0
ARC
5
11b6
8
0-0
6
CONTINUOUS
62
  7
10
965.352
20
538.111
30
0.0
40
6.996
50
281.396362
51
302.586182
0
ARC
5
11b7
8
0-0
6
CONTINUOUS
62
  7
10
967.437
20
534.942
30
0.0
40
3.203
50
226.212494
51
301.698792
0
ARC
5
11b8
8
0-0
6
CONTINUOUS
62
  7
10
968.031
20
536.595
30
0.0
40
1.401
50
189.258453
51
315.394592
0
ARC
5
11b9
8
0-0
6
CONTINUOUS
62
  7
10
966.724
20
534.198
30
0.0
40
2.173
50
451.983948
51
226.212341
0
ARC
5
11ba
8
0-0
6
CONTINUOUS
62
  7
10
968.685
20
528.688
30
0.0
40
3.677
50
329.772217
51
390.227356
0
ARC
5
11bb
8
0-0
6
CONTINUOUS
62
  7
10
975.040
20
528.688
30
0.0
40
3.677
50
509.772644
51
210.227783
0
CIRCLE
5
11bc
8
0-0
6
CONTINUOUS
62
  7
10
974.156
20
545.405
30
0.0
40
1.500
0
CIRCLE
5
11bd
8
0-0
6
CONTINUOUS
62
  7
10
957.906
20
549.997
30
0.0
40
1.500
0
CIRCLE
5
11be
8
0-0
6
CONTINUOUS
62
  7
10
990.406
20
541.846
30
0.0
40
1.500
0
CIRCLE
5
11bf
8
0-0
6
CONTINUOUS
62
  7
10
1006.656
20
539.280
30
0.0
40
1.500
0
CIRCLE
5
11c0
8
0-0
6
CONTINUOUS
62
  7
10
1022.906
20
537.680
30
0.0
40
1.500
0
CIRCLE
5
11c1
8
0-0
6
CONTINUOUS
62
  7
10
1039.156
20
537.030
30
0.0
40
1.500
0
CIRCLE
5
11c2
8
0-0
6
CONTINUOUS
62
  7
10
1055.406
20
537.323
30
0.0
40
1.500
0
CIRCLE
5
11c3
8
0-0
6
CONTINUOUS
62
  7
10
1071.656
20
538.561
30
0.0
40
1.500
0
CIRCLE
5
11c4
8
0-0
6
CONTINUOUS
62
  7
10
1087.906
20
540.758
30
0.0
40
1.500
0
CIRCLE
5
11c5
8
0-0
6
CONTINUOUS
62
  7
10
1087.906
20
530.627
30
0.0
40
1.500
0
CIRCLE
5
11c6
8
0-0
6
CONTINUOUS
62
  7
10
1087.906
20
520.757
30
0.0
40
1.500
0
CIRCLE
5
11c7
8
0-0
6
CONTINUOUS
62
  7
10
1071.656
20
516.516
30
0.0
40
1.500
0
CIRCLE
5
11c8
8
0-0
6
CONTINUOUS
62
  7
10
1055.406
20
513.624
30
0.0
40
1.500
0
CIRCLE
5
11c9
8
0-0
6
CONTINUOUS
62
  7
10
1039.156
20
512.024
30
0.0
40
1.500
0
CIRCLE
5
11ca
8
0-0
6
CONTINUOUS
62
  7
10
1022.906
20
511.687
30
0.0
40
1.500
0
CIRCLE
5
11cb
8
0-0
6
CONTINUOUS
62
  7
10
1006.656
20
512.607
30
0.0
40
1.500
0
CIRCLE
5
11cc
8
0-0
6
CONTINUOUS
62
  7
10
990.406
20
514.801
30
0.0
40
1.500
0
CIRCLE
5
11cd
8
0-0
6
CONTINUOUS
62
  7
10
974.156
20
518.309
30
0.0
40
1.500
0
CIRCLE
5
11ce
8
0-0
6
CONTINUOUS
62
  7
10
957.906
20
523.202
30
0.0
40
1.500
0
CIRCLE
5
11cf
8
0-0
6
CONTINUOUS
62
  7
10
957.906
20
535.873
30
0.0
40
1.500
0
ARC
5
11d0
8
0-0
6
CONTINUOUS
62
  7
10
848.653
20
915.451
30
0.0
40
7.171
50
316.927490
51
340.336426
0
ARC
5
11d1
8
0-0
6
CONTINUOUS
62
  7
10
1304.058
20
932.754
30
0.0
40
49.457
50
322.255859
51
0.450485
0
CIRCLE
5
11d2
8
ADD_LINE
6
HIDDEN
62
  3
10
1120.406
20
559.459
30
0.0
40
3.000
0
TEXT
5
11d3
100
AcDbEntity
8
0-0
62
7
100
AcDbText
10
998.531
20
703.660
30
0.0
40
9.750
41
0.800
50
0.000
1
305
100
AcDbText
0
TEXT
5
11d4
100
AcDbEntity
8
0-0
62
7
100
AcDbText
10
978.530
20
667.659
30
0.0
40
9.750
41
0.800
50
0.000
1
265
100
AcDbText
0
TEXT
5
11d5
100
AcDbEntity
8
0-0
62
7
100
AcDbText
10
998.530
20
1367.719
30
0.0
40
9.750
41
0.800
50
0.000
1
305
100
AcDbText
0
TEXT
5
11d6
100
AcDbEntity
8
0-0
62
7
100
AcDbText
10
1021.030
20
1316.879
30
0.0
40
9.750
41
0.800
50
0.000
1
260
100
AcDbText
0
TEXT
5
11d7
100
AcDbEntity
8
0-0
62
7
100
AcDbText
10
871.655
20
1316.879
30
0.0
40
9.750
41
0.800
50
0.000
1
45
100
AcDbText
0
TEXT
5
11d8
100
AcDbEntity
8
0-0
62
7
100
AcDbText
10
642.812
20
1048.678
30
0.0
40
9.750
41
0.800
50
90.000
1
295
100
AcDbText
0
TEXT
5
11d9
100
AcDbEntity
8
0-0
62
7
100
AcDbText
10
751.168
20
1179.304
30
0.0
40
9.750
41
0.800
50
90.000
1
40
100
AcDbText
0
TEXT
5
11da
100
AcDbEntity
8
0-0
62
7
100
AcDbText
10
1563.458
20
1048.678
30
0.0
40
9.750
41
0.800
50
90.000
1
295
100
AcDbText
0
TEXT
5
11db
100
AcDbEntity
8
0-0
62
7
100
AcDbText
10
1391.764
20
1316.879
30
0.0
40
9.750
41
0.800
50
0.000
1
17
100
AcDbText
0
TEXT
5
11dc
100
AcDbEntity
8
0-0
62
7
100
AcDbText
10
740.980
20
549.820
30
0.0
40
9.750
41
0.800
50
90.000
1
90
100
AcDbText
0
TEXT
5
11dd
100
AcDbEntity
8
0-0
62
7
100
AcDbText
10
740.980
20
896.303
30
0.0
40
9.750
41
0.800
50
90.000
1
16
100
AcDbText
0
POINT
5
11de
8
0-0
62
  7
10
855.405
20
701.160
30
0.0
0
POINT
5
11df
8
0-0
62
  7
10
1160.406
20
701.160
30
0.0
0
POINT
5
11e0
8
0-0
62
  7
10
855.405
20
665.159
30
0.0
0
POINT
5
11e1
8
0-0
62
  7
10
1120.406
20
665.159
30
0.0
0
POINT
5
11e2
8
0-0
62
  7
10
855.405
20
1365.219
30
0.0
0
POINT
5
11e3
8
0-0
62
  7
10
1160.405
20
1365.219
30
0.0
0
POINT
5
11e4
8
0-0
62
  7
10
1160.405
20
1314.379
30
0.0
0
POINT
5
11e5
8
0-0
62
  7
10
900.405
20
1314.379
30
0.0
0
POINT
5
11e6
8
0-0
62
  7
10
855.406
20
1314.379
30
0.0
0
POINT
5
11e7
8
0-0
62
  7
10
645.312
20
1205.553
30
0.0
0
POINT
5
11e8
8
0-0
62
  7
10
645.312
20
910.553
30
0.0
0
POINT
5
11e9
8
0-0
62
  7
10
753.668
20
1205.553
30
0.0
0
POINT
5
11ea
8
0-0
62
  7
10
753.668
20
1165.554
30
0.0
0
POINT
5
11eb
8
0-0
62
  7
10
1565.958
20
1205.553
30
0.0
0
POINT
5
11ec
8
0-0
62
  7
10
1565.958
20
910.553
30
0.0
0
POINT
5
11ed
8
0-0
62
  7
10
1389.514
20
1314.379
30
0.0
0
POINT
5
11ee
8
0-0
62
  7
10
1406.514
20
1314.379
30
0.0
0
POINT
5
11ef
8
0-0
62
  7
10
743.480
20
601.070
30
0.0
0
POINT
5
11f0
8
0-0
62
  7
10
743.480
20
511.070
30
0.0
0
POINT
5
11f1
8
0-0
62
  7
10
743.480
20
910.553
30
0.0
0
POINT
5
11f2
8
0-0
62
  7
10
743.480
20
894.553
30
0.0
0
ENDSEC
0
EOF
