0
SECTION
2
HEADER
  9
$EXTMIN
10
0
20
0
30
0
  9
$EXTMAX
10
1924.269
20
2175.040
30
0
  9
$LTSCALE
40
5.000
  9
$DIMSCALE
40
5.000
  9
$PDMODE
70
0
  9
$PDSIZE
40
40
0
ENDSEC
0
SECTION
2
TABLES
0
TABLE
2
LTYPE
70
9
0
LTYPE
5
1f4
2
CONTINUOUS
70
0
3
実線
72
65
73
0
40
0.0
0
LTYPE
5
1f5
2
DOT
70
0
3
--  --  --  --  --  --  --  --     
72
65
73
2
40
5.000
49
1.000
49
-4.000
0
LTYPE
5
1f6
2
DASHED
70
0
3
----    ----    ----    ----    
72
65
73
2
40
5.000
49
2.000
49
-3.000
0
LTYPE
5
1f7
2
DASHED2
70
0
3
------  ------  ------  ------ 
72
65
73
2
40
10.000
49
4.000
49
-6.000
0
LTYPE
5
1f8
2
CENTER
70
0
3
----- - ----- - ----- - ----- - 
72
65
73
4
40
9.000
49
6.000
49
-1.000
49
1.000
49
-1.000
0
LTYPE
5
1f9
2
CENTER2
70
0
3
----------  --  ----------  -- 
72
65
73
4
40
18.000
49
12.000
49
-2.000
49
2.000
49
-2.000
0
LTYPE
5
1fa
2
PHANTOM
70
0
3
--- - - --- - - --- - - --- - -
72
65
73
6
40
10.000
49
5.000
49
-1.000
49
1.000
49
-1.000
49
1.000
49
-1.000
0
LTYPE
5
1fb
2
PHANTOM2
70
0
3
--------  -  -  --------  -  -
72
65
73
6
40
16.000
49
6.000
49
-2.000
49
2.000
49
-2.000
49
2.000
49
-2.000
0
LTYPE
5
1fc
2
HIDDEN
70
0
3
-   -   -   -   -   -   -   -   
72
65
73
2
40
2.500
49
0.500
49
-2.000
0
ENDTAB
0
TABLE
2
STYLE
70
1
0
STYLE
5
1fd
100
AcDbSymbolTableRecord
100
AcDbTextStyleTableRecord
2
STANDARD
70
0
40
0.0
41
1.0
50
0.0
71
0
42
0.0
3
txt.shx
4
extfont.shx
0
STYLE
5
1fe
100
AcDbSymbolTableRecord
100
AcDbTextStyleTableRecord
2
TATEGAKI
70
4
40
0.0
41
1.0
50
0.0
71
0
42
0.0
3
txt.shx
4
extfont.shx
0
STYLE
5
1ff
100
AcDbSymbolTableRecord
100
AcDbTextStyleTableRecord
2
MT
70
0
40
0.0
41
1.0
50
0.0
71
0
42
0.0
3
MS Mincho
4

0
STYLE
5
200
100
AcDbSymbolTableRecord
100
AcDbTextStyleTableRecord
2
TMT
70
4
40
0.0
41
1.0
50
0.0
71
0
42
0.0
3
@MS Mincho
4

0
ENDTAB
0
TABLE
2
LAYER
5
29f1
100
AcDbSymbolTable
70
10
0
LAYER
5
29f2
100
AcDbSymbolTableRecord
100
AcDbLayerTableRecord
2
0
70
64
62
  7
  6
CONTINUOUS
0
LAYER
5
29f3
100
AcDbSymbolTableRecord
100
AcDbLayerTableRecord
2
0-0
70
64
62
  7
  6
CONTINUOUS
0
LAYER
5
29f4
100
AcDbSymbolTableRecord
100
AcDbLayerTableRecord
2
ADD_LINE
70
64
62
  -7
  6
CONTINUOUS
0
ENDTAB
0
ENDSEC
0
SECTION
2
ENTITIES
0
LINE
5
29f5
8
0-0
6
CONTINUOUS
62
  7
10
1000.358
20
354.649
30
0.0
11
1000.358
21
317.649
31
0.0
0
LINE
5
29f6
8
0-0
6
CONTINUOUS
62
  7
10
1283.358
20
295.437
30
0.0
11
1305.358
21
286.649
31
0.0
0
LINE
5
29f7
8
0-0
6
CONTINUOUS
62
  7
10
1305.358
20
301.649
30
0.0
11
1305.358
21
264.649
31
0.0
0
LINE
5
29f8
8
0-0
6
CONTINUOUS
62
  7
10
686.129
20
354.649
30
0.0
11
686.129
21
317.649
31
0.0
0
LINE
5
29f9
8
0-0
6
CONTINUOUS
62
  7
10
1000.358
20
759.541
30
0.0
11
1305.358
21
759.541
31
0.0
0
LINE
5
29fa
8
0-0
6
CONTINUOUS
62
  7
10
1305.358
20
759.541
30
0.0
11
1305.358
21
1049.541
31
0.0
0
LINE
5
29fb
8
0-0
6
CONTINUOUS
62
  7
10
1000.358
20
759.541
30
0.0
11
1000.358
21
784.541
31
0.0
0
LINE
5
29fc
8
0-0
6
CONTINUOUS
62
  7
10
1285.358
20
1049.541
30
0.0
11
1000.358
21
784.541
31
0.0
0
LINE
5
29fd
8
0-0
6
CONTINUOUS
62
  7
10
1285.358
20
1049.541
30
0.0
11
1305.358
21
1049.541
31
0.0
0
LINE
5
29fe
8
0-0
6
CONTINUOUS
62
  7
10
1305.358
20
779.541
30
0.0
11
1283.358
21
759.541
31
0.0
0
LINE
5
29ff
8
0-0
6
CONTINUOUS
62
  7
10
1299.358
20
799.541
30
0.0
11
1299.358
21
1049.541
31
0.0
0
LINE
5
2a00
8
0-0
6
CONTINUOUS
62
  7
10
1299.358
20
799.541
30
0.0
11
1305.358
21
799.541
31
0.0
0
LINE
5
2a01
8
0-0
6
CONTINUOUS
62
  7
10
1284.358
20
799.541
30
0.0
11
1284.358
21
1024.541
31
0.0
0
LINE
5
2a02
8
0-0
6
CONTINUOUS
62
  7
10
1284.358
20
1024.541
30
0.0
11
1289.358
21
1024.541
31
0.0
0
LINE
5
2a03
8
0-0
6
CONTINUOUS
62
  7
10
1289.358
20
799.541
30
0.0
11
1289.358
21
1024.541
31
0.0
0
LINE
5
2a04
8
0-0
6
CONTINUOUS
62
  7
10
1284.358
20
799.541
30
0.0
11
1289.358
21
799.541
31
0.0
0
LINE
5
2a05
8
0-0
6
CONTINUOUS
62
  7
10
1066.610
20
826.879
30
0.0
11
1070.886
21
828.488
31
0.0
0
LINE
5
2a06
8
0-0
6
CONTINUOUS
62
  7
10
1070.886
20
828.488
30
0.0
11
1078.254
21
831.254
31
0.0
0
LINE
5
2a07
8
0-0
6
CONTINUOUS
62
  7
10
1078.254
20
831.254
30
0.0
11
1085.660
21
834.014
31
0.0
0
LINE
5
2a08
8
0-0
6
CONTINUOUS
62
  7
10
1085.660
20
834.014
30
0.0
11
1093.129
21
836.763
31
0.0
0
LINE
5
2a09
8
0-0
6
CONTINUOUS
62
  7
10
1093.129
20
836.763
30
0.0
11
1097.499
21
838.352
31
0.0
0
LINE
5
2a0a
8
0-0
6
CONTINUOUS
62
  7
10
1097.499
20
838.352
30
0.0
11
1101.711
21
839.877
31
0.0
0
LINE
5
2a0b
8
0-0
6
CONTINUOUS
62
  7
10
1101.711
20
839.877
30
0.0
11
1109.052
21
842.663
31
0.0
0
LINE
5
2a0c
8
0-0
6
CONTINUOUS
62
  7
10
1109.052
20
842.663
30
0.0
11
1116.376
21
845.875
31
0.0
0
LINE
5
2a0d
8
0-0
6
CONTINUOUS
62
  7
10
1116.376
20
845.875
30
0.0
11
1123.391
21
849.732
31
0.0
0
LINE
5
2a0e
8
0-0
6
CONTINUOUS
62
  7
10
1123.391
20
849.732
30
0.0
11
1127.408
21
852.491
31
0.0
0
LINE
5
2a0f
8
0-0
6
CONTINUOUS
62
  7
10
1127.408
20
852.491
30
0.0
11
1132.645
21
856.968
31
0.0
0
LINE
5
2a10
8
0-0
6
CONTINUOUS
62
  7
10
1132.645
20
856.968
30
0.0
11
1140.209
21
865.693
31
0.0
0
LINE
5
2a11
8
0-0
6
CONTINUOUS
62
  7
10
1140.209
20
865.693
30
0.0
11
1146.539
21
875.497
31
0.0
0
LINE
5
2a12
8
0-0
6
CONTINUOUS
62
  7
10
1146.539
20
875.497
30
0.0
11
1151.946
21
885.787
31
0.0
0
LINE
5
2a13
8
0-0
6
CONTINUOUS
62
  7
10
1151.946
20
885.787
30
0.0
11
1154.829
21
891.852
31
0.0
0
LINE
5
2a14
8
0-0
6
CONTINUOUS
62
  7
10
1154.829
20
891.852
30
0.0
11
1157.313
21
897.235
31
0.0
0
LINE
5
2a15
8
0-0
6
CONTINUOUS
62
  7
10
1157.313
20
897.235
30
0.0
11
1161.557
21
906.211
31
0.0
0
LINE
5
2a16
8
0-0
6
CONTINUOUS
62
  7
10
1161.557
20
906.211
30
0.0
11
1166.005
21
914.521
31
0.0
0
LINE
5
2a17
8
0-0
6
CONTINUOUS
62
  7
10
1166.005
20
914.521
30
0.0
11
1170.992
21
921.975
31
0.0
0
LINE
5
2a18
8
0-0
6
CONTINUOUS
62
  7
10
1170.992
20
921.975
30
0.0
11
1174.108
21
925.652
31
0.0
0
LINE
5
2a19
8
0-0
6
CONTINUOUS
62
  7
10
1174.108
20
925.652
30
0.0
11
1178.113
21
929.464
31
0.0
0
LINE
5
2a1a
8
0-0
6
CONTINUOUS
62
  7
10
1178.113
20
929.464
30
0.0
11
1186.353
21
935.381
31
0.0
0
LINE
5
2a1b
8
0-0
6
CONTINUOUS
62
  7
10
1186.353
20
935.381
30
0.0
11
1195.759
21
940.387
31
0.0
0
LINE
5
2a1c
8
0-0
6
CONTINUOUS
62
  7
10
1195.759
20
940.387
30
0.0
11
1206.162
21
944.784
31
0.0
0
LINE
5
2a1d
8
0-0
6
CONTINUOUS
62
  7
10
1206.162
20
944.784
30
0.0
11
1212.468
21
947.130
31
0.0
0
LINE
5
2a1e
8
0-0
6
CONTINUOUS
62
  7
10
1212.468
20
947.130
30
0.0
11
1218.895
21
949.409
31
0.0
0
LINE
5
2a1f
8
0-0
6
CONTINUOUS
62
  7
10
1218.895
20
949.409
30
0.0
11
1230.094
21
953.554
31
0.0
0
LINE
5
2a20
8
0-0
6
CONTINUOUS
62
  7
10
1230.094
20
953.554
30
0.0
11
1240.946
21
958.555
31
0.0
0
LINE
5
2a21
8
0-0
6
CONTINUOUS
62
  7
10
1240.946
20
958.555
30
0.0
11
1250.670
21
965.090
31
0.0
0
LINE
5
2a22
8
0-0
6
CONTINUOUS
62
  7
10
1250.670
20
965.090
30
0.0
11
1255.655
21
970.063
31
0.0
0
LINE
5
2a23
8
0-0
6
CONTINUOUS
62
  7
10
1255.655
20
970.063
30
0.0
11
1258.889
21
974.425
31
0.0
0
LINE
5
2a24
8
0-0
6
CONTINUOUS
62
  7
10
1258.889
20
974.425
30
0.0
11
1263.076
21
982.250
31
0.0
0
LINE
5
2a25
8
0-0
6
CONTINUOUS
62
  7
10
1263.076
20
982.250
30
0.0
11
1266.264
21
990.674
31
0.0
0
LINE
5
2a26
8
0-0
6
CONTINUOUS
62
  7
10
1266.264
20
990.674
30
0.0
11
1268.531
21
998.317
31
0.0
0
LINE
5
2a27
8
0-0
6
CONTINUOUS
62
  7
10
1268.815
20
999.276
30
0.0
11
1268.531
21
998.317
31
0.0
0
LINE
5
2a28
8
0-0
6
CONTINUOUS
62
  7
10
1064.876
20
832.637
30
0.0
11
1068.771
21
834.103
31
0.0
0
LINE
5
2a29
8
0-0
6
CONTINUOUS
62
  7
10
1068.771
20
834.103
30
0.0
11
1076.155
21
836.875
31
0.0
0
LINE
5
2a2a
8
0-0
6
CONTINUOUS
62
  7
10
1076.155
20
836.875
30
0.0
11
1083.578
21
839.641
31
0.0
0
LINE
5
2a2b
8
0-0
6
CONTINUOUS
62
  7
10
1083.578
20
839.641
30
0.0
11
1091.067
21
842.398
31
0.0
0
LINE
5
2a2c
8
0-0
6
CONTINUOUS
62
  7
10
1091.067
20
842.398
30
0.0
11
1095.450
21
843.991
31
0.0
0
LINE
5
2a2d
8
0-0
6
CONTINUOUS
62
  7
10
1095.450
20
843.991
30
0.0
11
1099.624
21
845.502
31
0.0
0
LINE
5
2a2e
8
0-0
6
CONTINUOUS
62
  7
10
1099.624
20
845.502
30
0.0
11
1106.782
21
848.219
31
0.0
0
LINE
5
2a2f
8
0-0
6
CONTINUOUS
62
  7
10
1106.782
20
848.219
30
0.0
11
1113.720
21
851.262
31
0.0
0
LINE
5
2a30
8
0-0
6
CONTINUOUS
62
  7
10
1113.720
20
851.262
30
0.0
11
1120.239
21
854.846
31
0.0
0
LINE
5
2a31
8
0-0
6
CONTINUOUS
62
  7
10
1120.239
20
854.846
30
0.0
11
1123.750
21
857.257
31
0.0
0
LINE
5
2a32
8
0-0
6
CONTINUOUS
62
  7
10
1123.750
20
857.257
30
0.0
11
1128.405
21
861.237
31
0.0
0
LINE
5
2a33
8
0-0
6
CONTINUOUS
62
  7
10
1128.405
20
861.237
30
0.0
11
1135.398
21
869.304
31
0.0
0
LINE
5
2a34
8
0-0
6
CONTINUOUS
62
  7
10
1135.398
20
869.304
30
0.0
11
1141.352
21
878.525
31
0.0
0
LINE
5
2a35
8
0-0
6
CONTINUOUS
62
  7
10
1141.352
20
878.525
30
0.0
11
1146.578
21
888.471
31
0.0
0
LINE
5
2a36
8
0-0
6
CONTINUOUS
62
  7
10
1146.578
20
888.471
30
0.0
11
1149.397
21
894.401
31
0.0
0
LINE
5
2a37
8
0-0
6
CONTINUOUS
62
  7
10
1149.397
20
894.401
30
0.0
11
1151.878
21
899.778
31
0.0
0
LINE
5
2a38
8
0-0
6
CONTINUOUS
62
  7
10
1151.878
20
899.778
30
0.0
11
1156.196
21
908.909
31
0.0
0
LINE
5
2a39
8
0-0
6
CONTINUOUS
62
  7
10
1156.196
20
908.909
30
0.0
11
1160.854
21
917.613
31
0.0
0
LINE
5
2a3a
8
0-0
6
CONTINUOUS
62
  7
10
1160.854
20
917.613
30
0.0
11
1166.195
21
925.594
31
0.0
0
LINE
5
2a3b
8
0-0
6
CONTINUOUS
62
  7
10
1166.195
20
925.594
30
0.0
11
1169.738
21
929.776
31
0.0
0
LINE
5
2a3c
8
0-0
6
CONTINUOUS
62
  7
10
1169.738
20
929.776
30
0.0
11
1174.276
21
934.096
31
0.0
0
LINE
5
2a3d
8
0-0
6
CONTINUOUS
62
  7
10
1174.276
20
934.096
30
0.0
11
1183.180
21
940.490
31
0.0
0
LINE
5
2a3e
8
0-0
6
CONTINUOUS
62
  7
10
1183.180
20
940.490
30
0.0
11
1193.177
21
945.809
31
0.0
0
LINE
5
2a3f
8
0-0
6
CONTINUOUS
62
  7
10
1193.177
20
945.809
30
0.0
11
1203.945
21
950.361
31
0.0
0
LINE
5
2a40
8
0-0
6
CONTINUOUS
62
  7
10
1203.945
20
950.361
30
0.0
11
1210.419
21
952.770
31
0.0
0
LINE
5
2a41
8
0-0
6
CONTINUOUS
62
  7
10
1210.419
20
952.770
30
0.0
11
1216.853
21
955.051
31
0.0
0
LINE
5
2a42
8
0-0
6
CONTINUOUS
62
  7
10
1216.853
20
955.051
30
0.0
11
1227.793
21
959.100
31
0.0
0
LINE
5
2a43
8
0-0
6
CONTINUOUS
62
  7
10
1227.793
20
959.100
30
0.0
11
1237.998
21
963.803
31
0.0
0
LINE
5
2a44
8
0-0
6
CONTINUOUS
62
  7
10
1237.998
20
963.803
30
0.0
11
1246.842
21
969.747
31
0.0
0
LINE
5
2a45
8
0-0
6
CONTINUOUS
62
  7
10
1246.842
20
969.747
30
0.0
11
1251.101
21
973.995
31
0.0
0
LINE
5
2a46
8
0-0
6
CONTINUOUS
62
  7
10
1251.101
20
973.995
30
0.0
11
1253.806
21
977.645
31
0.0
0
LINE
5
2a47
8
0-0
6
CONTINUOUS
62
  7
10
1253.806
20
977.645
30
0.0
11
1257.603
21
984.738
31
0.0
0
LINE
5
2a48
8
0-0
6
CONTINUOUS
62
  7
10
1257.603
20
984.738
30
0.0
11
1260.574
21
992.591
31
0.0
0
LINE
5
2a49
8
0-0
6
CONTINUOUS
62
  7
10
1260.574
20
992.591
30
0.0
11
1263.041
21
1000.910
31
0.0
0
LINE
5
2a4a
8
0-0
6
CONTINUOUS
62
  7
10
1263.041
20
1000.910
30
0.0
11
1263.246
21
1001.671
31
0.0
0
LINE
5
2a4b
8
0-0
6
CONTINUOUS
62
  7
10
429.948
20
749.541
30
0.0
11
429.948
21
832.514
31
0.0
0
LINE
5
2a4c
8
0-0
6
CONTINUOUS
62
  7
10
339.948
20
749.541
30
0.0
11
429.948
21
749.541
31
0.0
0
LINE
5
2a4d
8
0-0
6
CONTINUOUS
62
  7
10
339.948
20
759.541
30
0.0
11
339.948
21
749.541
31
0.0
0
LINE
5
2a4e
8
0-0
6
CONTINUOUS
62
  7
10
339.948
20
759.541
30
0.0
11
339.948
21
1009.541
31
0.0
0
LINE
5
2a4f
8
0-0
6
CONTINUOUS
62
  7
10
339.948
20
1009.541
30
0.0
11
385.948
21
1009.541
31
0.0
0
LINE
5
2a50
8
0-0
6
CONTINUOUS
62
  7
10
385.948
20
1037.541
30
0.0
11
385.948
21
1009.541
31
0.0
0
LINE
5
2a51
8
0-0
6
CONTINUOUS
62
  7
10
405.948
20
1037.541
30
0.0
11
686.129
21
779.541
31
0.0
0
LINE
5
2a52
8
0-0
6
CONTINUOUS
62
  7
10
385.948
20
1037.541
30
0.0
11
405.948
21
1037.541
31
0.0
0
LINE
5
2a53
8
0-0
6
CONTINUOUS
62
  7
10
686.129
20
759.541
30
0.0
11
686.129
21
779.541
31
0.0
0
LINE
5
2a54
8
0-0
6
CONTINUOUS
62
  7
10
686.129
20
759.541
30
0.0
11
429.948
21
759.541
31
0.0
0
LINE
5
2a55
8
0-0
6
CONTINUOUS
62
  7
10
385.948
20
1009.541
30
0.0
11
429.948
21
964.541
31
0.0
0
LINE
5
2a56
8
0-0
6
CONTINUOUS
62
  7
10
429.948
20
832.514
30
0.0
11
429.948
21
964.541
31
0.0
0
LINE
5
2a57
8
0-0
6
CONTINUOUS
62
  7
10
619.876
20
826.879
30
0.0
11
615.600
21
828.488
31
0.0
0
LINE
5
2a58
8
0-0
6
CONTINUOUS
62
  7
10
615.600
20
828.488
30
0.0
11
608.232
21
831.254
31
0.0
0
LINE
5
2a59
8
0-0
6
CONTINUOUS
62
  7
10
608.232
20
831.254
30
0.0
11
600.826
21
834.014
31
0.0
0
LINE
5
2a5a
8
0-0
6
CONTINUOUS
62
  7
10
600.826
20
834.014
30
0.0
11
593.358
21
836.763
31
0.0
0
LINE
5
2a5b
8
0-0
6
CONTINUOUS
62
  7
10
593.358
20
836.763
30
0.0
11
588.987
21
838.352
31
0.0
0
LINE
5
2a5c
8
0-0
6
CONTINUOUS
62
  7
10
588.987
20
838.352
30
0.0
11
584.776
21
839.877
31
0.0
0
LINE
5
2a5d
8
0-0
6
CONTINUOUS
62
  7
10
584.776
20
839.877
30
0.0
11
577.434
21
842.663
31
0.0
0
LINE
5
2a5e
8
0-0
6
CONTINUOUS
62
  7
10
577.434
20
842.663
30
0.0
11
570.111
21
845.875
31
0.0
0
LINE
5
2a5f
8
0-0
6
CONTINUOUS
62
  7
10
570.111
20
845.875
30
0.0
11
563.096
21
849.732
31
0.0
0
LINE
5
2a60
8
0-0
6
CONTINUOUS
62
  7
10
563.096
20
849.732
30
0.0
11
559.078
21
852.491
31
0.0
0
LINE
5
2a61
8
0-0
6
CONTINUOUS
62
  7
10
559.078
20
852.491
30
0.0
11
553.842
21
856.968
31
0.0
0
LINE
5
2a62
8
0-0
6
CONTINUOUS
62
  7
10
553.842
20
856.968
30
0.0
11
546.278
21
865.693
31
0.0
0
LINE
5
2a63
8
0-0
6
CONTINUOUS
62
  7
10
546.278
20
865.693
30
0.0
11
539.948
21
875.497
31
0.0
0
LINE
5
2a64
8
0-0
6
CONTINUOUS
62
  7
10
539.948
20
875.497
30
0.0
11
534.541
21
885.787
31
0.0
0
LINE
5
2a65
8
0-0
6
CONTINUOUS
62
  7
10
534.541
20
885.787
30
0.0
11
531.658
21
891.852
31
0.0
0
LINE
5
2a66
8
0-0
6
CONTINUOUS
62
  7
10
531.658
20
891.852
30
0.0
11
529.174
21
897.235
31
0.0
0
LINE
5
2a67
8
0-0
6
CONTINUOUS
62
  7
10
529.174
20
897.235
30
0.0
11
524.930
21
906.211
31
0.0
0
LINE
5
2a68
8
0-0
6
CONTINUOUS
62
  7
10
524.930
20
906.211
30
0.0
11
520.482
21
914.521
31
0.0
0
LINE
5
2a69
8
0-0
6
CONTINUOUS
62
  7
10
520.482
20
914.521
30
0.0
11
515.494
21
921.975
31
0.0
0
LINE
5
2a6a
8
0-0
6
CONTINUOUS
62
  7
10
515.494
20
921.975
30
0.0
11
512.379
21
925.652
31
0.0
0
LINE
5
2a6b
8
0-0
6
CONTINUOUS
62
  7
10
512.379
20
925.652
30
0.0
11
508.374
21
929.464
31
0.0
0
LINE
5
2a6c
8
0-0
6
CONTINUOUS
62
  7
10
508.374
20
929.464
30
0.0
11
500.133
21
935.381
31
0.0
0
LINE
5
2a6d
8
0-0
6
CONTINUOUS
62
  7
10
500.133
20
935.381
30
0.0
11
490.727
21
940.387
31
0.0
0
LINE
5
2a6e
8
0-0
6
CONTINUOUS
62
  7
10
490.727
20
940.387
30
0.0
11
480.325
21
944.784
31
0.0
0
LINE
5
2a6f
8
0-0
6
CONTINUOUS
62
  7
10
480.325
20
944.784
30
0.0
11
474.019
21
947.130
31
0.0
0
LINE
5
2a70
8
0-0
6
CONTINUOUS
62
  7
10
474.019
20
947.130
30
0.0
11
467.591
21
949.409
31
0.0
0
LINE
5
2a71
8
0-0
6
CONTINUOUS
62
  7
10
467.591
20
949.409
30
0.0
11
456.393
21
953.554
31
0.0
0
LINE
5
2a72
8
0-0
6
CONTINUOUS
62
  7
10
456.393
20
953.554
30
0.0
11
445.541
21
958.555
31
0.0
0
LINE
5
2a73
8
0-0
6
CONTINUOUS
62
  7
10
445.541
20
958.555
30
0.0
11
435.817
21
965.090
31
0.0
0
LINE
5
2a74
8
0-0
6
CONTINUOUS
62
  7
10
435.817
20
965.090
30
0.0
11
430.832
21
970.063
31
0.0
0
LINE
5
2a75
8
0-0
6
CONTINUOUS
62
  7
10
430.832
20
970.063
30
0.0
11
427.598
21
974.425
31
0.0
0
LINE
5
2a76
8
0-0
6
CONTINUOUS
62
  7
10
427.598
20
974.425
30
0.0
11
423.410
21
982.250
31
0.0
0
LINE
5
2a77
8
0-0
6
CONTINUOUS
62
  7
10
423.410
20
982.250
30
0.0
11
420.222
21
990.674
31
0.0
0
LINE
5
2a78
8
0-0
6
CONTINUOUS
62
  7
10
420.222
20
990.674
30
0.0
11
417.956
21
998.317
31
0.0
0
LINE
5
2a79
8
0-0
6
CONTINUOUS
62
  7
10
417.672
20
999.276
30
0.0
11
417.956
21
998.317
31
0.0
0
LINE
5
2a7a
8
0-0
6
CONTINUOUS
62
  7
10
621.610
20
832.637
30
0.0
11
617.716
21
834.103
31
0.0
0
LINE
5
2a7b
8
0-0
6
CONTINUOUS
62
  7
10
617.716
20
834.103
30
0.0
11
610.332
21
836.875
31
0.0
0
LINE
5
2a7c
8
0-0
6
CONTINUOUS
62
  7
10
610.332
20
836.875
30
0.0
11
602.908
21
839.641
31
0.0
0
LINE
5
2a7d
8
0-0
6
CONTINUOUS
62
  7
10
602.908
20
839.641
30
0.0
11
595.420
21
842.398
31
0.0
0
LINE
5
2a7e
8
0-0
6
CONTINUOUS
62
  7
10
595.420
20
842.398
30
0.0
11
591.036
21
843.991
31
0.0
0
LINE
5
2a7f
8
0-0
6
CONTINUOUS
62
  7
10
591.036
20
843.991
30
0.0
11
586.862
21
845.502
31
0.0
0
LINE
5
2a80
8
0-0
6
CONTINUOUS
62
  7
10
586.862
20
845.502
30
0.0
11
579.704
21
848.219
31
0.0
0
LINE
5
2a81
8
0-0
6
CONTINUOUS
62
  7
10
579.704
20
848.219
30
0.0
11
572.766
21
851.262
31
0.0
0
LINE
5
2a82
8
0-0
6
CONTINUOUS
62
  7
10
572.766
20
851.262
30
0.0
11
566.247
21
854.846
31
0.0
0
LINE
5
2a83
8
0-0
6
CONTINUOUS
62
  7
10
566.247
20
854.846
30
0.0
11
562.736
21
857.257
31
0.0
0
LINE
5
2a84
8
0-0
6
CONTINUOUS
62
  7
10
562.736
20
857.257
30
0.0
11
558.082
21
861.237
31
0.0
0
LINE
5
2a85
8
0-0
6
CONTINUOUS
62
  7
10
558.082
20
861.237
30
0.0
11
551.089
21
869.304
31
0.0
0
LINE
5
2a86
8
0-0
6
CONTINUOUS
62
  7
10
551.089
20
869.304
30
0.0
11
545.134
21
878.525
31
0.0
0
LINE
5
2a87
8
0-0
6
CONTINUOUS
62
  7
10
545.134
20
878.525
30
0.0
11
539.908
21
888.471
31
0.0
0
LINE
5
2a88
8
0-0
6
CONTINUOUS
62
  7
10
539.908
20
888.471
30
0.0
11
537.089
21
894.401
31
0.0
0
LINE
5
2a89
8
0-0
6
CONTINUOUS
62
  7
10
537.089
20
894.401
30
0.0
11
534.608
21
899.778
31
0.0
0
LINE
5
2a8a
8
0-0
6
CONTINUOUS
62
  7
10
534.608
20
899.778
30
0.0
11
530.291
21
908.909
31
0.0
0
LINE
5
2a8b
8
0-0
6
CONTINUOUS
62
  7
10
530.291
20
908.909
30
0.0
11
525.632
21
917.613
31
0.0
0
LINE
5
2a8c
8
0-0
6
CONTINUOUS
62
  7
10
525.632
20
917.613
30
0.0
11
520.292
21
925.594
31
0.0
0
LINE
5
2a8d
8
0-0
6
CONTINUOUS
62
  7
10
520.292
20
925.594
30
0.0
11
516.749
21
929.776
31
0.0
0
LINE
5
2a8e
8
0-0
6
CONTINUOUS
62
  7
10
516.749
20
929.776
30
0.0
11
512.211
21
934.096
31
0.0
0
LINE
5
2a8f
8
0-0
6
CONTINUOUS
62
  7
10
512.211
20
934.096
30
0.0
11
503.306
21
940.490
31
0.0
0
LINE
5
2a90
8
0-0
6
CONTINUOUS
62
  7
10
503.306
20
940.490
30
0.0
11
493.310
21
945.809
31
0.0
0
LINE
5
2a91
8
0-0
6
CONTINUOUS
62
  7
10
493.310
20
945.809
30
0.0
11
482.541
21
950.361
31
0.0
0
LINE
5
2a92
8
0-0
6
CONTINUOUS
62
  7
10
482.541
20
950.361
30
0.0
11
476.067
21
952.770
31
0.0
0
LINE
5
2a93
8
0-0
6
CONTINUOUS
62
  7
10
476.067
20
952.770
30
0.0
11
469.633
21
955.051
31
0.0
0
LINE
5
2a94
8
0-0
6
CONTINUOUS
62
  7
10
469.633
20
955.051
30
0.0
11
458.694
21
959.100
31
0.0
0
LINE
5
2a95
8
0-0
6
CONTINUOUS
62
  7
10
458.694
20
959.100
30
0.0
11
448.488
21
963.803
31
0.0
0
LINE
5
2a96
8
0-0
6
CONTINUOUS
62
  7
10
448.488
20
963.803
30
0.0
11
439.644
21
969.747
31
0.0
0
LINE
5
2a97
8
0-0
6
CONTINUOUS
62
  7
10
439.644
20
969.747
30
0.0
11
435.386
21
973.995
31
0.0
0
LINE
5
2a98
8
0-0
6
CONTINUOUS
62
  7
10
435.386
20
973.995
30
0.0
11
432.680
21
977.645
31
0.0
0
LINE
5
2a99
8
0-0
6
CONTINUOUS
62
  7
10
432.680
20
977.645
30
0.0
11
428.884
21
984.738
31
0.0
0
LINE
5
2a9a
8
0-0
6
CONTINUOUS
62
  7
10
428.884
20
984.738
30
0.0
11
425.912
21
992.591
31
0.0
0
LINE
5
2a9b
8
0-0
6
CONTINUOUS
62
  7
10
425.912
20
992.591
30
0.0
11
423.445
21
1000.910
31
0.0
0
LINE
5
2a9c
8
0-0
6
CONTINUOUS
62
  7
10
423.445
20
1000.910
30
0.0
11
423.241
21
1001.671
31
0.0
0
LINE
5
2a9d
8
0-0
6
CONTINUOUS
62
  7
10
793.143
20
792.784
30
0.0
11
795.743
21
702.784
31
0.0
0
LINE
5
2a9e
8
0-0
6
CONTINUOUS
62
  7
10
893.343
20
792.784
30
0.0
11
890.743
21
702.784
31
0.0
0
LINE
5
2a9f
8
0-0
6
CONTINUOUS
62
  7
10
795.743
20
702.784
30
0.0
11
890.743
21
702.784
31
0.0
0
LINE
5
2aa0
8
0-0
6
CONTINUOUS
62
  7
10
799.743
20
1112.784
30
0.0
11
793.143
21
792.784
31
0.0
0
LINE
5
2aa1
8
0-0
6
CONTINUOUS
62
  7
10
799.743
20
1112.784
30
0.0
11
886.743
21
1112.784
31
0.0
0
LINE
5
2aa2
8
0-0
6
CONTINUOUS
62
  7
10
886.743
20
1112.784
30
0.0
11
893.343
21
792.784
31
0.0
0
LINE
5
2aa3
8
0-0
6
CONTINUOUS
62
  7
10
795.745
20
360.973
30
0.0
11
795.745
21
272.973
31
0.0
0
LINE
5
2aa4
8
0-0
6
CONTINUOUS
62
  7
10
890.741
20
360.973
30
0.0
11
890.741
21
272.973
31
0.0
0
LINE
5
2aa5
8
0-0
6
CONTINUOUS
62
  7
10
1628.999
20
802.784
30
0.0
11
1633.999
21
802.784
31
0.0
0
LINE
5
2aa6
8
0-0
6
CONTINUOUS
62
  7
10
1573.999
20
795.784
30
0.0
11
1628.999
21
795.784
31
0.0
0
LINE
5
2aa7
8
0-0
6
CONTINUOUS
62
  7
10
1628.999
20
802.784
30
0.0
11
1628.999
21
795.784
31
0.0
0
LINE
5
2aa8
8
0-0
6
CONTINUOUS
62
  7
10
1603.999
20
1112.784
30
0.0
11
1643.999
21
1112.784
31
0.0
0
LINE
5
2aa9
8
0-0
6
CONTINUOUS
62
  7
10
1463.999
20
702.784
30
0.0
11
1465.621
21
702.784
31
0.0
0
LINE
5
2aaa
8
0-0
6
CONTINUOUS
62
  7
10
1465.621
20
702.784
30
0.0
11
1577.999
21
702.784
31
0.0
0
LINE
5
2aab
8
0-0
6
CONTINUOUS
62
  7
10
339.948
20
573.055
30
0.0
11
686.129
21
573.055
31
0.0
0
LINE
5
2aac
8
0-0
6
CONTINUOUS
62
  7
10
339.948
20
650.082
30
0.0
11
339.948
21
573.055
31
0.0
0
LINE
5
2aad
8
0-0
6
CONTINUOUS
62
  7
10
686.129
20
650.082
30
0.0
11
686.129
21
573.055
31
0.0
0
LINE
5
2aae
8
0-0
6
CONTINUOUS
62
  7
10
795.743
20
573.055
30
0.0
11
890.743
21
573.055
31
0.0
0
LINE
5
2aaf
8
0-0
6
CONTINUOUS
62
  7
10
795.743
20
650.082
30
0.0
11
795.743
21
573.055
31
0.0
0
LINE
5
2ab0
8
0-0
6
CONTINUOUS
62
  7
10
890.743
20
650.082
30
0.0
11
890.743
21
573.055
31
0.0
0
LINE
5
2ab1
8
0-0
6
CONTINUOUS
62
  7
10
1000.358
20
573.055
30
0.0
11
1305.358
21
573.055
31
0.0
0
LINE
5
2ab2
8
0-0
6
CONTINUOUS
62
  7
10
1000.358
20
650.082
30
0.0
11
1000.358
21
573.055
31
0.0
0
LINE
5
2ab3
8
0-0
6
CONTINUOUS
62
  7
10
1305.358
20
650.082
30
0.0
11
1305.358
21
573.055
31
0.0
0
LINE
5
2ab4
8
0-0
6
CONTINUOUS
62
  7
10
799.743
20
1217.720
30
0.0
11
886.743
21
1217.720
31
0.0
0
LINE
5
2ab5
8
0-0
6
CONTINUOUS
62
  7
10
799.743
20
1156.158
30
0.0
11
799.743
21
1217.720
31
0.0
0
LINE
5
2ab6
8
0-0
6
CONTINUOUS
62
  7
10
886.743
20
1156.158
30
0.0
11
886.743
21
1217.720
31
0.0
0
LINE
5
2ab7
8
0-0
6
CONTINUOUS
62
  7
10
1417.513
20
759.541
30
0.0
11
1417.513
21
1049.541
31
0.0
0
LINE
5
2ab8
8
0-0
6
CONTINUOUS
62
  7
10
1340.485
20
759.541
30
0.0
11
1417.513
21
759.541
31
0.0
0
LINE
5
2ab9
8
0-0
6
CONTINUOUS
62
  7
10
1340.485
20
1049.541
30
0.0
11
1417.513
21
1049.541
31
0.0
0
LINE
5
2aba
8
0-0
6
CONTINUOUS
62
  7
10
1924.269
20
1112.784
30
0.0
11
1924.269
21
702.784
31
0.0
0
LINE
5
2abb
8
0-0
6
CONTINUOUS
62
  7
10
1709.405
20
1112.784
30
0.0
11
1924.269
21
1112.784
31
0.0
0
LINE
5
2abc
8
0-0
6
CONTINUOUS
62
  7
10
1709.405
20
702.784
30
0.0
11
1924.269
21
702.784
31
0.0
0
LINE
5
2abd
8
ADD_LINE
6
HIDDEN
62
  3
10
773.849
20
222.973
30
0.0
11
909.222
21
222.973
31
0.0
0
LINE
5
2abe
8
ADD_LINE
6
HIDDEN
62
  3
10
843.243
20
1298.730
30
0.0
11
843.243
21
151.433
31
0.0
0
LINE
5
2abf
8
0-0
6
CONTINUOUS
62
  7
10
1603.999
20
1217.720
30
0.0
11
1643.999
21
1217.720
31
0.0
0
LINE
5
2ac0
8
0-0
6
CONTINUOUS
62
  7
10
1603.999
20
1156.158
30
0.0
11
1603.999
21
1217.720
31
0.0
0
LINE
5
2ac1
8
0-0
6
CONTINUOUS
62
  7
10
1643.999
20
1156.158
30
0.0
11
1643.999
21
1217.720
31
0.0
0
LINE
5
2ac2
8
0-0
6
CONTINUOUS
62
  7
10
1463.999
20
573.055
30
0.0
11
1644.007
21
573.055
31
0.0
0
LINE
5
2ac3
8
0-0
6
CONTINUOUS
62
  7
10
1463.999
20
650.082
30
0.0
11
1463.999
21
573.055
31
0.0
0
LINE
5
2ac4
8
0-0
6
CONTINUOUS
62
  7
10
1644.007
20
650.082
30
0.0
11
1644.007
21
573.055
31
0.0
0
LINE
5
2ac5
8
0-0
6
CONTINUOUS
62
  7
10
1390.966
20
301.649
30
0.0
11
1390.966
21
264.649
31
0.0
0
LINE
5
2ac6
8
0-0
6
CONTINUOUS
62
  7
10
1345.354
20
301.649
30
0.0
11
1390.966
21
301.649
31
0.0
0
LINE
5
2ac7
8
0-0
6
CONTINUOUS
62
  7
10
1345.354
20
264.649
30
0.0
11
1390.966
21
264.649
31
0.0
0
ARC
5
2ac8
8
0-0
6
CONTINUOUS
62
  7
10
1190.610
20
508.404
30
0.0
40
269.413
50
225.075577
51
295.208679
0
ARC
5
2ac9
8
0-0
6
CONTINUOUS
62
  7
10
1203.581
20
620.048
30
0.0
40
334.270
50
232.557724
51
287.726501
0
CIRCLE
5
2aca
8
0-0
6
CONTINUOUS
62
  7
10
386.129
20
286.649
30
0.0
40
45.000
0
ARC
5
2acb
8
0-0
6
CONTINUOUS
62
  7
10
480.511
20
541.568
30
0.0
40
304.004
50
255.957108
51
312.560364
0
ARC
5
2acc
8
0-0
6
CONTINUOUS
62
  7
10
494.584
20
607.225
30
0.0
40
316.992
50
258.234497
51
307.175415
0
CIRCLE
5
2acd
8
0-0
6
CONTINUOUS
62
  7
10
1241.001
20
980.987
30
0.0
40
3.000
0
CIRCLE
5
2ace
8
0-0
6
CONTINUOUS
62
  7
10
1116.503
20
865.226
30
0.0
40
3.000
0
ARC
5
2acf
8
0-0
6
CONTINUOUS
62
  7
10
1066.690
20
830.043
30
0.0
40
3.165
50
124.960098
51
268.559814
0
ARC
5
2ad0
8
0-0
6
CONTINUOUS
62
  7
10
1265.964
20
1000.319
30
0.0
40
3.036
50
339.898193
51
153.552948
0
ARC
5
2ad1
8
0-0
6
CONTINUOUS
62
  7
10
384.948
20
845.791
30
0.0
40
106.250
50
244.942444
51
295.057556
0
CIRCLE
5
2ad2
8
0-0
6
CONTINUOUS
62
  7
10
445.486
20
980.987
30
0.0
40
3.000
0
CIRCLE
5
2ad3
8
0-0
6
CONTINUOUS
62
  7
10
569.983
20
865.226
30
0.0
40
3.000
0
ARC
5
2ad4
8
0-0
6
CONTINUOUS
62
  7
10
619.797
20
830.043
30
0.0
40
3.165
50
271.440186
51
415.039917
0
ARC
5
2ad5
8
0-0
6
CONTINUOUS
62
  7
10
420.523
20
1000.319
30
0.0
40
3.036
50
386.447052
51
200.101807
0
ARC
5
2ad6
8
0-0
6
CONTINUOUS
62
  7
10
843.243
20
752.659
30
0.0
40
68.875
50
226.397217
51
313.602783
0
CIRCLE
5
2ad7
8
0-0
6
CONTINUOUS
62
  7
10
843.243
20
1082.784
30
0.0
40
3.000
0
CIRCLE
5
2ad8
8
0-0
6
CONTINUOUS
62
  7
10
843.243
20
1062.784
30
0.0
40
3.000
0
CIRCLE
5
2ad9
8
0-0
6
CONTINUOUS
62
  7
10
843.243
20
872.784
30
0.0
40
3.000
0
CIRCLE
5
2ada
8
0-0
6
CONTINUOUS
62
  7
10
843.243
20
852.784
30
0.0
40
3.000
0
POLYLINE
5
2adb
8
0-0
6
CONTINUOUS
62
  7
66
1
10
0.000000
20
0.000000
30
0.000000
70
1
0
VERTEX
5
2adc
8
0-0
10
843.242981
20
417.972992
30
0.000000
0
VERTEX
5
2add
8
0-0
10
839.101990
20
417.756012
30
0.000000
0
VERTEX
5
2ade
8
0-0
10
834.992004
20
417.105988
30
0.000000
0
VERTEX
5
2adf
8
0-0
10
830.945007
20
416.028992
30
0.000000
0
VERTEX
5
2ae0
8
0-0
10
826.992004
20
414.532990
30
0.000000
0
VERTEX
5
2ae1
8
0-0
10
823.161987
20
412.627991
30
0.000000
0
VERTEX
5
2ae2
8
0-0
10
819.486023
20
410.330994
30
0.000000
0
VERTEX
5
2ae3
8
0-0
10
815.989990
20
407.657013
30
0.000000
0
VERTEX
5
2ae4
8
0-0
10
812.702026
20
404.627991
30
0.000000
0
VERTEX
5
2ae5
8
0-0
10
809.646973
20
401.265991
30
0.000000
0
VERTEX
5
2ae6
8
0-0
10
806.846985
20
397.596985
30
0.000000
0
VERTEX
5
2ae7
8
0-0
10
804.325012
20
393.649994
30
0.000000
0
VERTEX
5
2ae8
8
0-0
10
802.098999
20
389.453003
30
0.000000
0
VERTEX
5
2ae9
8
0-0
10
800.187012
20
385.040009
30
0.000000
0
VERTEX
5
2aea
8
0-0
10
798.601990
20
380.442993
30
0.000000
0
VERTEX
5
2aeb
8
0-0
10
797.356995
20
375.697998
30
0.000000
0
VERTEX
5
2aec
8
0-0
10
796.461975
20
370.841003
30
0.000000
0
VERTEX
5
2aed
8
0-0
10
795.924011
20
365.907990
30
0.000000
0
VERTEX
5
2aee
8
0-0
10
795.744995
20
360.938995
30
0.000000
0
VERTEX
5
2aef
8
0-0
10
795.929016
20
355.968994
30
0.000000
0
VERTEX
5
2af0
8
0-0
10
796.471985
20
351.036987
30
0.000000
0
VERTEX
5
2af1
8
0-0
10
797.372009
20
346.181000
30
0.000000
0
VERTEX
5
2af2
8
0-0
10
798.622009
20
341.437988
30
0.000000
0
VERTEX
5
2af3
8
0-0
10
800.210999
20
336.843994
30
0.000000
0
VERTEX
5
2af4
8
0-0
10
802.127991
20
332.433014
30
0.000000
0
VERTEX
5
2af5
8
0-0
10
804.357971
20
328.239990
30
0.000000
0
VERTEX
5
2af6
8
0-0
10
806.883972
20
324.295990
30
0.000000
0
VERTEX
5
2af7
8
0-0
10
809.687988
20
320.631012
30
0.000000
0
VERTEX
5
2af8
8
0-0
10
812.745972
20
317.273987
30
0.000000
0
VERTEX
5
2af9
8
0-0
10
816.036987
20
314.248993
30
0.000000
0
VERTEX
5
2afa
8
0-0
10
819.536011
20
311.580994
30
0.000000
0
VERTEX
5
2afb
8
0-0
10
823.213989
20
309.287994
30
0.000000
0
VERTEX
5
2afc
8
0-0
10
827.046021
20
307.390015
30
0.000000
0
VERTEX
5
2afd
8
0-0
10
831.000977
20
305.898987
30
0.000000
0
VERTEX
5
2afe
8
0-0
10
835.049011
20
304.828003
30
0.000000
0
VERTEX
5
2aff
8
0-0
10
839.158997
20
304.183990
30
0.000000
0
VERTEX
5
2b00
8
0-0
10
843.301025
20
303.972992
30
0.000000
0
VERTEX
5
2b01
8
0-0
10
847.442017
20
304.196014
30
0.000000
0
VERTEX
5
2b02
8
0-0
10
851.551025
20
304.851990
30
0.000000
0
VERTEX
5
2b03
8
0-0
10
855.596985
20
305.933990
30
0.000000
0
VERTEX
5
2b04
8
0-0
10
859.547974
20
307.437012
30
0.000000
0
VERTEX
5
2b05
8
0-0
10
863.375977
20
309.346985
30
0.000000
0
VERTEX
5
2b06
8
0-0
10
867.049988
20
311.649994
30
0.000000
0
VERTEX
5
2b07
8
0-0
10
870.543030
20
314.328003
30
0.000000
0
VERTEX
5
2b08
8
0-0
10
873.828003
20
317.362000
30
0.000000
0
VERTEX
5
2b09
8
0-0
10
876.880005
20
320.729004
30
0.000000
0
VERTEX
5
2b0a
8
0-0
10
879.676025
20
324.401001
30
0.000000
0
VERTEX
5
2b0b
8
0-0
10
882.193970
20
328.352997
30
0.000000
0
VERTEX
5
2b0c
8
0-0
10
884.416016
20
332.552002
30
0.000000
0
VERTEX
5
2b0d
8
0-0
10
886.323975
20
336.968994
30
0.000000
0
VERTEX
5
2b0e
8
0-0
10
887.903992
20
341.567993
30
0.000000
0
VERTEX
5
2b0f
8
0-0
10
889.143982
20
346.313995
30
0.000000
0
VERTEX
5
2b10
8
0-0
10
890.033997
20
351.173004
30
0.000000
0
VERTEX
5
2b11
8
0-0
10
890.567993
20
356.105988
30
0.000000
0
VERTEX
5
2b12
8
0-0
10
890.741028
20
361.075989
30
0.000000
0
VERTEX
5
2b13
8
0-0
10
890.552979
20
366.045013
30
0.000000
0
VERTEX
5
2b14
8
0-0
10
890.004028
20
370.976013
30
0.000000
0
VERTEX
5
2b15
8
0-0
10
889.098999
20
375.830994
30
0.000000
0
VERTEX
5
2b16
8
0-0
10
887.844971
20
380.571991
30
0.000000
0
VERTEX
5
2b17
8
0-0
10
886.250977
20
385.164001
30
0.000000
0
VERTEX
5
2b18
8
0-0
10
884.330017
20
389.571991
30
0.000000
0
VERTEX
5
2b19
8
0-0
10
882.096008
20
393.761993
30
0.000000
0
VERTEX
5
2b1a
8
0-0
10
879.565002
20
397.701996
30
0.000000
0
VERTEX
5
2b1b
8
0-0
10
876.758972
20
401.363007
30
0.000000
0
VERTEX
5
2b1c
8
0-0
10
873.695984
20
404.716003
30
0.000000
0
VERTEX
5
2b1d
8
0-0
10
870.401978
20
407.735992
30
0.000000
0
VERTEX
5
2b1e
8
0-0
10
866.901001
20
410.398987
30
0.000000
0
VERTEX
5
2b1f
8
0-0
10
863.219971
20
412.686005
30
0.000000
0
VERTEX
5
2b20
8
0-0
10
859.387024
20
414.579987
30
0.000000
0
VERTEX
5
2b21
8
0-0
10
855.431030
20
416.065002
30
0.000000
0
VERTEX
5
2b22
8
0-0
10
851.382019
20
417.130005
30
0.000000
0
VERTEX
5
2b23
8
0-0
10
847.270996
20
417.768005
30
0.000000
0
VERTEX
5
2b24
8
0-0
10
843.242981
20
417.972992
30
0.000000
0
SEQEND
5
2b25
8
0-0
0
ARC
5
2b26
8
0-0
6
CONTINUOUS
62
  7
10
843.243
20
270.534
30
0.0
40
47.561
50
177.060196
51
2.939804
0
ARC
5
2b27
8
0-0
6
CONTINUOUS
62
  7
10
818.940
20
1151.951
30
0.0
40
786.035
50
325.149780
51
357.143921
0
ARC
5
2b28
8
0-0
6
CONTINUOUS
62
  7
10
922.172
20
1105.950
30
0.0
40
721.859
50
334.553040
51
0.542496
0
ARC
5
2b29
8
0-0
6
CONTINUOUS
62
  7
10
1520.999
20
778.784
30
0.0
40
95.000
50
233.130066
51
306.869904
0
ARC
5
2b2a
8
0-0
6
CONTINUOUS
62
  7
10
899.100
20
1282.382
30
0.0
40
892.658
50
319.511597
51
326.321198
0
ARC
5
2b2b
8
0-0
6
CONTINUOUS
62
  7
10
1634.506
20
793.296
30
0.0
40
9.502
50
321.415283
51
93.056534
0
CIRCLE
5
2b2c
8
ADD_LINE
6
HIDDEN
62
  3
10
843.243
20
222.973
30
0.0
40
3.000
0
TEXT
5
2b2d
100
AcDbEntity
8
0-0
62
7
100
AcDbText
10
503.663
20
575.555
30
0.0
40
9.750
41
0.800
50
0.000
1
346
100
AcDbText
0
TEXT
5
2b2e
100
AcDbEntity
8
0-0
62
7
100
AcDbText
10
836.993
20
575.555
30
0.0
40
9.750
41
0.800
50
0.000
1
95
100
AcDbText
0
TEXT
5
2b2f
100
AcDbEntity
8
0-0
62
7
100
AcDbText
10
1143.483
20
575.555
30
0.0
40
9.750
41
0.800
50
0.000
1
305
100
AcDbText
0
TEXT
5
2b30
100
AcDbEntity
8
0-0
62
7
100
AcDbText
10
836.993
20
1220.220
30
0.0
40
9.750
41
0.800
50
0.000
1
87
100
AcDbText
0
TEXT
5
2b31
100
AcDbEntity
8
0-0
62
7
100
AcDbText
10
1415.013
20
895.166
30
0.0
40
9.750
41
0.800
50
90.000
1
290
100
AcDbText
0
TEXT
5
2b32
100
AcDbEntity
8
0-0
62
7
100
AcDbText
10
1921.769
20
898.409
30
0.0
40
9.750
41
0.800
50
90.000
1
410
100
AcDbText
0
TEXT
5
2b33
100
AcDbEntity
8
0-0
62
7
100
AcDbText
10
1617.749
20
1220.220
30
0.0
40
9.750
41
0.800
50
0.000
1
40
100
AcDbText
0
TEXT
5
2b34
100
AcDbEntity
8
0-0
62
7
100
AcDbText
10
1544.628
20
575.555
30
0.0
40
9.750
41
0.800
50
0.000
1
180
100
AcDbText
0
TEXT
5
2b35
100
AcDbEntity
8
0-0
62
7
100
AcDbText
10
1388.466
20
276.899
30
0.0
40
9.750
41
0.800
50
90.000
1
37
100
AcDbText
0
POINT
5
2b36
8
0-0
62
  7
10
339.948
20
573.055
30
0.0
0
POINT
5
2b37
8
0-0
62
  7
10
686.129
20
573.055
30
0.0
0
POINT
5
2b38
8
0-0
62
  7
10
795.743
20
573.055
30
0.0
0
POINT
5
2b39
8
0-0
62
  7
10
890.743
20
573.055
30
0.0
0
POINT
5
2b3a
8
0-0
62
  7
10
1000.358
20
573.055
30
0.0
0
POINT
5
2b3b
8
0-0
62
  7
10
1305.358
20
573.055
30
0.0
0
POINT
5
2b3c
8
0-0
62
  7
10
799.743
20
1217.720
30
0.0
0
POINT
5
2b3d
8
0-0
62
  7
10
886.743
20
1217.720
30
0.0
0
POINT
5
2b3e
8
0-0
62
  7
10
1417.513
20
759.541
30
0.0
0
POINT
5
2b3f
8
0-0
62
  7
10
1417.513
20
1049.541
30
0.0
0
POINT
5
2b40
8
0-0
62
  7
10
1924.269
20
1112.784
30
0.0
0
POINT
5
2b41
8
0-0
62
  7
10
1924.269
20
702.784
30
0.0
0
POINT
5
2b42
8
0-0
62
  7
10
1603.999
20
1217.720
30
0.0
0
POINT
5
2b43
8
0-0
62
  7
10
1643.999
20
1217.720
30
0.0
0
POINT
5
2b44
8
0-0
62
  7
10
1463.999
20
573.055
30
0.0
0
POINT
5
2b45
8
0-0
62
  7
10
1644.007
20
573.055
30
0.0
0
POINT
5
2b46
8
0-0
62
  7
10
1390.966
20
301.649
30
0.0
0
POINT
5
2b47
8
0-0
62
  7
10
1390.966
20
264.649
30
0.0
0
ENDSEC
0
EOF
