0
SECTION
2
HEADER
  9
$EXTMIN
10
0
20
0
30
0
  9
$EXTMAX
10
2194.704
20
1379.987
30
0
  9
$LTSCALE
40
5.000
  9
$DIMSCALE
40
5.000
  9
$PDMODE
70
0
  9
$PDSIZE
40
40
0
ENDSEC
0
SECTION
2
TABLES
0
TABLE
2
LTYPE
70
9
0
LTYPE
5
1f4
2
CONTINUOUS
70
0
3
実線
72
65
73
0
40
0.0
0
LTYPE
5
1f5
2
DOT
70
0
3
--  --  --  --  --  --  --  --     
72
65
73
2
40
5.000
49
1.000
49
-4.000
0
LTYPE
5
1f6
2
DASHED
70
0
3
----    ----    ----    ----    
72
65
73
2
40
5.000
49
2.000
49
-3.000
0
LTYPE
5
1f7
2
DASHED2
70
0
3
------  ------  ------  ------ 
72
65
73
2
40
10.000
49
4.000
49
-6.000
0
LTYPE
5
1f8
2
CENTER
70
0
3
----- - ----- - ----- - ----- - 
72
65
73
4
40
9.000
49
6.000
49
-1.000
49
1.000
49
-1.000
0
LTYPE
5
1f9
2
CENTER2
70
0
3
----------  --  ----------  -- 
72
65
73
4
40
18.000
49
12.000
49
-2.000
49
2.000
49
-2.000
0
LTYPE
5
1fa
2
PHANTOM
70
0
3
--- - - --- - - --- - - --- - -
72
65
73
6
40
10.000
49
5.000
49
-1.000
49
1.000
49
-1.000
49
1.000
49
-1.000
0
LTYPE
5
1fb
2
PHANTOM2
70
0
3
--------  -  -  --------  -  -
72
65
73
6
40
16.000
49
6.000
49
-2.000
49
2.000
49
-2.000
49
2.000
49
-2.000
0
LTYPE
5
1fc
2
HIDDEN
70
0
3
-   -   -   -   -   -   -   -   
72
65
73
2
40
2.500
49
0.500
49
-2.000
0
ENDTAB
0
TABLE
2
STYLE
70
1
0
STYLE
5
1fd
100
AcDbSymbolTableRecord
100
AcDbTextStyleTableRecord
2
STANDARD
70
0
40
0.0
41
1.0
50
0.0
71
0
42
0.0
3
txt.shx
4
extfont.shx
0
STYLE
5
1fe
100
AcDbSymbolTableRecord
100
AcDbTextStyleTableRecord
2
TATEGAKI
70
4
40
0.0
41
1.0
50
0.0
71
0
42
0.0
3
txt.shx
4
extfont.shx
0
STYLE
5
1ff
100
AcDbSymbolTableRecord
100
AcDbTextStyleTableRecord
2
MT
70
0
40
0.0
41
1.0
50
0.0
71
0
42
0.0
3
MS Mincho
4

0
STYLE
5
200
100
AcDbSymbolTableRecord
100
AcDbTextStyleTableRecord
2
TMT
70
4
40
0.0
41
1.0
50
0.0
71
0
42
0.0
3
@MS Mincho
4

0
ENDTAB
0
TABLE
2
LAYER
5
2ef9
100
AcDbSymbolTable
70
10
0
LAYER
5
2efa
100
AcDbSymbolTableRecord
100
AcDbLayerTableRecord
2
0
70
64
62
  7
  6
CONTINUOUS
0
LAYER
5
2efb
100
AcDbSymbolTableRecord
100
AcDbLayerTableRecord
2
0-0
70
64
62
  7
  6
CONTINUOUS
0
LAYER
5
2efc
100
AcDbSymbolTableRecord
100
AcDbLayerTableRecord
2
ADD_LINE
70
64
62
  -7
  6
CONTINUOUS
0
ENDTAB
0
ENDSEC
0
SECTION
2
ENTITIES
0
LINE
5
2efd
8
0-0
6
CONTINUOUS
62
  7
10
956.757
20
1127.027
30
0.0
11
1221.757
21
1127.027
31
0.0
0
LINE
5
2efe
8
0-0
6
CONTINUOUS
62
  7
10
1221.757
20
1127.027
30
0.0
11
1221.757
21
872.027
31
0.0
0
LINE
5
2eff
8
0-0
6
CONTINUOUS
62
  7
10
956.757
20
872.027
30
0.0
11
1221.757
21
872.027
31
0.0
0
LINE
5
2f00
8
0-0
6
CONTINUOUS
62
  7
10
956.757
20
1127.027
30
0.0
11
956.757
21
872.027
31
0.0
0
LINE
5
2f01
8
0-0
6
CONTINUOUS
62
  7
10
956.757
20
587.459
30
0.0
11
956.757
21
559.459
31
0.0
0
LINE
5
2f02
8
0-0
6
CONTINUOUS
62
  7
10
956.757
20
559.459
30
0.0
11
1221.757
21
559.459
31
0.0
0
LINE
5
2f03
8
0-0
6
CONTINUOUS
62
  7
10
1221.757
20
587.459
30
0.0
11
1221.757
21
559.459
31
0.0
0
LINE
5
2f04
8
0-0
6
CONTINUOUS
62
  7
10
956.757
20
587.459
30
0.0
11
1221.757
21
587.459
31
0.0
0
LINE
5
2f05
8
0-0
6
CONTINUOUS
62
  7
10
956.757
20
609.459
30
0.0
11
1221.757
21
609.459
31
0.0
0
LINE
5
2f06
8
0-0
6
CONTINUOUS
62
  7
10
956.757
20
609.459
30
0.0
11
956.757
21
587.459
31
0.0
0
LINE
5
2f07
8
0-0
6
CONTINUOUS
62
  7
10
1221.757
20
609.459
30
0.0
11
1221.757
21
587.459
31
0.0
0
LINE
5
2f08
8
0-0
6
CONTINUOUS
62
  7
10
1483.784
20
1127.027
30
0.0
11
1480.784
21
1119.027
31
0.0
0
LINE
5
2f09
8
0-0
6
CONTINUOUS
62
  7
10
1480.784
20
1119.027
30
0.0
11
1473.784
21
1109.027
31
0.0
0
LINE
5
2f0a
8
0-0
6
CONTINUOUS
62
  7
10
1483.784
20
872.027
30
0.0
11
1480.784
21
880.027
31
0.0
0
LINE
5
2f0b
8
0-0
6
CONTINUOUS
62
  7
10
1480.784
20
880.027
30
0.0
11
1473.784
21
890.027
31
0.0
0
LINE
5
2f0c
8
0-0
6
CONTINUOUS
62
  7
10
1455.784
20
1127.027
30
0.0
11
1483.784
21
1127.027
31
0.0
0
LINE
5
2f0d
8
0-0
6
CONTINUOUS
62
  7
10
1455.784
20
872.027
30
0.0
11
1483.784
21
872.027
31
0.0
0
LINE
5
2f0e
8
0-0
6
CONTINUOUS
62
  7
10
956.757
20
1315.036
30
0.0
11
1221.757
21
1315.036
31
0.0
0
LINE
5
2f0f
8
0-0
6
CONTINUOUS
62
  7
10
956.757
20
1193.884
30
0.0
11
956.757
21
1315.036
31
0.0
0
LINE
5
2f10
8
0-0
6
CONTINUOUS
62
  7
10
1221.757
20
1193.884
30
0.0
11
1221.757
21
1315.036
31
0.0
0
LINE
5
2f11
8
0-0
6
CONTINUOUS
62
  7
10
1455.784
20
1315.036
30
0.0
11
1483.784
21
1315.036
31
0.0
0
LINE
5
2f12
8
0-0
6
CONTINUOUS
62
  7
10
1455.784
20
1193.884
30
0.0
11
1455.784
21
1315.036
31
0.0
0
LINE
5
2f13
8
0-0
6
CONTINUOUS
62
  7
10
1483.784
20
1193.884
30
0.0
11
1483.784
21
1315.036
31
0.0
0
LINE
5
2f14
8
0-0
6
CONTINUOUS
62
  7
10
956.757
20
407.706
30
0.0
11
1221.757
21
407.706
31
0.0
0
LINE
5
2f15
8
0-0
6
CONTINUOUS
62
  7
10
956.757
20
499.369
30
0.0
11
956.757
21
407.706
31
0.0
0
LINE
5
2f16
8
0-0
6
CONTINUOUS
62
  7
10
1221.757
20
499.369
30
0.0
11
1221.757
21
407.706
31
0.0
0
LINE
5
2f17
8
0-0
6
CONTINUOUS
62
  7
10
677.027
20
1127.027
30
0.0
11
677.027
21
872.027
31
0.0
0
LINE
5
2f18
8
0-0
6
CONTINUOUS
62
  7
10
859.459
20
1127.027
30
0.0
11
677.027
21
1127.027
31
0.0
0
LINE
5
2f19
8
0-0
6
CONTINUOUS
62
  7
10
859.459
20
872.027
30
0.0
11
677.027
21
872.027
31
0.0
0
LINE
5
2f1a
8
0-0
6
CONTINUOUS
62
  7
10
677.027
20
559.459
30
0.0
11
677.027
21
587.459
31
0.0
0
LINE
5
2f1b
8
0-0
6
CONTINUOUS
62
  7
10
859.459
20
559.459
30
0.0
11
677.027
21
559.459
31
0.0
0
LINE
5
2f1c
8
0-0
6
CONTINUOUS
62
  7
10
859.459
20
587.459
30
0.0
11
677.027
21
587.459
31
0.0
0
LINE
5
2f1d
8
ADD_LINE
6
HIDDEN
62
  3
10
956.757
20
559.459
30
0.0
11
937.335
21
559.459
31
0.0
0
CIRCLE
5
2f1e
8
0-0
6
CONTINUOUS
62
  7
10
1089.757
20
1012.027
30
0.0
40
3.000
0
CIRCLE
5
2f1f
8
0-0
6
CONTINUOUS
62
  7
10
1089.757
20
987.027
30
0.0
40
3.000
0
ARC
5
2f20
8
0-0
6
CONTINUOUS
62
  7
10
1814.244
20
999.527
30
0.0
40
380.460
50
160.420120
51
199.579849
0
ARC
5
2f21
8
0-0
6
CONTINUOUS
62
  7
10
1748.765
20
999.527
30
0.0
40
295.981
50
158.287079
51
201.712921
0
CIRCLE
5
2f22
8
ADD_LINE
6
HIDDEN
62
  3
10
956.757
20
559.459
30
0.0
40
3.000
0
TEXT
5
2f23
100
AcDbEntity
8
0-0
62
7
100
AcDbText
10
1079.882
20
1317.536
30
0.0
40
9.750
41
0.800
50
0.000
1
265
100
AcDbText
0
TEXT
5
2f24
100
AcDbEntity
8
0-0
62
7
100
AcDbText
10
1463.534
20
1317.536
30
0.0
40
9.750
41
0.800
50
0.000
1
28
100
AcDbText
0
TEXT
5
2f25
100
AcDbEntity
8
0-0
62
7
100
AcDbText
10
1079.882
20
410.206
30
0.0
40
9.750
41
0.800
50
0.000
1
265
100
AcDbText
0
TEXT
5
2f26
100
AcDbEntity
8
0-0
62
7
100
AcDbText
10
674.527
20
990.152
30
0.0
40
9.750
41
0.800
50
90.000
1
255
100
AcDbText
0
TEXT
5
2f27
100
AcDbEntity
8
0-0
62
7
100
AcDbText
10
674.527
20
567.209
30
0.0
40
9.750
41
0.800
50
90.000
1
28
100
AcDbText
0
POINT
5
2f28
8
0-0
62
  7
10
956.757
20
1315.036
30
0.0
0
POINT
5
2f29
8
0-0
62
  7
10
1221.757
20
1315.036
30
0.0
0
POINT
5
2f2a
8
0-0
62
  7
10
1455.784
20
1315.036
30
0.0
0
POINT
5
2f2b
8
0-0
62
  7
10
1483.784
20
1315.036
30
0.0
0
POINT
5
2f2c
8
0-0
62
  7
10
956.757
20
407.706
30
0.0
0
POINT
5
2f2d
8
0-0
62
  7
10
1221.757
20
407.706
30
0.0
0
POINT
5
2f2e
8
0-0
62
  7
10
677.027
20
1127.027
30
0.0
0
POINT
5
2f2f
8
0-0
62
  7
10
677.027
20
872.027
30
0.0
0
POINT
5
2f30
8
0-0
62
  7
10
677.027
20
559.459
30
0.0
0
POINT
5
2f31
8
0-0
62
  7
10
677.027
20
587.459
30
0.0
0
ENDSEC
0
EOF
