0
SECTION
2
HEADER
  9
$EXTMIN
10
0
20
0
30
0
  9
$EXTMAX
10
2933.655
20
1804.156
30
0
  9
$LTSCALE
40
5.000
  9
$DIMSCALE
40
5.000
  9
$PDMODE
70
0
  9
$PDSIZE
40
40
0
ENDSEC
0
SECTION
2
TABLES
0
TABLE
2
LTYPE
70
9
0
LTYPE
5
1f4
2
CONTINUOUS
70
0
3
実線
72
65
73
0
40
0.0
0
LTYPE
5
1f5
2
DOT
70
0
3
--  --  --  --  --  --  --  --     
72
65
73
2
40
5.000
49
1.000
49
-4.000
0
LTYPE
5
1f6
2
DASHED
70
0
3
----    ----    ----    ----    
72
65
73
2
40
5.000
49
2.000
49
-3.000
0
LTYPE
5
1f7
2
DASHED2
70
0
3
------  ------  ------  ------ 
72
65
73
2
40
10.000
49
4.000
49
-6.000
0
LTYPE
5
1f8
2
CENTER
70
0
3
----- - ----- - ----- - ----- - 
72
65
73
4
40
9.000
49
6.000
49
-1.000
49
1.000
49
-1.000
0
LTYPE
5
1f9
2
CENTER2
70
0
3
----------  --  ----------  -- 
72
65
73
4
40
18.000
49
12.000
49
-2.000
49
2.000
49
-2.000
0
LTYPE
5
1fa
2
PHANTOM
70
0
3
--- - - --- - - --- - - --- - -
72
65
73
6
40
10.000
49
5.000
49
-1.000
49
1.000
49
-1.000
49
1.000
49
-1.000
0
LTYPE
5
1fb
2
PHANTOM2
70
0
3
--------  -  -  --------  -  -
72
65
73
6
40
16.000
49
6.000
49
-2.000
49
2.000
49
-2.000
49
2.000
49
-2.000
0
LTYPE
5
1fc
2
HIDDEN
70
0
3
-   -   -   -   -   -   -   -   
72
65
73
2
40
2.500
49
0.500
49
-2.000
0
ENDTAB
0
TABLE
2
STYLE
70
1
0
STYLE
5
1fd
100
AcDbSymbolTableRecord
100
AcDbTextStyleTableRecord
2
STANDARD
70
0
40
0.0
41
1.0
50
0.0
71
0
42
0.0
3
txt.shx
4
extfont.shx
0
STYLE
5
1fe
100
AcDbSymbolTableRecord
100
AcDbTextStyleTableRecord
2
TATEGAKI
70
4
40
0.0
41
1.0
50
0.0
71
0
42
0.0
3
txt.shx
4
extfont.shx
0
STYLE
5
1ff
100
AcDbSymbolTableRecord
100
AcDbTextStyleTableRecord
2
MT
70
0
40
0.0
41
1.0
50
0.0
71
0
42
0.0
3
MS Mincho
4

0
STYLE
5
200
100
AcDbSymbolTableRecord
100
AcDbTextStyleTableRecord
2
TMT
70
4
40
0.0
41
1.0
50
0.0
71
0
42
0.0
3
@MS Mincho
4

0
ENDTAB
0
TABLE
2
LAYER
5
465
100
AcDbSymbolTable
70
10
0
LAYER
5
466
100
AcDbSymbolTableRecord
100
AcDbLayerTableRecord
2
0
70
64
62
  7
  6
CONTINUOUS
0
LAYER
5
467
100
AcDbSymbolTableRecord
100
AcDbLayerTableRecord
2
0-0
70
64
62
  7
  6
CONTINUOUS
0
LAYER
5
468
100
AcDbSymbolTableRecord
100
AcDbLayerTableRecord
2
ADD_LINE
70
64
62
  -7
  6
CONTINUOUS
0
ENDTAB
0
ENDSEC
0
SECTION
2
ENTITIES
0
LINE
5
469
8
0-0
6
CONTINUOUS
62
  7
10
828.311
20
826.554
30
0.0
11
828.311
21
981.554
31
0.0
0
LINE
5
46a
8
0-0
6
CONTINUOUS
62
  7
10
828.311
20
981.554
30
0.0
11
1093.311
21
981.554
31
0.0
0
LINE
5
46b
8
0-0
6
CONTINUOUS
62
  7
10
1093.311
20
981.554
30
0.0
11
1093.311
21
826.554
31
0.0
0
LINE
5
46c
8
0-0
6
CONTINUOUS
62
  7
10
1093.311
20
826.554
30
0.0
11
828.311
21
826.554
31
0.0
0
LINE
5
46d
8
0-0
6
CONTINUOUS
62
  7
10
918.311
20
846.554
30
0.0
11
1003.311
21
846.554
31
0.0
0
LINE
5
46e
8
0-0
6
CONTINUOUS
62
  7
10
828.311
20
563.514
30
0.0
11
1093.311
21
563.514
31
0.0
0
LINE
5
46f
8
0-0
6
CONTINUOUS
62
  7
10
898.311
20
533.514
30
0.0
11
898.311
21
543.514
31
0.0
0
LINE
5
470
8
0-0
6
CONTINUOUS
62
  7
10
1013.311
20
523.514
30
0.0
11
908.311
21
523.514
31
0.0
0
LINE
5
471
8
0-0
6
CONTINUOUS
62
  7
10
1023.311
20
543.514
30
0.0
11
1023.311
21
533.514
31
0.0
0
LINE
5
472
8
0-0
6
CONTINUOUS
62
  7
10
1013.311
20
553.514
30
0.0
11
908.311
21
553.514
31
0.0
0
LINE
5
473
8
0-0
6
CONTINUOUS
62
  7
10
828.311
20
548.514
30
0.0
11
899.651
21
548.514
31
0.0
0
LINE
5
474
8
0-0
6
CONTINUOUS
62
  7
10
1021.971
20
548.514
30
0.0
11
1093.311
21
548.514
31
0.0
0
LINE
5
475
8
0-0
6
CONTINUOUS
62
  7
10
828.311
20
563.514
30
0.0
11
828.311
21
514.514
31
0.0
0
LINE
5
476
8
0-0
6
CONTINUOUS
62
  7
10
1093.311
20
563.514
30
0.0
11
1093.311
21
514.514
31
0.0
0
LINE
5
477
8
ADD_LINE
6
HIDDEN
62
  3
10
960.811
20
581.185
30
0.0
11
960.811
21
508.846
31
0.0
0
LINE
5
478
8
0-0
6
CONTINUOUS
62
  7
10
1281.081
20
981.554
30
0.0
11
1298.081
21
981.554
31
0.0
0
LINE
5
479
8
0-0
6
CONTINUOUS
62
  7
10
1358.081
20
798.528
30
0.0
11
1363.896
21
814.503
31
0.0
0
LINE
5
47a
8
0-0
6
CONTINUOUS
62
  7
10
1311.008
20
833.753
30
0.0
11
1363.896
21
814.503
31
0.0
0
LINE
5
47b
8
0-0
6
CONTINUOUS
62
  7
10
1296.081
20
821.094
30
0.0
11
1358.081
21
798.528
31
0.0
0
LINE
5
47c
8
0-0
6
CONTINUOUS
62
  7
10
1330.081
20
808.720
30
0.0
11
1335.896
21
824.694
31
0.0
0
LINE
5
47d
8
0-0
6
CONTINUOUS
62
  7
10
828.311
20
1183.784
30
0.0
11
1093.311
21
1183.784
31
0.0
0
LINE
5
47e
8
0-0
6
CONTINUOUS
62
  7
10
828.311
20
1037.838
30
0.0
11
828.311
21
1183.784
31
0.0
0
LINE
5
47f
8
0-0
6
CONTINUOUS
62
  7
10
1093.311
20
1037.838
30
0.0
11
1093.311
21
1183.784
31
0.0
0
LINE
5
480
8
0-0
6
CONTINUOUS
62
  7
10
1281.081
20
1183.784
30
0.0
11
1298.081
21
1183.784
31
0.0
0
LINE
5
481
8
0-0
6
CONTINUOUS
62
  7
10
1281.081
20
1037.838
30
0.0
11
1281.081
21
1183.784
31
0.0
0
LINE
5
482
8
0-0
6
CONTINUOUS
62
  7
10
1298.081
20
1037.838
30
0.0
11
1298.081
21
1183.784
31
0.0
0
LINE
5
483
8
0-0
6
CONTINUOUS
62
  7
10
1296.081
20
683.429
30
0.0
11
1358.081
21
683.429
31
0.0
0
LINE
5
484
8
0-0
6
CONTINUOUS
62
  7
10
1296.081
20
768.486
30
0.0
11
1296.081
21
683.429
31
0.0
0
LINE
5
485
8
0-0
6
CONTINUOUS
62
  7
10
1358.081
20
768.486
30
0.0
11
1358.081
21
683.429
31
0.0
0
LINE
5
486
8
0-0
6
CONTINUOUS
62
  7
10
828.311
20
683.429
30
0.0
11
898.311
21
683.429
31
0.0
0
LINE
5
487
8
0-0
6
CONTINUOUS
62
  7
10
828.311
20
768.486
30
0.0
11
828.311
21
683.429
31
0.0
0
LINE
5
488
8
0-0
6
CONTINUOUS
62
  7
10
898.311
20
768.486
30
0.0
11
898.311
21
683.429
31
0.0
0
LINE
5
489
8
0-0
6
CONTINUOUS
62
  7
10
898.311
20
683.429
30
0.0
11
1023.311
21
683.429
31
0.0
0
LINE
5
48a
8
0-0
6
CONTINUOUS
62
  7
10
1023.311
20
768.486
30
0.0
11
1023.311
21
683.429
31
0.0
0
LINE
5
48b
8
0-0
6
CONTINUOUS
62
  7
10
1023.311
20
683.429
30
0.0
11
1093.311
21
683.429
31
0.0
0
LINE
5
48c
8
0-0
6
CONTINUOUS
62
  7
10
1093.311
20
768.486
30
0.0
11
1093.311
21
683.429
31
0.0
0
LINE
5
48d
8
0-0
6
CONTINUOUS
62
  7
10
539.189
20
981.554
30
0.0
11
539.189
21
826.554
31
0.0
0
LINE
5
48e
8
0-0
6
CONTINUOUS
62
  7
10
745.946
20
981.554
30
0.0
11
539.189
21
981.554
31
0.0
0
LINE
5
48f
8
0-0
6
CONTINUOUS
62
  7
10
745.946
20
826.554
30
0.0
11
539.189
21
826.554
31
0.0
0
LINE
5
490
8
ADD_LINE
6
HIDDEN
62
  3
10
960.811
20
508.846
30
0.0
11
960.811
21
457.423
31
0.0
0
LINE
5
491
8
0-0
6
CONTINUOUS
62
  7
10
539.189
20
563.514
30
0.0
11
539.189
21
486.514
31
0.0
0
LINE
5
492
8
0-0
6
CONTINUOUS
62
  7
10
745.946
20
563.514
30
0.0
11
539.189
21
563.514
31
0.0
0
LINE
5
493
8
0-0
6
CONTINUOUS
62
  7
10
745.946
20
486.514
30
0.0
11
539.189
21
486.514
31
0.0
0
LINE
5
494
8
0-0
6
CONTINUOUS
62
  7
10
616.099
20
563.514
30
0.0
11
616.099
21
548.514
31
0.0
0
LINE
5
495
8
0-0
6
CONTINUOUS
62
  7
10
745.946
20
563.514
30
0.0
11
616.099
21
563.514
31
0.0
0
LINE
5
496
8
0-0
6
CONTINUOUS
62
  7
10
745.946
20
548.514
30
0.0
11
616.099
21
548.514
31
0.0
0
LINE
5
497
8
0-0
6
CONTINUOUS
62
  7
10
616.099
20
548.514
30
0.0
11
616.099
21
514.514
31
0.0
0
LINE
5
498
8
0-0
6
CONTINUOUS
62
  7
10
745.946
20
514.514
30
0.0
11
616.099
21
514.514
31
0.0
0
CIRCLE
5
499
8
0-0
6
CONTINUOUS
62
  7
10
1073.311
20
956.554
30
0.0
40
3.000
0
CIRCLE
5
49a
8
0-0
6
CONTINUOUS
62
  7
10
848.311
20
956.554
30
0.0
40
3.000
0
ARC
5
49b
8
0-0
6
CONTINUOUS
62
  7
10
918.311
20
826.554
30
0.0
40
20.000
50
90.000000
51
180.000000
0
ARC
5
49c
8
0-0
6
CONTINUOUS
62
  7
10
1003.311
20
826.554
30
0.0
40
20.000
50
0.000000
51
90.000000
0
ARC
5
49d
8
0-0
6
CONTINUOUS
62
  7
10
908.311
20
543.514
30
0.0
40
10.000
50
90.000000
51
180.000000
0
ARC
5
49e
8
0-0
6
CONTINUOUS
62
  7
10
908.311
20
533.514
30
0.0
40
10.000
50
180.000000
51
270.000000
0
ARC
5
49f
8
0-0
6
CONTINUOUS
62
  7
10
1013.311
20
533.514
30
0.0
40
10.000
50
270.000000
51
0.000000
0
ARC
5
4a0
8
0-0
6
CONTINUOUS
62
  7
10
1013.311
20
543.514
30
0.0
40
10.000
50
0.000000
51
90.000000
0
ARC
5
4a1
8
0-0
6
CONTINUOUS
62
  7
10
960.811
20
557.524
30
0.0
40
71.010
50
236.202576
51
303.797363
0
ARC
5
4a2
8
0-0
6
CONTINUOUS
62
  7
10
904.969
20
557.350
30
0.0
40
61.064
50
233.107117
51
285.523071
0
ARC
5
4a3
8
0-0
6
CONTINUOUS
62
  7
10
1016.653
20
557.350
30
0.0
40
61.064
50
254.476929
51
306.892883
0
ARC
5
4a4
8
0-0
6
CONTINUOUS
62
  7
10
830.485
20
392.677
30
0.0
40
121.856
50
71.915985
51
91.022552
0
ARC
5
4a5
8
0-0
6
CONTINUOUS
62
  7
10
1091.136
20
392.677
30
0.0
40
121.856
50
448.977478
51
468.084015
0
ARC
5
4a6
8
0-0
6
CONTINUOUS
62
  7
10
2107.364
20
977.866
30
0.0
40
826.291
50
179.744232
51
190.936951
0
ARC
5
4a7
8
0-0
6
CONTINUOUS
62
  7
10
2107.364
20
977.866
30
0.0
40
809.291
50
179.738861
51
190.257523
0
CIRCLE
5
4a8
8
ADD_LINE
6
HIDDEN
62
  3
10
960.811
20
563.514
30
0.0
40
3.000
0
TEXT
5
4a9
100
AcDbEntity
8
0-0
62
7
100
AcDbText
10
951.436
20
1186.284
30
0.0
40
9.750
41
0.800
50
0.000
1
265
100
AcDbText
0
TEXT
5
4aa
100
AcDbEntity
8
0-0
62
7
100
AcDbText
10
1283.331
20
1186.284
30
0.0
40
9.750
41
0.800
50
0.000
1
17
100
AcDbText
0
TEXT
5
4ab
100
AcDbEntity
8
0-0
62
7
100
AcDbText
10
1320.831
20
685.929
30
0.0
40
9.750
41
0.800
50
0.000
1
62
100
AcDbText
0
TEXT
5
4ac
100
AcDbEntity
8
0-0
62
7
100
AcDbText
10
857.061
20
685.929
30
0.0
40
9.750
41
0.800
50
0.000
1
70
100
AcDbText
0
TEXT
5
4ad
100
AcDbEntity
8
0-0
62
7
100
AcDbText
10
951.436
20
685.929
30
0.0
40
9.750
41
0.800
50
0.000
1
125
100
AcDbText
0
TEXT
5
4ae
100
AcDbEntity
8
0-0
62
7
100
AcDbText
10
1052.061
20
685.929
30
0.0
40
9.750
41
0.800
50
0.000
1
70
100
AcDbText
0
TEXT
5
4af
100
AcDbEntity
8
0-0
62
7
100
AcDbText
10
536.689
20
894.679
30
0.0
40
9.750
41
0.800
50
90.000
1
155
100
AcDbText
0
TEXT
5
4b0
100
AcDbEntity
8
0-0
62
7
100
AcDbText
10
536.689
20
518.764
30
0.0
40
9.750
41
0.800
50
90.000
1
77
100
AcDbText
0
TEXT
5
4b1
100
AcDbEntity
8
0-0
62
7
100
AcDbText
10
613.599
20
549.764
30
0.0
40
9.750
41
0.800
50
90.000
1
15
100
AcDbText
0
TEXT
5
4b2
100
AcDbEntity
8
0-0
62
7
100
AcDbText
10
613.599
20
525.264
30
0.0
40
9.750
41
0.800
50
90.000
1
34
100
AcDbText
0
POINT
5
4b3
8
0-0
62
  7
10
828.311
20
1183.784
30
0.0
0
POINT
5
4b4
8
0-0
62
  7
10
1093.311
20
1183.784
30
0.0
0
POINT
5
4b5
8
0-0
62
  7
10
1281.081
20
1183.784
30
0.0
0
POINT
5
4b6
8
0-0
62
  7
10
1298.081
20
1183.784
30
0.0
0
POINT
5
4b7
8
0-0
62
  7
10
1296.081
20
683.429
30
0.0
0
POINT
5
4b8
8
0-0
62
  7
10
1358.081
20
683.429
30
0.0
0
POINT
5
4b9
8
0-0
62
  7
10
828.311
20
683.429
30
0.0
0
POINT
5
4ba
8
0-0
62
  7
10
898.311
20
683.429
30
0.0
0
POINT
5
4bb
8
0-0
62
  7
10
1023.311
20
683.429
30
0.0
0
POINT
5
4bc
8
0-0
62
  7
10
1093.311
20
683.429
30
0.0
0
POINT
5
4bd
8
0-0
62
  7
10
539.189
20
981.554
30
0.0
0
POINT
5
4be
8
0-0
62
  7
10
539.189
20
826.554
30
0.0
0
POINT
5
4bf
8
0-0
62
  7
10
539.189
20
563.514
30
0.0
0
POINT
5
4c0
8
0-0
62
  7
10
539.189
20
486.514
30
0.0
0
POINT
5
4c1
8
0-0
62
  7
10
616.099
20
563.514
30
0.0
0
POINT
5
4c2
8
0-0
62
  7
10
616.099
20
548.514
30
0.0
0
POINT
5
4c3
8
0-0
62
  7
10
616.099
20
514.514
30
0.0
0
ENDSEC
0
EOF
