0
SECTION
2
HEADER
  9
$EXTMIN
10
0
20
0
30
0
  9
$EXTMAX
10
1456.595
20
1212.162
30
0
  9
$LTSCALE
40
5.000
  9
$DIMSCALE
40
5.000
  9
$PDMODE
70
0
  9
$PDSIZE
40
40
0
ENDSEC
0
SECTION
2
TABLES
0
TABLE
2
LTYPE
70
9
0
LTYPE
5
1f4
2
CONTINUOUS
70
0
3
実線
72
65
73
0
40
0.0
0
LTYPE
5
1f5
2
DOT
70
0
3
--  --  --  --  --  --  --  --     
72
65
73
2
40
5.000
49
1.000
49
-4.000
0
LTYPE
5
1f6
2
DASHED
70
0
3
----    ----    ----    ----    
72
65
73
2
40
5.000
49
2.000
49
-3.000
0
LTYPE
5
1f7
2
DASHED2
70
0
3
------  ------  ------  ------ 
72
65
73
2
40
10.000
49
4.000
49
-6.000
0
LTYPE
5
1f8
2
CENTER
70
0
3
----- - ----- - ----- - ----- - 
72
65
73
4
40
9.000
49
6.000
49
-1.000
49
1.000
49
-1.000
0
LTYPE
5
1f9
2
CENTER2
70
0
3
----------  --  ----------  -- 
72
65
73
4
40
18.000
49
12.000
49
-2.000
49
2.000
49
-2.000
0
LTYPE
5
1fa
2
PHANTOM
70
0
3
--- - - --- - - --- - - --- - -
72
65
73
6
40
10.000
49
5.000
49
-1.000
49
1.000
49
-1.000
49
1.000
49
-1.000
0
LTYPE
5
1fb
2
PHANTOM2
70
0
3
--------  -  -  --------  -  -
72
65
73
6
40
16.000
49
6.000
49
-2.000
49
2.000
49
-2.000
49
2.000
49
-2.000
0
LTYPE
5
1fc
2
HIDDEN
70
0
3
-   -   -   -   -   -   -   -   
72
65
73
2
40
2.500
49
0.500
49
-2.000
0
ENDTAB
0
TABLE
2
STYLE
70
1
0
STYLE
5
1fd
100
AcDbSymbolTableRecord
100
AcDbTextStyleTableRecord
2
STANDARD
70
0
40
0.0
41
1.0
50
0.0
71
0
42
0.0
3
txt.shx
4
extfont.shx
0
STYLE
5
1fe
100
AcDbSymbolTableRecord
100
AcDbTextStyleTableRecord
2
TATEGAKI
70
4
40
0.0
41
1.0
50
0.0
71
0
42
0.0
3
txt.shx
4
extfont.shx
0
STYLE
5
1ff
100
AcDbSymbolTableRecord
100
AcDbTextStyleTableRecord
2
MT
70
0
40
0.0
41
1.0
50
0.0
71
0
42
0.0
3
MS Mincho
4

0
STYLE
5
200
100
AcDbSymbolTableRecord
100
AcDbTextStyleTableRecord
2
TMT
70
4
40
0.0
41
1.0
50
0.0
71
0
42
0.0
3
@MS Mincho
4

0
ENDTAB
0
TABLE
2
LAYER
5
252f
100
AcDbSymbolTable
70
10
0
LAYER
5
2530
100
AcDbSymbolTableRecord
100
AcDbLayerTableRecord
2
0
70
64
62
  7
  6
CONTINUOUS
0
LAYER
5
2531
100
AcDbSymbolTableRecord
100
AcDbLayerTableRecord
2
0-0
70
64
62
  7
  6
CONTINUOUS
0
LAYER
5
2532
100
AcDbSymbolTableRecord
100
AcDbLayerTableRecord
2
ADD_LINE
70
64
62
  -7
  6
CONTINUOUS
0
ENDTAB
0
ENDSEC
0
SECTION
2
ENTITIES
0
LINE
5
2533
8
ADD_LINE
6
HIDDEN
62
  3
10
997.297
20
1212.162
30
0.0
11
997.297
21
202.703
31
0.0
0
LINE
5
2534
8
0-0
6
CONTINUOUS
62
  7
10
857.297
20
466.216
30
0.0
11
1137.297
21
466.216
31
0.0
0
LINE
5
2535
8
0-0
6
CONTINUOUS
62
  7
10
873.297
20
601.216
30
0.0
11
873.903
21
604.057
31
0.0
0
LINE
5
2536
8
0-0
6
CONTINUOUS
62
  7
10
873.903
20
604.057
30
0.0
11
875.003
21
608.936
31
0.0
0
LINE
5
2537
8
0-0
6
CONTINUOUS
62
  7
10
875.003
20
608.936
30
0.0
11
876.258
21
613.765
31
0.0
0
LINE
5
2538
8
0-0
6
CONTINUOUS
62
  7
10
876.258
20
613.765
30
0.0
11
877.767
21
618.512
31
0.0
0
LINE
5
2539
8
0-0
6
CONTINUOUS
62
  7
10
877.767
20
618.512
30
0.0
11
878.797
21
621.216
31
0.0
0
LINE
5
253a
8
0-0
6
CONTINUOUS
62
  7
10
878.797
20
621.216
30
0.0
11
879.421
21
622.685
31
0.0
0
LINE
5
253b
8
0-0
6
CONTINUOUS
62
  7
10
879.421
20
622.685
30
0.0
11
880.600
21
625.174
31
0.0
0
LINE
5
253c
8
0-0
6
CONTINUOUS
62
  7
10
880.600
20
625.174
30
0.0
11
881.916
21
627.591
31
0.0
0
LINE
5
253d
8
0-0
6
CONTINUOUS
62
  7
10
881.916
20
627.591
30
0.0
11
883.379
21
629.917
31
0.0
0
LINE
5
253e
8
0-0
6
CONTINUOUS
62
  7
10
883.379
20
629.917
30
0.0
11
884.297
21
631.216
31
0.0
0
LINE
5
253f
8
0-0
6
CONTINUOUS
62
  7
10
884.297
20
631.216
30
0.0
11
885.508
21
632.770
31
0.0
0
LINE
5
2540
8
0-0
6
CONTINUOUS
62
  7
10
885.508
20
632.770
30
0.0
11
887.766
21
635.311
31
0.0
0
LINE
5
2541
8
0-0
6
CONTINUOUS
62
  7
10
887.766
20
635.311
30
0.0
11
890.199
21
637.699
31
0.0
0
LINE
5
2542
8
0-0
6
CONTINUOUS
62
  7
10
890.199
20
637.699
30
0.0
11
892.765
21
639.957
31
0.0
0
LINE
5
2543
8
0-0
6
CONTINUOUS
62
  7
10
892.765
20
639.957
30
0.0
11
894.297
21
641.216
31
0.0
0
LINE
5
2544
8
0-0
6
CONTINUOUS
62
  7
10
894.297
20
641.216
30
0.0
11
896.283
21
642.774
31
0.0
0
LINE
5
2545
8
0-0
6
CONTINUOUS
62
  7
10
896.283
20
642.774
30
0.0
11
899.788
21
645.339
31
0.0
0
LINE
5
2546
8
0-0
6
CONTINUOUS
62
  7
10
899.788
20
645.339
30
0.0
11
903.395
21
647.745
31
0.0
0
LINE
5
2547
8
0-0
6
CONTINUOUS
62
  7
10
903.395
20
647.745
30
0.0
11
907.102
21
649.990
31
0.0
0
LINE
5
2548
8
0-0
6
CONTINUOUS
62
  7
10
907.102
20
649.990
30
0.0
11
909.297
21
651.216
31
0.0
0
LINE
5
2549
8
0-0
6
CONTINUOUS
62
  7
10
909.297
20
651.216
30
0.0
11
910.787
21
652.007
31
0.0
0
LINE
5
254a
8
0-0
6
CONTINUOUS
62
  7
10
910.787
20
652.007
30
0.0
11
913.391
21
653.305
31
0.0
0
LINE
5
254b
8
0-0
6
CONTINUOUS
62
  7
10
913.391
20
653.305
30
0.0
11
916.036
21
654.513
31
0.0
0
LINE
5
254c
8
0-0
6
CONTINUOUS
62
  7
10
916.036
20
654.513
30
0.0
11
918.722
21
655.622
31
0.0
0
LINE
5
254d
8
0-0
6
CONTINUOUS
62
  7
10
918.722
20
655.622
30
0.0
11
920.297
21
656.216
31
0.0
0
LINE
5
254e
8
0-0
6
CONTINUOUS
62
  7
10
920.297
20
656.216
30
0.0
11
923.144
21
657.185
31
0.0
0
LINE
5
254f
8
0-0
6
CONTINUOUS
62
  7
10
923.144
20
657.185
30
0.0
11
928.132
21
658.606
31
0.0
0
LINE
5
2550
8
0-0
6
CONTINUOUS
62
  7
10
928.132
20
658.606
30
0.0
11
933.199
21
659.765
31
0.0
0
LINE
5
2551
8
0-0
6
CONTINUOUS
62
  7
10
933.199
20
659.765
30
0.0
11
938.317
21
660.725
31
0.0
0
LINE
5
2552
8
0-0
6
CONTINUOUS
62
  7
10
938.317
20
660.725
30
0.0
11
941.297
21
661.216
31
0.0
0
LINE
5
2553
8
0-0
6
CONTINUOUS
62
  7
10
941.297
20
661.216
30
0.0
11
949.074
21
662.341
31
0.0
0
LINE
5
2554
8
0-0
6
CONTINUOUS
62
  7
10
949.074
20
662.341
30
0.0
11
962.513
21
663.846
31
0.0
0
LINE
5
2555
8
0-0
6
CONTINUOUS
62
  7
10
962.513
20
663.846
30
0.0
11
975.982
21
664.939
31
0.0
0
LINE
5
2556
8
0-0
6
CONTINUOUS
62
  7
10
975.982
20
664.939
30
0.0
11
989.470
21
665.781
31
0.0
0
LINE
5
2557
8
0-0
6
CONTINUOUS
62
  7
10
989.470
20
665.781
30
0.0
11
997.297
21
666.216
31
0.0
0
LINE
5
2558
8
0-0
6
CONTINUOUS
62
  7
10
873.297
20
601.216
30
0.0
11
857.297
21
466.216
31
0.0
0
LINE
5
2559
8
0-0
6
CONTINUOUS
62
  7
10
1121.297
20
601.216
30
0.0
11
1120.692
21
604.057
31
0.0
0
LINE
5
255a
8
0-0
6
CONTINUOUS
62
  7
10
1120.692
20
604.057
30
0.0
11
1119.592
21
608.936
31
0.0
0
LINE
5
255b
8
0-0
6
CONTINUOUS
62
  7
10
1119.592
20
608.936
30
0.0
11
1118.337
21
613.765
31
0.0
0
LINE
5
255c
8
0-0
6
CONTINUOUS
62
  7
10
1118.337
20
613.765
30
0.0
11
1116.828
21
618.512
31
0.0
0
LINE
5
255d
8
0-0
6
CONTINUOUS
62
  7
10
1116.828
20
618.512
30
0.0
11
1115.797
21
621.216
31
0.0
0
LINE
5
255e
8
0-0
6
CONTINUOUS
62
  7
10
1115.797
20
621.216
30
0.0
11
1115.173
21
622.685
31
0.0
0
LINE
5
255f
8
0-0
6
CONTINUOUS
62
  7
10
1115.173
20
622.685
30
0.0
11
1113.995
21
625.174
31
0.0
0
LINE
5
2560
8
0-0
6
CONTINUOUS
62
  7
10
1113.995
20
625.174
30
0.0
11
1112.678
21
627.591
31
0.0
0
LINE
5
2561
8
0-0
6
CONTINUOUS
62
  7
10
1112.678
20
627.591
30
0.0
11
1111.216
21
629.917
31
0.0
0
LINE
5
2562
8
0-0
6
CONTINUOUS
62
  7
10
1111.216
20
629.917
30
0.0
11
1110.297
21
631.216
31
0.0
0
LINE
5
2563
8
0-0
6
CONTINUOUS
62
  7
10
1110.297
20
631.216
30
0.0
11
1109.086
21
632.770
31
0.0
0
LINE
5
2564
8
0-0
6
CONTINUOUS
62
  7
10
1109.086
20
632.770
30
0.0
11
1106.829
21
635.311
31
0.0
0
LINE
5
2565
8
0-0
6
CONTINUOUS
62
  7
10
1106.829
20
635.311
30
0.0
11
1104.396
21
637.699
31
0.0
0
LINE
5
2566
8
0-0
6
CONTINUOUS
62
  7
10
1104.396
20
637.699
30
0.0
11
1101.829
21
639.957
31
0.0
0
LINE
5
2567
8
0-0
6
CONTINUOUS
62
  7
10
1101.829
20
639.957
30
0.0
11
1100.297
21
641.216
31
0.0
0
LINE
5
2568
8
0-0
6
CONTINUOUS
62
  7
10
1100.297
20
641.216
30
0.0
11
1098.311
21
642.774
31
0.0
0
LINE
5
2569
8
0-0
6
CONTINUOUS
62
  7
10
1098.311
20
642.774
30
0.0
11
1094.807
21
645.339
31
0.0
0
LINE
5
256a
8
0-0
6
CONTINUOUS
62
  7
10
1094.807
20
645.339
30
0.0
11
1091.200
21
647.745
31
0.0
0
LINE
5
256b
8
0-0
6
CONTINUOUS
62
  7
10
1091.200
20
647.745
30
0.0
11
1087.493
21
649.990
31
0.0
0
LINE
5
256c
8
0-0
6
CONTINUOUS
62
  7
10
1087.493
20
649.990
30
0.0
11
1085.297
21
651.216
31
0.0
0
LINE
5
256d
8
0-0
6
CONTINUOUS
62
  7
10
1085.297
20
651.216
30
0.0
11
1083.807
21
652.007
31
0.0
0
LINE
5
256e
8
0-0
6
CONTINUOUS
62
  7
10
1083.807
20
652.007
30
0.0
11
1081.204
21
653.305
31
0.0
0
LINE
5
256f
8
0-0
6
CONTINUOUS
62
  7
10
1081.204
20
653.305
30
0.0
11
1078.559
21
654.513
31
0.0
0
LINE
5
2570
8
0-0
6
CONTINUOUS
62
  7
10
1078.559
20
654.513
30
0.0
11
1075.873
21
655.622
31
0.0
0
LINE
5
2571
8
0-0
6
CONTINUOUS
62
  7
10
1075.873
20
655.622
30
0.0
11
1074.297
21
656.216
31
0.0
0
LINE
5
2572
8
0-0
6
CONTINUOUS
62
  7
10
1074.297
20
656.216
30
0.0
11
1071.451
21
657.185
31
0.0
0
LINE
5
2573
8
0-0
6
CONTINUOUS
62
  7
10
1071.451
20
657.185
30
0.0
11
1066.463
21
658.606
31
0.0
0
LINE
5
2574
8
0-0
6
CONTINUOUS
62
  7
10
1066.463
20
658.606
30
0.0
11
1061.396
21
659.765
31
0.0
0
LINE
5
2575
8
0-0
6
CONTINUOUS
62
  7
10
1061.396
20
659.765
30
0.0
11
1056.278
21
660.725
31
0.0
0
LINE
5
2576
8
0-0
6
CONTINUOUS
62
  7
10
1056.278
20
660.725
30
0.0
11
1053.297
21
661.216
31
0.0
0
LINE
5
2577
8
0-0
6
CONTINUOUS
62
  7
10
1053.297
20
661.216
30
0.0
11
1045.521
21
662.341
31
0.0
0
LINE
5
2578
8
0-0
6
CONTINUOUS
62
  7
10
1045.521
20
662.341
30
0.0
11
1032.082
21
663.846
31
0.0
0
LINE
5
2579
8
0-0
6
CONTINUOUS
62
  7
10
1032.082
20
663.846
30
0.0
11
1018.612
21
664.939
31
0.0
0
LINE
5
257a
8
0-0
6
CONTINUOUS
62
  7
10
1018.612
20
664.939
30
0.0
11
1005.124
21
665.781
31
0.0
0
LINE
5
257b
8
0-0
6
CONTINUOUS
62
  7
10
1005.124
20
665.781
30
0.0
11
997.297
21
666.216
31
0.0
0
LINE
5
257c
8
0-0
6
CONTINUOUS
62
  7
10
1121.297
20
601.216
30
0.0
11
1137.297
21
466.216
31
0.0
0
LINE
5
257d
8
0-0
6
CONTINUOUS
62
  7
10
930.307
20
556.216
30
0.0
11
930.911
21
558.791
31
0.0
0
LINE
5
257e
8
0-0
6
CONTINUOUS
62
  7
10
930.911
20
558.791
30
0.0
11
931.529
21
561.247
31
0.0
0
LINE
5
257f
8
0-0
6
CONTINUOUS
62
  7
10
931.529
20
561.247
30
0.0
11
932.167
21
563.591
31
0.0
0
LINE
5
2580
8
0-0
6
CONTINUOUS
62
  7
10
932.167
20
563.591
30
0.0
11
932.833
21
565.831
31
0.0
0
LINE
5
2581
8
0-0
6
CONTINUOUS
62
  7
10
932.833
20
565.831
30
0.0
11
933.532
21
567.972
31
0.0
0
LINE
5
2582
8
0-0
6
CONTINUOUS
62
  7
10
933.532
20
567.972
30
0.0
11
934.269
21
570.020
31
0.0
0
LINE
5
2583
8
0-0
6
CONTINUOUS
62
  7
10
934.269
20
570.020
30
0.0
11
935.047
21
571.978
31
0.0
0
LINE
5
2584
8
0-0
6
CONTINUOUS
62
  7
10
935.047
20
571.978
30
0.0
11
935.869
21
573.850
31
0.0
0
LINE
5
2585
8
0-0
6
CONTINUOUS
62
  7
10
935.869
20
573.850
30
0.0
11
936.739
21
575.639
31
0.0
0
LINE
5
2586
8
0-0
6
CONTINUOUS
62
  7
10
936.739
20
575.639
30
0.0
11
937.658
21
577.349
31
0.0
0
LINE
5
2587
8
0-0
6
CONTINUOUS
62
  7
10
937.658
20
577.349
30
0.0
11
938.628
21
578.981
31
0.0
0
LINE
5
2588
8
0-0
6
CONTINUOUS
62
  7
10
938.628
20
578.981
30
0.0
11
939.650
21
580.539
31
0.0
0
LINE
5
2589
8
0-0
6
CONTINUOUS
62
  7
10
939.650
20
580.539
30
0.0
11
940.727
21
582.025
31
0.0
0
LINE
5
258a
8
0-0
6
CONTINUOUS
62
  7
10
940.727
20
582.025
30
0.0
11
941.859
21
583.441
31
0.0
0
LINE
5
258b
8
0-0
6
CONTINUOUS
62
  7
10
941.859
20
583.441
30
0.0
11
943.049
21
584.790
31
0.0
0
LINE
5
258c
8
0-0
6
CONTINUOUS
62
  7
10
943.049
20
584.790
30
0.0
11
944.296
21
586.075
31
0.0
0
LINE
5
258d
8
0-0
6
CONTINUOUS
62
  7
10
944.296
20
586.075
30
0.0
11
945.602
21
587.298
31
0.0
0
LINE
5
258e
8
0-0
6
CONTINUOUS
62
  7
10
945.602
20
587.298
30
0.0
11
946.969
21
588.461
31
0.0
0
LINE
5
258f
8
0-0
6
CONTINUOUS
62
  7
10
946.969
20
588.461
30
0.0
11
948.397
21
589.567
31
0.0
0
LINE
5
2590
8
0-0
6
CONTINUOUS
62
  7
10
948.397
20
589.567
30
0.0
11
949.888
21
590.618
31
0.0
0
LINE
5
2591
8
0-0
6
CONTINUOUS
62
  7
10
949.888
20
590.618
30
0.0
11
951.443
21
591.617
31
0.0
0
LINE
5
2592
8
0-0
6
CONTINUOUS
62
  7
10
951.443
20
591.617
30
0.0
11
953.062
21
592.567
31
0.0
0
LINE
5
2593
8
0-0
6
CONTINUOUS
62
  7
10
953.062
20
592.567
30
0.0
11
954.747
21
593.470
31
0.0
0
LINE
5
2594
8
0-0
6
CONTINUOUS
62
  7
10
954.747
20
593.470
30
0.0
11
956.497
21
594.327
31
0.0
0
LINE
5
2595
8
0-0
6
CONTINUOUS
62
  7
10
956.497
20
594.327
30
0.0
11
958.312
21
595.141
31
0.0
0
LINE
5
2596
8
0-0
6
CONTINUOUS
62
  7
10
958.312
20
595.141
30
0.0
11
960.193
21
595.914
31
0.0
0
LINE
5
2597
8
0-0
6
CONTINUOUS
62
  7
10
960.193
20
595.914
30
0.0
11
962.137
21
596.648
31
0.0
0
LINE
5
2598
8
0-0
6
CONTINUOUS
62
  7
10
962.137
20
596.648
30
0.0
11
964.144
21
597.344
31
0.0
0
LINE
5
2599
8
0-0
6
CONTINUOUS
62
  7
10
964.144
20
597.344
30
0.0
11
966.210
21
598.003
31
0.0
0
LINE
5
259a
8
0-0
6
CONTINUOUS
62
  7
10
966.210
20
598.003
30
0.0
11
968.331
21
598.625
31
0.0
0
LINE
5
259b
8
0-0
6
CONTINUOUS
62
  7
10
968.331
20
598.625
30
0.0
11
970.503
21
599.212
31
0.0
0
LINE
5
259c
8
0-0
6
CONTINUOUS
62
  7
10
970.503
20
599.212
30
0.0
11
972.718
21
599.763
31
0.0
0
LINE
5
259d
8
0-0
6
CONTINUOUS
62
  7
10
972.718
20
599.763
30
0.0
11
974.968
21
600.278
31
0.0
0
LINE
5
259e
8
0-0
6
CONTINUOUS
62
  7
10
974.968
20
600.278
30
0.0
11
977.242
21
600.756
31
0.0
0
LINE
5
259f
8
0-0
6
CONTINUOUS
62
  7
10
977.242
20
600.756
30
0.0
11
979.529
21
601.196
31
0.0
0
LINE
5
25a0
8
0-0
6
CONTINUOUS
62
  7
10
979.529
20
601.196
30
0.0
11
981.813
21
601.596
31
0.0
0
LINE
5
25a1
8
0-0
6
CONTINUOUS
62
  7
10
981.813
20
601.596
30
0.0
11
984.076
21
601.954
31
0.0
0
LINE
5
25a2
8
0-0
6
CONTINUOUS
62
  7
10
984.076
20
601.954
30
0.0
11
986.297
21
602.267
31
0.0
0
LINE
5
25a3
8
0-0
6
CONTINUOUS
62
  7
10
986.297
20
602.267
30
0.0
11
988.451
21
602.532
31
0.0
0
LINE
5
25a4
8
0-0
6
CONTINUOUS
62
  7
10
930.307
20
556.216
30
0.0
11
917.297
21
466.216
31
0.0
0
LINE
5
25a5
8
0-0
6
CONTINUOUS
62
  7
10
988.451
20
602.532
30
0.0
11
997.297
21
602.532
31
0.0
0
LINE
5
25a6
8
0-0
6
CONTINUOUS
62
  7
10
944.910
20
552.789
30
0.0
11
945.487
21
555.249
31
0.0
0
LINE
5
25a7
8
0-0
6
CONTINUOUS
62
  7
10
945.487
20
555.249
30
0.0
11
946.040
21
557.446
31
0.0
0
LINE
5
25a8
8
0-0
6
CONTINUOUS
62
  7
10
946.040
20
557.446
30
0.0
11
946.594
21
559.482
31
0.0
0
LINE
5
25a9
8
0-0
6
CONTINUOUS
62
  7
10
946.594
20
559.482
30
0.0
11
947.154
21
561.365
31
0.0
0
LINE
5
25aa
8
0-0
6
CONTINUOUS
62
  7
10
947.154
20
561.365
30
0.0
11
947.722
21
563.104
31
0.0
0
LINE
5
25ab
8
0-0
6
CONTINUOUS
62
  7
10
947.722
20
563.104
30
0.0
11
948.300
21
564.711
31
0.0
0
LINE
5
25ac
8
0-0
6
CONTINUOUS
62
  7
10
948.300
20
564.711
30
0.0
11
948.888
21
566.190
31
0.0
0
LINE
5
25ad
8
0-0
6
CONTINUOUS
62
  7
10
948.888
20
566.190
30
0.0
11
949.486
21
567.552
31
0.0
0
LINE
5
25ae
8
0-0
6
CONTINUOUS
62
  7
10
949.486
20
567.552
30
0.0
11
950.097
21
568.808
31
0.0
0
LINE
5
25af
8
0-0
6
CONTINUOUS
62
  7
10
950.097
20
568.808
30
0.0
11
950.718
21
569.963
31
0.0
0
LINE
5
25b0
8
0-0
6
CONTINUOUS
62
  7
10
950.718
20
569.963
30
0.0
11
951.352
21
571.031
31
0.0
0
LINE
5
25b1
8
0-0
6
CONTINUOUS
62
  7
10
951.352
20
571.031
30
0.0
11
952.000
21
572.018
31
0.0
0
LINE
5
25b2
8
0-0
6
CONTINUOUS
62
  7
10
952.000
20
572.018
30
0.0
11
952.664
21
572.935
31
0.0
0
LINE
5
25b3
8
0-0
6
CONTINUOUS
62
  7
10
952.664
20
572.935
30
0.0
11
953.351
21
573.793
31
0.0
0
LINE
5
25b4
8
0-0
6
CONTINUOUS
62
  7
10
953.351
20
573.793
30
0.0
11
954.064
21
574.602
31
0.0
0
LINE
5
25b5
8
0-0
6
CONTINUOUS
62
  7
10
954.064
20
574.602
30
0.0
11
954.808
21
575.369
31
0.0
0
LINE
5
25b6
8
0-0
6
CONTINUOUS
62
  7
10
954.808
20
575.369
30
0.0
11
955.593
21
576.104
31
0.0
0
LINE
5
25b7
8
0-0
6
CONTINUOUS
62
  7
10
955.593
20
576.104
30
0.0
11
956.426
21
576.812
31
0.0
0
LINE
5
25b8
8
0-0
6
CONTINUOUS
62
  7
10
956.426
20
576.812
30
0.0
11
957.316
21
577.501
31
0.0
0
LINE
5
25b9
8
0-0
6
CONTINUOUS
62
  7
10
957.316
20
577.501
30
0.0
11
958.269
21
578.174
31
0.0
0
LINE
5
25ba
8
0-0
6
CONTINUOUS
62
  7
10
958.269
20
578.174
30
0.0
11
959.297
21
578.835
31
0.0
0
LINE
5
25bb
8
0-0
6
CONTINUOUS
62
  7
10
959.297
20
578.835
30
0.0
11
960.401
21
579.482
31
0.0
0
LINE
5
25bc
8
0-0
6
CONTINUOUS
62
  7
10
960.401
20
579.482
30
0.0
11
961.591
21
580.119
31
0.0
0
LINE
5
25bd
8
0-0
6
CONTINUOUS
62
  7
10
961.591
20
580.119
30
0.0
11
962.867
21
580.744
31
0.0
0
LINE
5
25be
8
0-0
6
CONTINUOUS
62
  7
10
962.867
20
580.744
30
0.0
11
964.235
21
581.358
31
0.0
0
LINE
5
25bf
8
0-0
6
CONTINUOUS
62
  7
10
964.235
20
581.358
30
0.0
11
965.694
21
581.958
31
0.0
0
LINE
5
25c0
8
0-0
6
CONTINUOUS
62
  7
10
965.694
20
581.958
30
0.0
11
967.243
21
582.542
31
0.0
0
LINE
5
25c1
8
0-0
6
CONTINUOUS
62
  7
10
967.243
20
582.542
30
0.0
11
968.880
21
583.110
31
0.0
0
LINE
5
25c2
8
0-0
6
CONTINUOUS
62
  7
10
968.880
20
583.110
30
0.0
11
970.600
21
583.658
31
0.0
0
LINE
5
25c3
8
0-0
6
CONTINUOUS
62
  7
10
970.600
20
583.658
30
0.0
11
972.399
21
584.186
31
0.0
0
LINE
5
25c4
8
0-0
6
CONTINUOUS
62
  7
10
972.399
20
584.186
30
0.0
11
974.271
21
584.692
31
0.0
0
LINE
5
25c5
8
0-0
6
CONTINUOUS
62
  7
10
974.271
20
584.692
30
0.0
11
976.201
21
585.172
31
0.0
0
LINE
5
25c6
8
0-0
6
CONTINUOUS
62
  7
10
976.201
20
585.172
30
0.0
11
978.183
21
585.626
31
0.0
0
LINE
5
25c7
8
0-0
6
CONTINUOUS
62
  7
10
978.183
20
585.626
30
0.0
11
980.203
21
586.050
31
0.0
0
LINE
5
25c8
8
0-0
6
CONTINUOUS
62
  7
10
980.203
20
586.050
30
0.0
11
982.239
21
586.442
31
0.0
0
LINE
5
25c9
8
0-0
6
CONTINUOUS
62
  7
10
982.239
20
586.442
30
0.0
11
984.281
21
586.800
31
0.0
0
LINE
5
25ca
8
0-0
6
CONTINUOUS
62
  7
10
984.281
20
586.800
30
0.0
11
986.296
21
587.118
31
0.0
0
LINE
5
25cb
8
0-0
6
CONTINUOUS
62
  7
10
986.296
20
587.118
30
0.0
11
988.261
21
587.396
31
0.0
0
LINE
5
25cc
8
0-0
6
CONTINUOUS
62
  7
10
988.261
20
587.396
30
0.0
11
990.283
21
587.645
31
0.0
0
LINE
5
25cd
8
0-0
6
CONTINUOUS
62
  7
10
932.297
20
466.216
30
0.0
11
944.813
21
552.803
31
0.0
0
LINE
5
25ce
8
0-0
6
CONTINUOUS
62
  7
10
990.283
20
587.645
30
0.0
11
997.297
21
587.645
31
0.0
0
LINE
5
25cf
8
0-0
6
CONTINUOUS
62
  7
10
934.201
20
555.302
30
0.0
11
934.798
21
557.845
31
0.0
0
LINE
5
25d0
8
0-0
6
CONTINUOUS
62
  7
10
934.798
20
557.845
30
0.0
11
935.398
21
560.233
31
0.0
0
LINE
5
25d1
8
0-0
6
CONTINUOUS
62
  7
10
935.398
20
560.233
30
0.0
11
936.014
21
562.495
31
0.0
0
LINE
5
25d2
8
0-0
6
CONTINUOUS
62
  7
10
936.014
20
562.495
30
0.0
11
936.653
21
564.641
31
0.0
0
LINE
5
25d3
8
0-0
6
CONTINUOUS
62
  7
10
936.653
20
564.641
30
0.0
11
937.316
21
566.674
31
0.0
0
LINE
5
25d4
8
0-0
6
CONTINUOUS
62
  7
10
937.316
20
566.674
30
0.0
11
938.010
21
568.603
31
0.0
0
LINE
5
25d5
8
0-0
6
CONTINUOUS
62
  7
10
938.010
20
568.603
30
0.0
11
938.738
21
570.435
31
0.0
0
LINE
5
25d6
8
0-0
6
CONTINUOUS
62
  7
10
938.738
20
570.435
30
0.0
11
939.501
21
572.172
31
0.0
0
LINE
5
25d7
8
0-0
6
CONTINUOUS
62
  7
10
939.501
20
572.172
30
0.0
11
940.301
21
573.817
31
0.0
0
LINE
5
25d8
8
0-0
6
CONTINUOUS
62
  7
10
940.301
20
573.817
30
0.0
11
941.141
21
575.380
31
0.0
0
LINE
5
25d9
8
0-0
6
CONTINUOUS
62
  7
10
941.141
20
575.380
30
0.0
11
942.020
21
576.860
31
0.0
0
LINE
5
25da
8
0-0
6
CONTINUOUS
62
  7
10
942.020
20
576.860
30
0.0
11
942.944
21
578.267
31
0.0
0
LINE
5
25db
8
0-0
6
CONTINUOUS
62
  7
10
942.944
20
578.267
30
0.0
11
943.910
21
579.601
31
0.0
0
LINE
5
25dc
8
0-0
6
CONTINUOUS
62
  7
10
943.910
20
579.601
30
0.0
11
944.924
21
580.868
31
0.0
0
LINE
5
25dd
8
0-0
6
CONTINUOUS
62
  7
10
944.924
20
580.868
30
0.0
11
945.985
21
582.073
31
0.0
0
LINE
5
25de
8
0-0
6
CONTINUOUS
62
  7
10
945.985
20
582.073
30
0.0
11
947.099
21
583.220
31
0.0
0
LINE
5
25df
8
0-0
6
CONTINUOUS
62
  7
10
947.099
20
583.220
30
0.0
11
948.266
21
584.312
31
0.0
0
LINE
5
25e0
8
0-0
6
CONTINUOUS
62
  7
10
948.266
20
584.312
30
0.0
11
949.491
21
585.354
31
0.0
0
LINE
5
25e1
8
0-0
6
CONTINUOUS
62
  7
10
949.491
20
585.354
30
0.0
11
950.775
21
586.349
31
0.0
0
LINE
5
25e2
8
0-0
6
CONTINUOUS
62
  7
10
950.775
20
586.349
30
0.0
11
952.123
21
587.300
31
0.0
0
LINE
5
25e3
8
0-0
6
CONTINUOUS
62
  7
10
952.123
20
587.300
30
0.0
11
953.537
21
588.208
31
0.0
0
LINE
5
25e4
8
0-0
6
CONTINUOUS
62
  7
10
953.537
20
588.208
30
0.0
11
955.019
21
589.078
31
0.0
0
LINE
5
25e5
8
0-0
6
CONTINUOUS
62
  7
10
955.019
20
589.078
30
0.0
11
956.572
21
589.910
31
0.0
0
LINE
5
25e6
8
0-0
6
CONTINUOUS
62
  7
10
956.572
20
589.910
30
0.0
11
958.195
21
590.705
31
0.0
0
LINE
5
25e7
8
0-0
6
CONTINUOUS
62
  7
10
958.195
20
590.705
30
0.0
11
959.892
21
591.466
31
0.0
0
LINE
5
25e8
8
0-0
6
CONTINUOUS
62
  7
10
959.892
20
591.466
30
0.0
11
961.661
21
592.193
31
0.0
0
LINE
5
25e9
8
0-0
6
CONTINUOUS
62
  7
10
961.661
20
592.193
30
0.0
11
963.498
21
592.886
31
0.0
0
LINE
5
25ea
8
0-0
6
CONTINUOUS
62
  7
10
963.498
20
592.886
30
0.0
11
965.408
21
593.548
31
0.0
0
LINE
5
25eb
8
0-0
6
CONTINUOUS
62
  7
10
965.408
20
593.548
30
0.0
11
967.382
21
594.178
31
0.0
0
LINE
5
25ec
8
0-0
6
CONTINUOUS
62
  7
10
967.382
20
594.178
30
0.0
11
969.414
21
594.774
31
0.0
0
LINE
5
25ed
8
0-0
6
CONTINUOUS
62
  7
10
969.414
20
594.774
30
0.0
11
971.508
21
595.340
31
0.0
0
LINE
5
25ee
8
0-0
6
CONTINUOUS
62
  7
10
971.508
20
595.340
30
0.0
11
973.648
21
595.872
31
0.0
0
LINE
5
25ef
8
0-0
6
CONTINUOUS
62
  7
10
973.648
20
595.872
30
0.0
11
975.826
21
596.371
31
0.0
0
LINE
5
25f0
8
0-0
6
CONTINUOUS
62
  7
10
975.826
20
596.371
30
0.0
11
978.030
21
596.834
31
0.0
0
LINE
5
25f1
8
0-0
6
CONTINUOUS
62
  7
10
978.030
20
596.834
30
0.0
11
980.254
21
597.262
31
0.0
0
LINE
5
25f2
8
0-0
6
CONTINUOUS
62
  7
10
980.254
20
597.262
30
0.0
11
982.471
21
597.650
31
0.0
0
LINE
5
25f3
8
0-0
6
CONTINUOUS
62
  7
10
982.471
20
597.650
30
0.0
11
984.668
21
597.998
31
0.0
0
LINE
5
25f4
8
0-0
6
CONTINUOUS
62
  7
10
984.668
20
597.998
30
0.0
11
986.819
21
598.301
31
0.0
0
LINE
5
25f5
8
0-0
6
CONTINUOUS
62
  7
10
986.819
20
598.301
30
0.0
11
988.940
21
598.562
31
0.0
0
LINE
5
25f6
8
0-0
6
CONTINUOUS
62
  7
10
988.940
20
598.562
30
0.0
11
997.297
21
598.562
31
0.0
0
LINE
5
25f7
8
0-0
6
CONTINUOUS
62
  7
10
946.857
20
552.332
30
0.0
11
947.431
21
554.778
31
0.0
0
LINE
5
25f8
8
0-0
6
CONTINUOUS
62
  7
10
947.431
20
554.778
30
0.0
11
947.974
21
556.938
31
0.0
0
LINE
5
25f9
8
0-0
6
CONTINUOUS
62
  7
10
947.974
20
556.938
30
0.0
11
948.518
21
558.935
31
0.0
0
LINE
5
25fa
8
0-0
6
CONTINUOUS
62
  7
10
948.518
20
558.935
30
0.0
11
949.064
21
560.770
31
0.0
0
LINE
5
25fb
8
0-0
6
CONTINUOUS
62
  7
10
949.064
20
560.770
30
0.0
11
949.614
21
562.454
31
0.0
0
LINE
5
25fc
8
0-0
6
CONTINUOUS
62
  7
10
949.614
20
562.454
30
0.0
11
950.171
21
564.004
31
0.0
0
LINE
5
25fd
8
0-0
6
CONTINUOUS
62
  7
10
950.171
20
564.004
30
0.0
11
950.733
21
565.418
31
0.0
0
LINE
5
25fe
8
0-0
6
CONTINUOUS
62
  7
10
950.733
20
565.418
30
0.0
11
951.301
21
566.711
31
0.0
0
LINE
5
25ff
8
0-0
6
CONTINUOUS
62
  7
10
951.301
20
566.711
30
0.0
11
951.878
21
567.898
31
0.0
0
LINE
5
2600
8
0-0
6
CONTINUOUS
62
  7
10
951.878
20
567.898
30
0.0
11
952.459
21
568.978
31
0.0
0
LINE
5
2601
8
0-0
6
CONTINUOUS
62
  7
10
952.459
20
568.978
30
0.0
11
953.048
21
569.971
31
0.0
0
LINE
5
2602
8
0-0
6
CONTINUOUS
62
  7
10
953.048
20
569.971
30
0.0
11
953.646
21
570.881
31
0.0
0
LINE
5
2603
8
0-0
6
CONTINUOUS
62
  7
10
953.646
20
570.881
30
0.0
11
954.256
21
571.723
31
0.0
0
LINE
5
2604
8
0-0
6
CONTINUOUS
62
  7
10
954.256
20
571.723
30
0.0
11
954.883
21
572.507
31
0.0
0
LINE
5
2605
8
0-0
6
CONTINUOUS
62
  7
10
954.883
20
572.507
30
0.0
11
955.532
21
573.243
31
0.0
0
LINE
5
2606
8
0-0
6
CONTINUOUS
62
  7
10
955.532
20
573.243
30
0.0
11
956.210
21
573.941
31
0.0
0
LINE
5
2607
8
0-0
6
CONTINUOUS
62
  7
10
956.210
20
573.941
30
0.0
11
956.924
21
574.611
31
0.0
0
LINE
5
2608
8
0-0
6
CONTINUOUS
62
  7
10
956.924
20
574.611
30
0.0
11
957.687
21
575.259
31
0.0
0
LINE
5
2609
8
0-0
6
CONTINUOUS
62
  7
10
957.687
20
575.259
30
0.0
11
958.505
21
575.893
31
0.0
0
LINE
5
260a
8
0-0
6
CONTINUOUS
62
  7
10
958.505
20
575.893
30
0.0
11
959.388
21
576.515
31
0.0
0
LINE
5
260b
8
0-0
6
CONTINUOUS
62
  7
10
959.388
20
576.515
30
0.0
11
960.343
21
577.129
31
0.0
0
LINE
5
260c
8
0-0
6
CONTINUOUS
62
  7
10
960.343
20
577.129
30
0.0
11
961.380
21
577.738
31
0.0
0
LINE
5
260d
8
0-0
6
CONTINUOUS
62
  7
10
961.380
20
577.738
30
0.0
11
962.503
21
578.339
31
0.0
0
LINE
5
260e
8
0-0
6
CONTINUOUS
62
  7
10
962.503
20
578.339
30
0.0
11
963.717
21
578.934
31
0.0
0
LINE
5
260f
8
0-0
6
CONTINUOUS
62
  7
10
963.717
20
578.934
30
0.0
11
965.024
21
579.520
31
0.0
0
LINE
5
2610
8
0-0
6
CONTINUOUS
62
  7
10
965.024
20
579.520
30
0.0
11
966.428
21
580.097
31
0.0
0
LINE
5
2611
8
0-0
6
CONTINUOUS
62
  7
10
966.428
20
580.097
30
0.0
11
967.923
21
580.661
31
0.0
0
LINE
5
2612
8
0-0
6
CONTINUOUS
62
  7
10
967.923
20
580.661
30
0.0
11
969.510
21
581.212
31
0.0
0
LINE
5
2613
8
0-0
6
CONTINUOUS
62
  7
10
969.510
20
581.212
30
0.0
11
971.187
21
581.746
31
0.0
0
LINE
5
2614
8
0-0
6
CONTINUOUS
62
  7
10
971.187
20
581.746
30
0.0
11
972.942
21
582.261
31
0.0
0
LINE
5
2615
8
0-0
6
CONTINUOUS
62
  7
10
972.942
20
582.261
30
0.0
11
974.773
21
582.756
31
0.0
0
LINE
5
2616
8
0-0
6
CONTINUOUS
62
  7
10
974.773
20
582.756
30
0.0
11
976.666
21
583.227
31
0.0
0
LINE
5
2617
8
0-0
6
CONTINUOUS
62
  7
10
976.666
20
583.227
30
0.0
11
978.612
21
583.672
31
0.0
0
LINE
5
2618
8
0-0
6
CONTINUOUS
62
  7
10
978.612
20
583.672
30
0.0
11
980.598
21
584.090
31
0.0
0
LINE
5
2619
8
0-0
6
CONTINUOUS
62
  7
10
980.598
20
584.090
30
0.0
11
982.601
21
584.475
31
0.0
0
LINE
5
261a
8
0-0
6
CONTINUOUS
62
  7
10
982.601
20
584.475
30
0.0
11
984.609
21
584.827
31
0.0
0
LINE
5
261b
8
0-0
6
CONTINUOUS
62
  7
10
984.609
20
584.827
30
0.0
11
986.592
21
585.140
31
0.0
0
LINE
5
261c
8
0-0
6
CONTINUOUS
62
  7
10
986.592
20
585.140
30
0.0
11
988.521
21
585.413
31
0.0
0
LINE
5
261d
8
0-0
6
CONTINUOUS
62
  7
10
988.521
20
585.413
30
0.0
11
990.528
21
585.660
31
0.0
0
LINE
5
261e
8
0-0
6
CONTINUOUS
62
  7
10
990.528
20
585.660
30
0.0
11
997.297
21
585.660
31
0.0
0
LINE
5
261f
8
0-0
6
CONTINUOUS
62
  7
10
934.266
20
555.644
30
0.0
11
921.339
21
466.216
31
0.0
0
LINE
5
2620
8
0-0
6
CONTINUOUS
62
  7
10
934.318
20
466.216
30
0.0
11
946.793
21
552.517
31
0.0
0
LINE
5
2621
8
0-0
6
CONTINUOUS
62
  7
10
1064.288
20
556.216
30
0.0
11
1063.684
21
558.791
31
0.0
0
LINE
5
2622
8
0-0
6
CONTINUOUS
62
  7
10
1063.684
20
558.791
30
0.0
11
1063.066
21
561.247
31
0.0
0
LINE
5
2623
8
0-0
6
CONTINUOUS
62
  7
10
1063.066
20
561.247
30
0.0
11
1062.428
21
563.591
31
0.0
0
LINE
5
2624
8
0-0
6
CONTINUOUS
62
  7
10
1062.428
20
563.591
30
0.0
11
1061.761
21
565.831
31
0.0
0
LINE
5
2625
8
0-0
6
CONTINUOUS
62
  7
10
1061.761
20
565.831
30
0.0
11
1061.062
21
567.972
31
0.0
0
LINE
5
2626
8
0-0
6
CONTINUOUS
62
  7
10
1061.062
20
567.972
30
0.0
11
1060.326
21
570.020
31
0.0
0
LINE
5
2627
8
0-0
6
CONTINUOUS
62
  7
10
1060.326
20
570.020
30
0.0
11
1059.548
21
571.978
31
0.0
0
LINE
5
2628
8
0-0
6
CONTINUOUS
62
  7
10
1059.548
20
571.978
30
0.0
11
1058.725
21
573.850
31
0.0
0
LINE
5
2629
8
0-0
6
CONTINUOUS
62
  7
10
1058.725
20
573.850
30
0.0
11
1057.856
21
575.639
31
0.0
0
LINE
5
262a
8
0-0
6
CONTINUOUS
62
  7
10
1057.856
20
575.639
30
0.0
11
1056.937
21
577.349
31
0.0
0
LINE
5
262b
8
0-0
6
CONTINUOUS
62
  7
10
1056.937
20
577.349
30
0.0
11
1055.967
21
578.981
31
0.0
0
LINE
5
262c
8
0-0
6
CONTINUOUS
62
  7
10
1055.967
20
578.981
30
0.0
11
1054.944
21
580.539
31
0.0
0
LINE
5
262d
8
0-0
6
CONTINUOUS
62
  7
10
1054.944
20
580.539
30
0.0
11
1053.868
21
582.025
31
0.0
0
LINE
5
262e
8
0-0
6
CONTINUOUS
62
  7
10
1053.868
20
582.025
30
0.0
11
1052.735
21
583.441
31
0.0
0
LINE
5
262f
8
0-0
6
CONTINUOUS
62
  7
10
1052.735
20
583.441
30
0.0
11
1051.546
21
584.790
31
0.0
0
LINE
5
2630
8
0-0
6
CONTINUOUS
62
  7
10
1051.546
20
584.790
30
0.0
11
1050.299
21
586.075
31
0.0
0
LINE
5
2631
8
0-0
6
CONTINUOUS
62
  7
10
1050.299
20
586.075
30
0.0
11
1048.993
21
587.298
31
0.0
0
LINE
5
2632
8
0-0
6
CONTINUOUS
62
  7
10
1048.993
20
587.298
30
0.0
11
1047.626
21
588.461
31
0.0
0
LINE
5
2633
8
0-0
6
CONTINUOUS
62
  7
10
1047.626
20
588.461
30
0.0
11
1046.198
21
589.567
31
0.0
0
LINE
5
2634
8
0-0
6
CONTINUOUS
62
  7
10
1046.198
20
589.567
30
0.0
11
1044.706
21
590.618
31
0.0
0
LINE
5
2635
8
0-0
6
CONTINUOUS
62
  7
10
1044.706
20
590.618
30
0.0
11
1043.152
21
591.617
31
0.0
0
LINE
5
2636
8
0-0
6
CONTINUOUS
62
  7
10
1043.152
20
591.617
30
0.0
11
1041.533
21
592.567
31
0.0
0
LINE
5
2637
8
0-0
6
CONTINUOUS
62
  7
10
1041.533
20
592.567
30
0.0
11
1039.848
21
593.470
31
0.0
0
LINE
5
2638
8
0-0
6
CONTINUOUS
62
  7
10
1039.848
20
593.470
30
0.0
11
1038.098
21
594.327
31
0.0
0
LINE
5
2639
8
0-0
6
CONTINUOUS
62
  7
10
1038.098
20
594.327
30
0.0
11
1036.282
21
595.141
31
0.0
0
LINE
5
263a
8
0-0
6
CONTINUOUS
62
  7
10
1036.282
20
595.141
30
0.0
11
1034.402
21
595.914
31
0.0
0
LINE
5
263b
8
0-0
6
CONTINUOUS
62
  7
10
1034.402
20
595.914
30
0.0
11
1032.457
21
596.648
31
0.0
0
LINE
5
263c
8
0-0
6
CONTINUOUS
62
  7
10
1032.457
20
596.648
30
0.0
11
1030.451
21
597.344
31
0.0
0
LINE
5
263d
8
0-0
6
CONTINUOUS
62
  7
10
1030.451
20
597.344
30
0.0
11
1028.385
21
598.003
31
0.0
0
LINE
5
263e
8
0-0
6
CONTINUOUS
62
  7
10
1028.385
20
598.003
30
0.0
11
1026.263
21
598.625
31
0.0
0
LINE
5
263f
8
0-0
6
CONTINUOUS
62
  7
10
1026.263
20
598.625
30
0.0
11
1024.092
21
599.212
31
0.0
0
LINE
5
2640
8
0-0
6
CONTINUOUS
62
  7
10
1024.092
20
599.212
30
0.0
11
1021.877
21
599.763
31
0.0
0
LINE
5
2641
8
0-0
6
CONTINUOUS
62
  7
10
1021.877
20
599.763
30
0.0
11
1019.627
21
600.278
31
0.0
0
LINE
5
2642
8
0-0
6
CONTINUOUS
62
  7
10
1019.627
20
600.278
30
0.0
11
1017.352
21
600.756
31
0.0
0
LINE
5
2643
8
0-0
6
CONTINUOUS
62
  7
10
1017.352
20
600.756
30
0.0
11
1015.065
21
601.196
31
0.0
0
LINE
5
2644
8
0-0
6
CONTINUOUS
62
  7
10
1015.065
20
601.196
30
0.0
11
1012.782
21
601.596
31
0.0
0
LINE
5
2645
8
0-0
6
CONTINUOUS
62
  7
10
1012.782
20
601.596
30
0.0
11
1010.519
21
601.954
31
0.0
0
LINE
5
2646
8
0-0
6
CONTINUOUS
62
  7
10
1010.519
20
601.954
30
0.0
11
1008.298
21
602.267
31
0.0
0
LINE
5
2647
8
0-0
6
CONTINUOUS
62
  7
10
1008.298
20
602.267
30
0.0
11
1006.144
21
602.532
31
0.0
0
LINE
5
2648
8
0-0
6
CONTINUOUS
62
  7
10
1064.288
20
556.216
30
0.0
11
1077.297
21
466.216
31
0.0
0
LINE
5
2649
8
0-0
6
CONTINUOUS
62
  7
10
1006.144
20
602.532
30
0.0
11
997.297
21
602.532
31
0.0
0
LINE
5
264a
8
0-0
6
CONTINUOUS
62
  7
10
1049.685
20
552.789
30
0.0
11
1049.107
21
555.249
31
0.0
0
LINE
5
264b
8
0-0
6
CONTINUOUS
62
  7
10
1049.107
20
555.249
30
0.0
11
1048.555
21
557.446
31
0.0
0
LINE
5
264c
8
0-0
6
CONTINUOUS
62
  7
10
1048.555
20
557.446
30
0.0
11
1048.000
21
559.482
31
0.0
0
LINE
5
264d
8
0-0
6
CONTINUOUS
62
  7
10
1048.000
20
559.482
30
0.0
11
1047.441
21
561.365
31
0.0
0
LINE
5
264e
8
0-0
6
CONTINUOUS
62
  7
10
1047.441
20
561.365
30
0.0
11
1046.873
21
563.104
31
0.0
0
LINE
5
264f
8
0-0
6
CONTINUOUS
62
  7
10
1046.873
20
563.104
30
0.0
11
1046.294
21
564.711
31
0.0
0
LINE
5
2650
8
0-0
6
CONTINUOUS
62
  7
10
1046.294
20
564.711
30
0.0
11
1045.707
21
566.190
31
0.0
0
LINE
5
2651
8
0-0
6
CONTINUOUS
62
  7
10
1045.707
20
566.190
30
0.0
11
1045.108
21
567.552
31
0.0
0
LINE
5
2652
8
0-0
6
CONTINUOUS
62
  7
10
1045.108
20
567.552
30
0.0
11
1044.498
21
568.808
31
0.0
0
LINE
5
2653
8
0-0
6
CONTINUOUS
62
  7
10
1044.498
20
568.808
30
0.0
11
1043.877
21
569.963
31
0.0
0
LINE
5
2654
8
0-0
6
CONTINUOUS
62
  7
10
1043.877
20
569.963
30
0.0
11
1043.243
21
571.031
31
0.0
0
LINE
5
2655
8
0-0
6
CONTINUOUS
62
  7
10
1043.243
20
571.031
30
0.0
11
1042.595
21
572.018
31
0.0
0
LINE
5
2656
8
0-0
6
CONTINUOUS
62
  7
10
1042.595
20
572.018
30
0.0
11
1041.930
21
572.935
31
0.0
0
LINE
5
2657
8
0-0
6
CONTINUOUS
62
  7
10
1041.930
20
572.935
30
0.0
11
1041.244
21
573.793
31
0.0
0
LINE
5
2658
8
0-0
6
CONTINUOUS
62
  7
10
1041.244
20
573.793
30
0.0
11
1040.531
21
574.602
31
0.0
0
LINE
5
2659
8
0-0
6
CONTINUOUS
62
  7
10
1040.531
20
574.602
30
0.0
11
1039.787
21
575.369
31
0.0
0
LINE
5
265a
8
0-0
6
CONTINUOUS
62
  7
10
1039.787
20
575.369
30
0.0
11
1039.002
21
576.104
31
0.0
0
LINE
5
265b
8
0-0
6
CONTINUOUS
62
  7
10
1039.002
20
576.104
30
0.0
11
1038.169
21
576.812
31
0.0
0
LINE
5
265c
8
0-0
6
CONTINUOUS
62
  7
10
1038.169
20
576.812
30
0.0
11
1037.279
21
577.501
31
0.0
0
LINE
5
265d
8
0-0
6
CONTINUOUS
62
  7
10
1037.279
20
577.501
30
0.0
11
1036.326
21
578.174
31
0.0
0
LINE
5
265e
8
0-0
6
CONTINUOUS
62
  7
10
1036.326
20
578.174
30
0.0
11
1035.298
21
578.835
31
0.0
0
LINE
5
265f
8
0-0
6
CONTINUOUS
62
  7
10
1035.298
20
578.835
30
0.0
11
1034.194
21
579.482
31
0.0
0
LINE
5
2660
8
0-0
6
CONTINUOUS
62
  7
10
1034.194
20
579.482
30
0.0
11
1033.004
21
580.119
31
0.0
0
LINE
5
2661
8
0-0
6
CONTINUOUS
62
  7
10
1033.004
20
580.119
30
0.0
11
1031.728
21
580.744
31
0.0
0
LINE
5
2662
8
0-0
6
CONTINUOUS
62
  7
10
1031.728
20
580.744
30
0.0
11
1030.360
21
581.358
31
0.0
0
LINE
5
2663
8
0-0
6
CONTINUOUS
62
  7
10
1030.360
20
581.358
30
0.0
11
1028.901
21
581.958
31
0.0
0
LINE
5
2664
8
0-0
6
CONTINUOUS
62
  7
10
1028.901
20
581.958
30
0.0
11
1027.352
21
582.542
31
0.0
0
LINE
5
2665
8
0-0
6
CONTINUOUS
62
  7
10
1027.352
20
582.542
30
0.0
11
1025.714
21
583.110
31
0.0
0
LINE
5
2666
8
0-0
6
CONTINUOUS
62
  7
10
1025.714
20
583.110
30
0.0
11
1023.995
21
583.658
31
0.0
0
LINE
5
2667
8
0-0
6
CONTINUOUS
62
  7
10
1023.995
20
583.658
30
0.0
11
1022.196
21
584.186
31
0.0
0
LINE
5
2668
8
0-0
6
CONTINUOUS
62
  7
10
1022.196
20
584.186
30
0.0
11
1020.324
21
584.692
31
0.0
0
LINE
5
2669
8
0-0
6
CONTINUOUS
62
  7
10
1020.324
20
584.692
30
0.0
11
1018.394
21
585.172
31
0.0
0
LINE
5
266a
8
0-0
6
CONTINUOUS
62
  7
10
1018.394
20
585.172
30
0.0
11
1016.411
21
585.626
31
0.0
0
LINE
5
266b
8
0-0
6
CONTINUOUS
62
  7
10
1016.411
20
585.626
30
0.0
11
1014.391
21
586.050
31
0.0
0
LINE
5
266c
8
0-0
6
CONTINUOUS
62
  7
10
1014.391
20
586.050
30
0.0
11
1012.356
21
586.442
31
0.0
0
LINE
5
266d
8
0-0
6
CONTINUOUS
62
  7
10
1012.356
20
586.442
30
0.0
11
1010.314
21
586.800
31
0.0
0
LINE
5
266e
8
0-0
6
CONTINUOUS
62
  7
10
1010.314
20
586.800
30
0.0
11
1008.299
21
587.118
31
0.0
0
LINE
5
266f
8
0-0
6
CONTINUOUS
62
  7
10
1008.299
20
587.118
30
0.0
11
1006.334
21
587.396
31
0.0
0
LINE
5
2670
8
0-0
6
CONTINUOUS
62
  7
10
1006.334
20
587.396
30
0.0
11
1004.311
21
587.645
31
0.0
0
LINE
5
2671
8
0-0
6
CONTINUOUS
62
  7
10
1062.297
20
466.216
30
0.0
11
1049.781
21
552.803
31
0.0
0
LINE
5
2672
8
0-0
6
CONTINUOUS
62
  7
10
1004.311
20
587.645
30
0.0
11
997.297
21
587.645
31
0.0
0
LINE
5
2673
8
0-0
6
CONTINUOUS
62
  7
10
1060.394
20
555.302
30
0.0
11
1059.797
21
557.845
31
0.0
0
LINE
5
2674
8
0-0
6
CONTINUOUS
62
  7
10
1059.797
20
557.845
30
0.0
11
1059.197
21
560.233
31
0.0
0
LINE
5
2675
8
0-0
6
CONTINUOUS
62
  7
10
1059.197
20
560.233
30
0.0
11
1058.581
21
562.495
31
0.0
0
LINE
5
2676
8
0-0
6
CONTINUOUS
62
  7
10
1058.581
20
562.495
30
0.0
11
1057.942
21
564.641
31
0.0
0
LINE
5
2677
8
0-0
6
CONTINUOUS
62
  7
10
1057.942
20
564.641
30
0.0
11
1057.278
21
566.674
31
0.0
0
LINE
5
2678
8
0-0
6
CONTINUOUS
62
  7
10
1057.278
20
566.674
30
0.0
11
1056.585
21
568.603
31
0.0
0
LINE
5
2679
8
0-0
6
CONTINUOUS
62
  7
10
1056.585
20
568.603
30
0.0
11
1055.857
21
570.435
31
0.0
0
LINE
5
267a
8
0-0
6
CONTINUOUS
62
  7
10
1055.857
20
570.435
30
0.0
11
1055.094
21
572.172
31
0.0
0
LINE
5
267b
8
0-0
6
CONTINUOUS
62
  7
10
1055.094
20
572.172
30
0.0
11
1054.294
21
573.817
31
0.0
0
LINE
5
267c
8
0-0
6
CONTINUOUS
62
  7
10
1054.294
20
573.817
30
0.0
11
1053.454
21
575.380
31
0.0
0
LINE
5
267d
8
0-0
6
CONTINUOUS
62
  7
10
1053.454
20
575.380
30
0.0
11
1052.574
21
576.860
31
0.0
0
LINE
5
267e
8
0-0
6
CONTINUOUS
62
  7
10
1052.574
20
576.860
30
0.0
11
1051.651
21
578.267
31
0.0
0
LINE
5
267f
8
0-0
6
CONTINUOUS
62
  7
10
1051.651
20
578.267
30
0.0
11
1050.684
21
579.601
31
0.0
0
LINE
5
2680
8
0-0
6
CONTINUOUS
62
  7
10
1050.684
20
579.601
30
0.0
11
1049.671
21
580.868
31
0.0
0
LINE
5
2681
8
0-0
6
CONTINUOUS
62
  7
10
1049.671
20
580.868
30
0.0
11
1048.609
21
582.073
31
0.0
0
LINE
5
2682
8
0-0
6
CONTINUOUS
62
  7
10
1048.609
20
582.073
30
0.0
11
1047.496
21
583.220
31
0.0
0
LINE
5
2683
8
0-0
6
CONTINUOUS
62
  7
10
1047.496
20
583.220
30
0.0
11
1046.328
21
584.312
31
0.0
0
LINE
5
2684
8
0-0
6
CONTINUOUS
62
  7
10
1046.328
20
584.312
30
0.0
11
1045.104
21
585.354
31
0.0
0
LINE
5
2685
8
0-0
6
CONTINUOUS
62
  7
10
1045.104
20
585.354
30
0.0
11
1043.819
21
586.349
31
0.0
0
LINE
5
2686
8
0-0
6
CONTINUOUS
62
  7
10
1043.819
20
586.349
30
0.0
11
1042.472
21
587.300
31
0.0
0
LINE
5
2687
8
0-0
6
CONTINUOUS
62
  7
10
1042.472
20
587.300
30
0.0
11
1041.058
21
588.208
31
0.0
0
LINE
5
2688
8
0-0
6
CONTINUOUS
62
  7
10
1041.058
20
588.208
30
0.0
11
1039.575
21
589.078
31
0.0
0
LINE
5
2689
8
0-0
6
CONTINUOUS
62
  7
10
1039.575
20
589.078
30
0.0
11
1038.023
21
589.910
31
0.0
0
LINE
5
268a
8
0-0
6
CONTINUOUS
62
  7
10
1038.023
20
589.910
30
0.0
11
1036.400
21
590.705
31
0.0
0
LINE
5
268b
8
0-0
6
CONTINUOUS
62
  7
10
1036.400
20
590.705
30
0.0
11
1034.703
21
591.466
31
0.0
0
LINE
5
268c
8
0-0
6
CONTINUOUS
62
  7
10
1034.703
20
591.466
30
0.0
11
1032.934
21
592.193
31
0.0
0
LINE
5
268d
8
0-0
6
CONTINUOUS
62
  7
10
1032.934
20
592.193
30
0.0
11
1031.097
21
592.886
31
0.0
0
LINE
5
268e
8
0-0
6
CONTINUOUS
62
  7
10
1031.097
20
592.886
30
0.0
11
1029.187
21
593.548
31
0.0
0
LINE
5
268f
8
0-0
6
CONTINUOUS
62
  7
10
1029.187
20
593.548
30
0.0
11
1027.213
21
594.178
31
0.0
0
LINE
5
2690
8
0-0
6
CONTINUOUS
62
  7
10
1027.213
20
594.178
30
0.0
11
1025.181
21
594.774
31
0.0
0
LINE
5
2691
8
0-0
6
CONTINUOUS
62
  7
10
1025.181
20
594.774
30
0.0
11
1023.087
21
595.340
31
0.0
0
LINE
5
2692
8
0-0
6
CONTINUOUS
62
  7
10
1023.087
20
595.340
30
0.0
11
1020.947
21
595.872
31
0.0
0
LINE
5
2693
8
0-0
6
CONTINUOUS
62
  7
10
1020.947
20
595.872
30
0.0
11
1018.769
21
596.371
31
0.0
0
LINE
5
2694
8
0-0
6
CONTINUOUS
62
  7
10
1018.769
20
596.371
30
0.0
11
1016.565
21
596.834
31
0.0
0
LINE
5
2695
8
0-0
6
CONTINUOUS
62
  7
10
1016.565
20
596.834
30
0.0
11
1014.340
21
597.262
31
0.0
0
LINE
5
2696
8
0-0
6
CONTINUOUS
62
  7
10
1014.340
20
597.262
30
0.0
11
1012.124
21
597.650
31
0.0
0
LINE
5
2697
8
0-0
6
CONTINUOUS
62
  7
10
1012.124
20
597.650
30
0.0
11
1009.927
21
597.998
31
0.0
0
LINE
5
2698
8
0-0
6
CONTINUOUS
62
  7
10
1009.927
20
597.998
30
0.0
11
1007.775
21
598.301
31
0.0
0
LINE
5
2699
8
0-0
6
CONTINUOUS
62
  7
10
1007.775
20
598.301
30
0.0
11
1005.655
21
598.562
31
0.0
0
LINE
5
269a
8
0-0
6
CONTINUOUS
62
  7
10
1005.655
20
598.562
30
0.0
11
997.297
21
598.562
31
0.0
0
LINE
5
269b
8
0-0
6
CONTINUOUS
62
  7
10
1047.738
20
552.332
30
0.0
11
1047.164
21
554.778
31
0.0
0
LINE
5
269c
8
0-0
6
CONTINUOUS
62
  7
10
1047.164
20
554.778
30
0.0
11
1046.620
21
556.938
31
0.0
0
LINE
5
269d
8
0-0
6
CONTINUOUS
62
  7
10
1046.620
20
556.938
30
0.0
11
1046.076
21
558.935
31
0.0
0
LINE
5
269e
8
0-0
6
CONTINUOUS
62
  7
10
1046.076
20
558.935
30
0.0
11
1045.531
21
560.770
31
0.0
0
LINE
5
269f
8
0-0
6
CONTINUOUS
62
  7
10
1045.531
20
560.770
30
0.0
11
1044.981
21
562.454
31
0.0
0
LINE
5
26a0
8
0-0
6
CONTINUOUS
62
  7
10
1044.981
20
562.454
30
0.0
11
1044.423
21
564.004
31
0.0
0
LINE
5
26a1
8
0-0
6
CONTINUOUS
62
  7
10
1044.423
20
564.004
30
0.0
11
1043.861
21
565.418
31
0.0
0
LINE
5
26a2
8
0-0
6
CONTINUOUS
62
  7
10
1043.861
20
565.418
30
0.0
11
1043.293
21
566.711
31
0.0
0
LINE
5
26a3
8
0-0
6
CONTINUOUS
62
  7
10
1043.293
20
566.711
30
0.0
11
1042.716
21
567.898
31
0.0
0
LINE
5
26a4
8
0-0
6
CONTINUOUS
62
  7
10
1042.716
20
567.898
30
0.0
11
1042.136
21
568.978
31
0.0
0
LINE
5
26a5
8
0-0
6
CONTINUOUS
62
  7
10
1042.136
20
568.978
30
0.0
11
1041.546
21
569.971
31
0.0
0
LINE
5
26a6
8
0-0
6
CONTINUOUS
62
  7
10
1041.546
20
569.971
30
0.0
11
1040.948
21
570.881
31
0.0
0
LINE
5
26a7
8
0-0
6
CONTINUOUS
62
  7
10
1040.948
20
570.881
30
0.0
11
1040.339
21
571.723
31
0.0
0
LINE
5
26a8
8
0-0
6
CONTINUOUS
62
  7
10
1040.339
20
571.723
30
0.0
11
1039.712
21
572.507
31
0.0
0
LINE
5
26a9
8
0-0
6
CONTINUOUS
62
  7
10
1039.712
20
572.507
30
0.0
11
1039.063
21
573.243
31
0.0
0
LINE
5
26aa
8
0-0
6
CONTINUOUS
62
  7
10
1039.063
20
573.243
30
0.0
11
1038.385
21
573.941
31
0.0
0
LINE
5
26ab
8
0-0
6
CONTINUOUS
62
  7
10
1038.385
20
573.941
30
0.0
11
1037.670
21
574.611
31
0.0
0
LINE
5
26ac
8
0-0
6
CONTINUOUS
62
  7
10
1037.670
20
574.611
30
0.0
11
1036.908
21
575.259
31
0.0
0
LINE
5
26ad
8
0-0
6
CONTINUOUS
62
  7
10
1036.908
20
575.259
30
0.0
11
1036.090
21
575.893
31
0.0
0
LINE
5
26ae
8
0-0
6
CONTINUOUS
62
  7
10
1036.090
20
575.893
30
0.0
11
1035.207
21
576.515
31
0.0
0
LINE
5
26af
8
0-0
6
CONTINUOUS
62
  7
10
1035.207
20
576.515
30
0.0
11
1034.251
21
577.129
31
0.0
0
LINE
5
26b0
8
0-0
6
CONTINUOUS
62
  7
10
1034.251
20
577.129
30
0.0
11
1033.214
21
577.738
31
0.0
0
LINE
5
26b1
8
0-0
6
CONTINUOUS
62
  7
10
1033.214
20
577.738
30
0.0
11
1032.092
21
578.339
31
0.0
0
LINE
5
26b2
8
0-0
6
CONTINUOUS
62
  7
10
1032.092
20
578.339
30
0.0
11
1030.878
21
578.934
31
0.0
0
LINE
5
26b3
8
0-0
6
CONTINUOUS
62
  7
10
1030.878
20
578.934
30
0.0
11
1029.571
21
579.520
31
0.0
0
LINE
5
26b4
8
0-0
6
CONTINUOUS
62
  7
10
1029.571
20
579.520
30
0.0
11
1028.167
21
580.097
31
0.0
0
LINE
5
26b5
8
0-0
6
CONTINUOUS
62
  7
10
1028.167
20
580.097
30
0.0
11
1026.672
21
580.661
31
0.0
0
LINE
5
26b6
8
0-0
6
CONTINUOUS
62
  7
10
1026.672
20
580.661
30
0.0
11
1025.085
21
581.212
31
0.0
0
LINE
5
26b7
8
0-0
6
CONTINUOUS
62
  7
10
1025.085
20
581.212
30
0.0
11
1023.408
21
581.746
31
0.0
0
LINE
5
26b8
8
0-0
6
CONTINUOUS
62
  7
10
1023.408
20
581.746
30
0.0
11
1021.653
21
582.261
31
0.0
0
LINE
5
26b9
8
0-0
6
CONTINUOUS
62
  7
10
1021.653
20
582.261
30
0.0
11
1019.822
21
582.756
31
0.0
0
LINE
5
26ba
8
0-0
6
CONTINUOUS
62
  7
10
1019.822
20
582.756
30
0.0
11
1017.929
21
583.227
31
0.0
0
LINE
5
26bb
8
0-0
6
CONTINUOUS
62
  7
10
1017.929
20
583.227
30
0.0
11
1015.982
21
583.672
31
0.0
0
LINE
5
26bc
8
0-0
6
CONTINUOUS
62
  7
10
1015.982
20
583.672
30
0.0
11
1013.997
21
584.090
31
0.0
0
LINE
5
26bd
8
0-0
6
CONTINUOUS
62
  7
10
1013.997
20
584.090
30
0.0
11
1011.994
21
584.475
31
0.0
0
LINE
5
26be
8
0-0
6
CONTINUOUS
62
  7
10
1011.994
20
584.475
30
0.0
11
1009.985
21
584.827
31
0.0
0
LINE
5
26bf
8
0-0
6
CONTINUOUS
62
  7
10
1009.985
20
584.827
30
0.0
11
1008.003
21
585.140
31
0.0
0
LINE
5
26c0
8
0-0
6
CONTINUOUS
62
  7
10
1008.003
20
585.140
30
0.0
11
1006.074
21
585.413
31
0.0
0
LINE
5
26c1
8
0-0
6
CONTINUOUS
62
  7
10
1006.074
20
585.413
30
0.0
11
1004.067
21
585.660
31
0.0
0
LINE
5
26c2
8
0-0
6
CONTINUOUS
62
  7
10
1004.067
20
585.660
30
0.0
11
997.297
21
585.660
31
0.0
0
LINE
5
26c3
8
0-0
6
CONTINUOUS
62
  7
10
1060.329
20
555.644
30
0.0
11
1073.256
21
466.216
31
0.0
0
LINE
5
26c4
8
0-0
6
CONTINUOUS
62
  7
10
1060.276
20
466.216
30
0.0
11
1047.802
21
552.517
31
0.0
0
LINE
5
26c5
8
0-0
6
CONTINUOUS
62
  7
10
857.297
20
891.892
30
0.0
11
857.297
21
953.892
31
0.0
0
LINE
5
26c6
8
0-0
6
CONTINUOUS
62
  7
10
857.297
20
891.892
30
0.0
11
1137.297
21
891.892
31
0.0
0
LINE
5
26c7
8
0-0
6
CONTINUOUS
62
  7
10
857.297
20
953.892
30
0.0
11
1137.297
21
953.892
31
0.0
0
LINE
5
26c8
8
0-0
6
CONTINUOUS
62
  7
10
1137.297
20
891.892
30
0.0
11
1137.297
21
953.892
31
0.0
0
LINE
5
26c9
8
0-0
6
CONTINUOUS
62
  7
10
1394.595
20
666.216
30
0.0
11
1394.595
21
466.216
31
0.0
0
LINE
5
26ca
8
0-0
6
CONTINUOUS
62
  7
10
1394.595
20
666.216
30
0.0
11
1456.595
21
666.216
31
0.0
0
LINE
5
26cb
8
0-0
6
CONTINUOUS
62
  7
10
1456.595
20
666.216
30
0.0
11
1456.595
21
466.216
31
0.0
0
LINE
5
26cc
8
0-0
6
CONTINUOUS
62
  7
10
1394.595
20
466.216
30
0.0
11
1456.595
21
466.216
31
0.0
0
LINE
5
26cd
8
0-0
6
CONTINUOUS
62
  7
10
648.649
20
466.216
30
0.0
11
648.649
21
666.216
31
0.0
0
LINE
5
26ce
8
0-0
6
CONTINUOUS
62
  7
10
778.378
20
466.216
30
0.0
11
648.649
21
466.216
31
0.0
0
LINE
5
26cf
8
0-0
6
CONTINUOUS
62
  7
10
778.378
20
666.216
30
0.0
11
648.649
21
666.216
31
0.0
0
CIRCLE
5
26d0
8
ADD_LINE
6
HIDDEN
62
  3
10
997.297
20
466.216
30
0.0
40
3.000
0
TEXT
5
26d1
100
AcDbEntity
8
0-0
62
7
100
AcDbText
10
646.149
20
556.841
30
0.0
40
9.750
41
0.800
50
90.000
1
200
100
AcDbText
0
POINT
5
26d2
8
0-0
62
  7
10
648.649
20
466.216
30
0.0
0
POINT
5
26d3
8
0-0
62
  7
10
648.649
20
666.216
30
0.0
0
ENDSEC
0
EOF
