0
SECTION
2
HEADER
  9
$EXTMIN
10
0
20
0
30
0
  9
$EXTMAX
10
1565.198
20
1089.854
30
0
  9
$LTSCALE
40
5.000
  9
$DIMSCALE
40
5.000
  9
$PDMODE
70
0
  9
$PDSIZE
40
40
0
ENDSEC
0
SECTION
2
TABLES
0
TABLE
2
LTYPE
70
9
0
LTYPE
5
1f4
2
CONTINUOUS
70
0
3
実線
72
65
73
0
40
0.0
0
LTYPE
5
1f5
2
DOT
70
0
3
--  --  --  --  --  --  --  --     
72
65
73
2
40
5.000
49
1.000
49
-4.000
0
LTYPE
5
1f6
2
DASHED
70
0
3
----    ----    ----    ----    
72
65
73
2
40
5.000
49
2.000
49
-3.000
0
LTYPE
5
1f7
2
DASHED2
70
0
3
------  ------  ------  ------ 
72
65
73
2
40
10.000
49
4.000
49
-6.000
0
LTYPE
5
1f8
2
CENTER
70
0
3
----- - ----- - ----- - ----- - 
72
65
73
4
40
9.000
49
6.000
49
-1.000
49
1.000
49
-1.000
0
LTYPE
5
1f9
2
CENTER2
70
0
3
----------  --  ----------  -- 
72
65
73
4
40
18.000
49
12.000
49
-2.000
49
2.000
49
-2.000
0
LTYPE
5
1fa
2
PHANTOM
70
0
3
--- - - --- - - --- - - --- - -
72
65
73
6
40
10.000
49
5.000
49
-1.000
49
1.000
49
-1.000
49
1.000
49
-1.000
0
LTYPE
5
1fb
2
PHANTOM2
70
0
3
--------  -  -  --------  -  -
72
65
73
6
40
16.000
49
6.000
49
-2.000
49
2.000
49
-2.000
49
2.000
49
-2.000
0
LTYPE
5
1fc
2
HIDDEN
70
0
3
-   -   -   -   -   -   -   -   
72
65
73
2
40
2.500
49
0.500
49
-2.000
0
ENDTAB
0
TABLE
2
STYLE
70
1
0
STYLE
5
1fd
100
AcDbSymbolTableRecord
100
AcDbTextStyleTableRecord
2
STANDARD
70
0
40
0.0
41
1.0
50
0.0
71
0
42
0.0
3
txt.shx
4
extfont.shx
0
STYLE
5
1fe
100
AcDbSymbolTableRecord
100
AcDbTextStyleTableRecord
2
TATEGAKI
70
4
40
0.0
41
1.0
50
0.0
71
0
42
0.0
3
txt.shx
4
extfont.shx
0
STYLE
5
1ff
100
AcDbSymbolTableRecord
100
AcDbTextStyleTableRecord
2
MT
70
0
40
0.0
41
1.0
50
0.0
71
0
42
0.0
3
MS Mincho
4

0
STYLE
5
200
100
AcDbSymbolTableRecord
100
AcDbTextStyleTableRecord
2
TMT
70
4
40
0.0
41
1.0
50
0.0
71
0
42
0.0
3
@MS Mincho
4

0
ENDTAB
0
TABLE
2
LAYER
5
26d4
100
AcDbSymbolTable
70
10
0
LAYER
5
26d5
100
AcDbSymbolTableRecord
100
AcDbLayerTableRecord
2
0
70
64
62
  7
  6
CONTINUOUS
0
LAYER
5
26d6
100
AcDbSymbolTableRecord
100
AcDbLayerTableRecord
2
0-0
70
64
62
  7
  6
CONTINUOUS
0
LAYER
5
26d7
100
AcDbSymbolTableRecord
100
AcDbLayerTableRecord
2
ADD_LINE
70
64
62
  -7
  6
CONTINUOUS
0
ENDTAB
0
ENDSEC
0
SECTION
2
ENTITIES
0
LINE
5
26d8
8
0-0
6
CONTINUOUS
62
  7
10
956.914
20
469.584
30
0.0
11
1096.914
21
527.584
31
0.0
0
LINE
5
26d9
8
0-0
6
CONTINUOUS
62
  7
10
1096.914
20
527.584
30
0.0
11
1236.914
21
469.584
31
0.0
0
LINE
5
26da
8
0-0
6
CONTINUOUS
62
  7
10
979.788
20
672.584
30
0.0
11
956.914
21
469.584
31
0.0
0
LINE
5
26db
8
0-0
6
CONTINUOUS
62
  7
10
979.788
20
672.584
30
0.0
11
980.676
21
675.457
31
0.0
0
LINE
5
26dc
8
0-0
6
CONTINUOUS
62
  7
10
980.676
20
675.457
30
0.0
11
982.267
21
680.383
31
0.0
0
LINE
5
26dd
8
0-0
6
CONTINUOUS
62
  7
10
982.267
20
680.383
30
0.0
11
984.027
21
685.226
31
0.0
0
LINE
5
26de
8
0-0
6
CONTINUOUS
62
  7
10
984.027
20
685.226
30
0.0
11
986.064
21
689.935
31
0.0
0
LINE
5
26df
8
0-0
6
CONTINUOUS
62
  7
10
986.064
20
689.935
30
0.0
11
987.414
21
692.584
31
0.0
0
LINE
5
26e0
8
0-0
6
CONTINUOUS
62
  7
10
987.414
20
692.584
30
0.0
11
987.806
21
693.293
31
0.0
0
LINE
5
26e1
8
0-0
6
CONTINUOUS
62
  7
10
987.806
20
693.293
30
0.0
11
988.505
21
694.504
31
0.0
0
LINE
5
26e2
8
0-0
6
CONTINUOUS
62
  7
10
988.505
20
694.504
30
0.0
11
989.228
21
695.704
31
0.0
0
LINE
5
26e3
8
0-0
6
CONTINUOUS
62
  7
10
989.228
20
695.704
30
0.0
11
989.968
21
696.895
31
0.0
0
LINE
5
26e4
8
0-0
6
CONTINUOUS
62
  7
10
989.968
20
696.895
30
0.0
11
990.404
21
697.584
31
0.0
0
LINE
5
26e5
8
0-0
6
CONTINUOUS
62
  7
10
990.404
20
697.584
30
0.0
11
990.863
21
698.304
31
0.0
0
LINE
5
26e6
8
0-0
6
CONTINUOUS
62
  7
10
990.863
20
698.304
30
0.0
11
991.671
21
699.535
31
0.0
0
LINE
5
26e7
8
0-0
6
CONTINUOUS
62
  7
10
991.671
20
699.535
30
0.0
11
992.506
21
700.745
31
0.0
0
LINE
5
26e8
8
0-0
6
CONTINUOUS
62
  7
10
992.506
20
700.745
30
0.0
11
993.382
21
701.921
31
0.0
0
LINE
5
26e9
8
0-0
6
CONTINUOUS
62
  7
10
993.382
20
701.921
30
0.0
11
993.914
21
702.584
31
0.0
0
LINE
5
26ea
8
0-0
6
CONTINUOUS
62
  7
10
993.914
20
702.584
30
0.0
11
994.553
21
703.330
31
0.0
0
LINE
5
26eb
8
0-0
6
CONTINUOUS
62
  7
10
994.553
20
703.330
30
0.0
11
995.710
21
704.570
31
0.0
0
LINE
5
26ec
8
0-0
6
CONTINUOUS
62
  7
10
995.710
20
704.570
30
0.0
11
996.923
21
705.763
31
0.0
0
LINE
5
26ed
8
0-0
6
CONTINUOUS
62
  7
10
996.923
20
705.763
30
0.0
11
998.175
21
706.922
31
0.0
0
LINE
5
26ee
8
0-0
6
CONTINUOUS
62
  7
10
998.175
20
706.922
30
0.0
11
998.914
21
707.584
31
0.0
0
LINE
5
26ef
8
0-0
6
CONTINUOUS
62
  7
10
998.914
20
707.584
30
0.0
11
1000.735
21
709.173
31
0.0
0
LINE
5
26f0
8
0-0
6
CONTINUOUS
62
  7
10
1000.735
20
709.173
30
0.0
11
1003.959
21
711.814
31
0.0
0
LINE
5
26f1
8
0-0
6
CONTINUOUS
62
  7
10
1003.959
20
711.814
30
0.0
11
1007.309
21
714.266
31
0.0
0
LINE
5
26f2
8
0-0
6
CONTINUOUS
62
  7
10
1007.309
20
714.266
30
0.0
11
1010.808
21
716.459
31
0.0
0
LINE
5
26f3
8
0-0
6
CONTINUOUS
62
  7
10
1010.808
20
716.459
30
0.0
11
1012.914
21
717.584
31
0.0
0
LINE
5
26f4
8
0-0
6
CONTINUOUS
62
  7
10
1012.914
20
717.584
30
0.0
11
1014.791
21
718.463
31
0.0
0
LINE
5
26f5
8
0-0
6
CONTINUOUS
62
  7
10
1014.791
20
718.463
30
0.0
11
1018.116
21
719.795
31
0.0
0
LINE
5
26f6
8
0-0
6
CONTINUOUS
62
  7
10
1018.116
20
719.795
30
0.0
11
1021.523
21
720.952
31
0.0
0
LINE
5
26f7
8
0-0
6
CONTINUOUS
62
  7
10
1021.523
20
720.952
30
0.0
11
1024.979
21
722.000
31
0.0
0
LINE
5
26f8
8
0-0
6
CONTINUOUS
62
  7
10
1024.979
20
722.000
30
0.0
11
1026.992
21
722.584
31
0.0
0
LINE
5
26f9
8
0-0
6
CONTINUOUS
62
  7
10
1026.992
20
722.584
30
0.0
11
1029.627
21
723.343
31
0.0
0
LINE
5
26fa
8
0-0
6
CONTINUOUS
62
  7
10
1029.627
20
723.343
30
0.0
11
1034.165
21
724.628
31
0.0
0
LINE
5
26fb
8
0-0
6
CONTINUOUS
62
  7
10
1034.165
20
724.628
30
0.0
11
1038.707
21
725.853
31
0.0
0
LINE
5
26fc
8
0-0
6
CONTINUOUS
62
  7
10
1038.707
20
725.853
30
0.0
11
1043.262
21
726.984
31
0.0
0
LINE
5
26fd
8
0-0
6
CONTINUOUS
62
  7
10
1043.262
20
726.984
30
0.0
11
1045.914
21
727.584
31
0.0
0
LINE
5
26fe
8
0-0
6
CONTINUOUS
62
  7
10
1045.914
20
727.584
30
0.0
11
1052.899
21
728.931
31
0.0
0
LINE
5
26ff
8
0-0
6
CONTINUOUS
62
  7
10
1052.899
20
728.931
30
0.0
11
1065.070
21
730.594
31
0.0
0
LINE
5
2700
8
0-0
6
CONTINUOUS
62
  7
10
1065.070
20
730.594
30
0.0
11
1077.361
21
731.631
31
0.0
0
LINE
5
2701
8
0-0
6
CONTINUOUS
62
  7
10
1077.361
20
731.631
30
0.0
11
1089.727
21
732.285
31
0.0
0
LINE
5
2702
8
0-0
6
CONTINUOUS
62
  7
10
1089.727
20
732.285
30
0.0
11
1096.914
21
732.584
31
0.0
0
LINE
5
2703
8
0-0
6
CONTINUOUS
62
  7
10
1096.914
20
669.584
30
0.0
11
1094.400
21
669.435
31
0.0
0
LINE
5
2704
8
0-0
6
CONTINUOUS
62
  7
10
1094.400
20
669.435
30
0.0
11
1091.828
21
669.274
31
0.0
0
LINE
5
2705
8
0-0
6
CONTINUOUS
62
  7
10
1091.828
20
669.274
30
0.0
11
1089.218
21
669.098
31
0.0
0
LINE
5
2706
8
0-0
6
CONTINUOUS
62
  7
10
1089.218
20
669.098
30
0.0
11
1086.590
21
668.903
31
0.0
0
LINE
5
2707
8
0-0
6
CONTINUOUS
62
  7
10
1086.590
20
668.903
30
0.0
11
1083.960
21
668.686
31
0.0
0
LINE
5
2708
8
0-0
6
CONTINUOUS
62
  7
10
1083.960
20
668.686
30
0.0
11
1081.344
21
668.448
31
0.0
0
LINE
5
2709
8
0-0
6
CONTINUOUS
62
  7
10
1081.344
20
668.448
30
0.0
11
1078.759
21
668.184
31
0.0
0
LINE
5
270a
8
0-0
6
CONTINUOUS
62
  7
10
1078.759
20
668.184
30
0.0
11
1076.217
21
667.893
31
0.0
0
LINE
5
270b
8
0-0
6
CONTINUOUS
62
  7
10
1076.217
20
667.893
30
0.0
11
1073.731
21
667.573
31
0.0
0
LINE
5
270c
8
0-0
6
CONTINUOUS
62
  7
10
1073.731
20
667.573
30
0.0
11
1071.310
21
667.222
31
0.0
0
LINE
5
270d
8
0-0
6
CONTINUOUS
62
  7
10
1071.310
20
667.222
30
0.0
11
1068.964
21
666.836
31
0.0
0
LINE
5
270e
8
0-0
6
CONTINUOUS
62
  7
10
1068.964
20
666.836
30
0.0
11
1066.700
21
666.411
31
0.0
0
LINE
5
270f
8
0-0
6
CONTINUOUS
62
  7
10
1066.700
20
666.411
30
0.0
11
1064.524
21
665.944
31
0.0
0
LINE
5
2710
8
0-0
6
CONTINUOUS
62
  7
10
1064.524
20
665.944
30
0.0
11
1062.440
21
665.429
31
0.0
0
LINE
5
2711
8
0-0
6
CONTINUOUS
62
  7
10
1062.440
20
665.429
30
0.0
11
1060.449
21
664.861
31
0.0
0
LINE
5
2712
8
0-0
6
CONTINUOUS
62
  7
10
1060.449
20
664.861
30
0.0
11
1058.553
21
664.234
31
0.0
0
LINE
5
2713
8
0-0
6
CONTINUOUS
62
  7
10
1058.553
20
664.234
30
0.0
11
1056.752
21
663.539
31
0.0
0
LINE
5
2714
8
0-0
6
CONTINUOUS
62
  7
10
1056.752
20
663.539
30
0.0
11
1055.044
21
662.771
31
0.0
0
LINE
5
2715
8
0-0
6
CONTINUOUS
62
  7
10
1055.044
20
662.771
30
0.0
11
1053.424
21
661.919
31
0.0
0
LINE
5
2716
8
0-0
6
CONTINUOUS
62
  7
10
1053.424
20
661.919
30
0.0
11
1051.890
21
660.976
31
0.0
0
LINE
5
2717
8
0-0
6
CONTINUOUS
62
  7
10
1051.890
20
660.976
30
0.0
11
1050.436
21
659.932
31
0.0
0
LINE
5
2718
8
0-0
6
CONTINUOUS
62
  7
10
1050.436
20
659.932
30
0.0
11
1049.054
21
658.778
31
0.0
0
LINE
5
2719
8
0-0
6
CONTINUOUS
62
  7
10
1049.054
20
658.778
30
0.0
11
1047.740
21
657.504
31
0.0
0
LINE
5
271a
8
0-0
6
CONTINUOUS
62
  7
10
1047.740
20
657.504
30
0.0
11
1046.484
21
656.100
31
0.0
0
LINE
5
271b
8
0-0
6
CONTINUOUS
62
  7
10
1046.484
20
656.100
30
0.0
11
1045.280
21
654.557
31
0.0
0
LINE
5
271c
8
0-0
6
CONTINUOUS
62
  7
10
1045.280
20
654.557
30
0.0
11
1044.120
21
652.866
31
0.0
0
LINE
5
271d
8
0-0
6
CONTINUOUS
62
  7
10
1044.120
20
652.866
30
0.0
11
1042.997
21
651.018
31
0.0
0
LINE
5
271e
8
0-0
6
CONTINUOUS
62
  7
10
1042.997
20
651.018
30
0.0
11
1041.903
21
649.005
31
0.0
0
LINE
5
271f
8
0-0
6
CONTINUOUS
62
  7
10
1041.903
20
649.005
30
0.0
11
1040.833
21
646.820
31
0.0
0
LINE
5
2720
8
0-0
6
CONTINUOUS
62
  7
10
1040.833
20
646.820
30
0.0
11
1039.781
21
644.458
31
0.0
0
LINE
5
2721
8
0-0
6
CONTINUOUS
62
  7
10
1039.781
20
644.458
30
0.0
11
1038.745
21
641.914
31
0.0
0
LINE
5
2722
8
0-0
6
CONTINUOUS
62
  7
10
1038.745
20
641.914
30
0.0
11
1037.723
21
639.186
31
0.0
0
LINE
5
2723
8
0-0
6
CONTINUOUS
62
  7
10
1037.723
20
639.186
30
0.0
11
1036.716
21
636.273
31
0.0
0
LINE
5
2724
8
0-0
6
CONTINUOUS
62
  7
10
1036.716
20
636.273
30
0.0
11
1035.728
21
633.179
31
0.0
0
LINE
5
2725
8
0-0
6
CONTINUOUS
62
  7
10
1096.914
20
593.584
30
0.0
11
1096.629
21
593.540
31
0.0
0
LINE
5
2726
8
0-0
6
CONTINUOUS
62
  7
10
1096.629
20
593.540
30
0.0
11
1096.366
21
593.487
31
0.0
0
LINE
5
2727
8
0-0
6
CONTINUOUS
62
  7
10
1096.366
20
593.487
30
0.0
11
1096.119
21
593.421
31
0.0
0
LINE
5
2728
8
0-0
6
CONTINUOUS
62
  7
10
1096.119
20
593.421
30
0.0
11
1095.886
21
593.340
31
0.0
0
LINE
5
2729
8
0-0
6
CONTINUOUS
62
  7
10
1095.886
20
593.340
30
0.0
11
1095.662
21
593.245
31
0.0
0
LINE
5
272a
8
0-0
6
CONTINUOUS
62
  7
10
1095.662
20
593.245
30
0.0
11
1095.447
21
593.132
31
0.0
0
LINE
5
272b
8
0-0
6
CONTINUOUS
62
  7
10
1095.447
20
593.132
30
0.0
11
1095.238
21
593.003
31
0.0
0
LINE
5
272c
8
0-0
6
CONTINUOUS
62
  7
10
1095.238
20
593.003
30
0.0
11
1095.033
21
592.856
31
0.0
0
LINE
5
272d
8
0-0
6
CONTINUOUS
62
  7
10
1095.033
20
592.856
30
0.0
11
1094.832
21
592.692
31
0.0
0
LINE
5
272e
8
0-0
6
CONTINUOUS
62
  7
10
1094.832
20
592.692
30
0.0
11
1094.634
21
592.510
31
0.0
0
LINE
5
272f
8
0-0
6
CONTINUOUS
62
  7
10
1094.634
20
592.510
30
0.0
11
1094.437
21
592.311
31
0.0
0
LINE
5
2730
8
0-0
6
CONTINUOUS
62
  7
10
1094.437
20
592.311
30
0.0
11
1094.242
21
592.095
31
0.0
0
LINE
5
2731
8
0-0
6
CONTINUOUS
62
  7
10
1094.242
20
592.095
30
0.0
11
1094.048
21
591.862
31
0.0
0
LINE
5
2732
8
0-0
6
CONTINUOUS
62
  7
10
1094.048
20
591.862
30
0.0
11
1093.855
21
591.615
31
0.0
0
LINE
5
2733
8
0-0
6
CONTINUOUS
62
  7
10
1093.855
20
591.615
30
0.0
11
1093.663
21
591.353
31
0.0
0
LINE
5
2734
8
0-0
6
CONTINUOUS
62
  7
10
1093.663
20
591.353
30
0.0
11
1093.472
21
591.077
31
0.0
0
LINE
5
2735
8
0-0
6
CONTINUOUS
62
  7
10
1093.472
20
591.077
30
0.0
11
1093.281
21
590.789
31
0.0
0
LINE
5
2736
8
0-0
6
CONTINUOUS
62
  7
10
1093.281
20
590.789
30
0.0
11
1093.091
21
590.489
31
0.0
0
LINE
5
2737
8
0-0
6
CONTINUOUS
62
  7
10
1093.091
20
590.489
30
0.0
11
1092.902
21
590.180
31
0.0
0
LINE
5
2738
8
0-0
6
CONTINUOUS
62
  7
10
1092.902
20
590.180
30
0.0
11
1092.715
21
589.861
31
0.0
0
LINE
5
2739
8
0-0
6
CONTINUOUS
62
  7
10
1092.715
20
589.861
30
0.0
11
1092.529
21
589.535
31
0.0
0
LINE
5
273a
8
0-0
6
CONTINUOUS
62
  7
10
1092.529
20
589.535
30
0.0
11
1092.345
21
589.202
31
0.0
0
LINE
5
273b
8
0-0
6
CONTINUOUS
62
  7
10
1092.345
20
589.202
30
0.0
11
1092.162
21
588.863
31
0.0
0
LINE
5
273c
8
0-0
6
CONTINUOUS
62
  7
10
1092.162
20
588.863
30
0.0
11
1091.982
21
588.519
31
0.0
0
LINE
5
273d
8
0-0
6
CONTINUOUS
62
  7
10
1091.982
20
588.519
30
0.0
11
1091.804
21
588.170
31
0.0
0
LINE
5
273e
8
0-0
6
CONTINUOUS
62
  7
10
1091.804
20
588.170
30
0.0
11
1091.629
21
587.817
31
0.0
0
LINE
5
273f
8
0-0
6
CONTINUOUS
62
  7
10
1091.629
20
587.817
30
0.0
11
1091.456
21
587.458
31
0.0
0
LINE
5
2740
8
0-0
6
CONTINUOUS
62
  7
10
1091.456
20
587.458
30
0.0
11
1091.285
21
587.094
31
0.0
0
LINE
5
2741
8
0-0
6
CONTINUOUS
62
  7
10
1091.285
20
587.094
30
0.0
11
1091.116
21
586.722
31
0.0
0
LINE
5
2742
8
0-0
6
CONTINUOUS
62
  7
10
1091.116
20
586.722
30
0.0
11
1090.948
21
586.341
31
0.0
0
LINE
5
2743
8
0-0
6
CONTINUOUS
62
  7
10
1090.948
20
586.341
30
0.0
11
1090.781
21
585.946
31
0.0
0
LINE
5
2744
8
0-0
6
CONTINUOUS
62
  7
10
1090.781
20
585.946
30
0.0
11
1090.614
21
585.535
31
0.0
0
LINE
5
2745
8
0-0
6
CONTINUOUS
62
  7
10
1090.614
20
585.535
30
0.0
11
1090.445
21
585.103
31
0.0
0
LINE
5
2746
8
0-0
6
CONTINUOUS
62
  7
10
1090.445
20
585.103
30
0.0
11
1090.273
21
584.642
31
0.0
0
LINE
5
2747
8
0-0
6
CONTINUOUS
62
  7
10
1090.273
20
584.642
30
0.0
11
1090.096
21
584.147
31
0.0
0
LINE
5
2748
8
0-0
6
CONTINUOUS
62
  7
10
1090.096
20
584.147
30
0.0
11
1089.911
21
583.608
31
0.0
0
LINE
5
2749
8
0-0
6
CONTINUOUS
62
  7
10
1089.911
20
583.608
30
0.0
11
1089.718
21
583.016
31
0.0
0
LINE
5
274a
8
0-0
6
CONTINUOUS
62
  7
10
1089.718
20
583.016
30
0.0
11
1089.512
21
582.359
31
0.0
0
LINE
5
274b
8
0-0
6
CONTINUOUS
62
  7
10
1089.512
20
582.359
30
0.0
11
1089.292
21
581.625
31
0.0
0
LINE
5
274c
8
0-0
6
CONTINUOUS
62
  7
10
1073.773
20
586.796
30
0.0
11
1074.009
21
588.188
31
0.0
0
LINE
5
274d
8
0-0
6
CONTINUOUS
62
  7
10
1074.009
20
588.188
30
0.0
11
1074.262
21
589.533
31
0.0
0
LINE
5
274e
8
0-0
6
CONTINUOUS
62
  7
10
1074.262
20
589.533
30
0.0
11
1074.534
21
590.835
31
0.0
0
LINE
5
274f
8
0-0
6
CONTINUOUS
62
  7
10
1074.534
20
590.835
30
0.0
11
1074.826
21
592.099
31
0.0
0
LINE
5
2750
8
0-0
6
CONTINUOUS
62
  7
10
1074.826
20
592.099
30
0.0
11
1075.139
21
593.327
31
0.0
0
LINE
5
2751
8
0-0
6
CONTINUOUS
62
  7
10
1075.139
20
593.327
30
0.0
11
1075.475
21
594.521
31
0.0
0
LINE
5
2752
8
0-0
6
CONTINUOUS
62
  7
10
1075.475
20
594.521
30
0.0
11
1075.833
21
595.681
31
0.0
0
LINE
5
2753
8
0-0
6
CONTINUOUS
62
  7
10
1075.833
20
595.681
30
0.0
11
1076.215
21
596.806
31
0.0
0
LINE
5
2754
8
0-0
6
CONTINUOUS
62
  7
10
1076.215
20
596.806
30
0.0
11
1076.620
21
597.897
31
0.0
0
LINE
5
2755
8
0-0
6
CONTINUOUS
62
  7
10
1076.620
20
597.897
30
0.0
11
1077.049
21
598.951
31
0.0
0
LINE
5
2756
8
0-0
6
CONTINUOUS
62
  7
10
1077.049
20
598.951
30
0.0
11
1077.503
21
599.967
31
0.0
0
LINE
5
2757
8
0-0
6
CONTINUOUS
62
  7
10
1077.503
20
599.967
30
0.0
11
1077.982
21
600.943
31
0.0
0
LINE
5
2758
8
0-0
6
CONTINUOUS
62
  7
10
1077.982
20
600.943
30
0.0
11
1078.486
21
601.878
31
0.0
0
LINE
5
2759
8
0-0
6
CONTINUOUS
62
  7
10
1078.486
20
601.878
30
0.0
11
1079.016
21
602.770
31
0.0
0
LINE
5
275a
8
0-0
6
CONTINUOUS
62
  7
10
1079.016
20
602.770
30
0.0
11
1079.572
21
603.617
31
0.0
0
LINE
5
275b
8
0-0
6
CONTINUOUS
62
  7
10
1079.572
20
603.617
30
0.0
11
1080.156
21
604.418
31
0.0
0
LINE
5
275c
8
0-0
6
CONTINUOUS
62
  7
10
1080.156
20
604.418
30
0.0
11
1080.766
21
605.173
31
0.0
0
LINE
5
275d
8
0-0
6
CONTINUOUS
62
  7
10
1080.766
20
605.173
30
0.0
11
1081.407
21
605.881
31
0.0
0
LINE
5
275e
8
0-0
6
CONTINUOUS
62
  7
10
1081.407
20
605.881
30
0.0
11
1082.077
21
606.542
31
0.0
0
LINE
5
275f
8
0-0
6
CONTINUOUS
62
  7
10
1082.077
20
606.542
30
0.0
11
1082.780
21
607.158
31
0.0
0
LINE
5
2760
8
0-0
6
CONTINUOUS
62
  7
10
1082.780
20
607.158
30
0.0
11
1083.516
21
607.728
31
0.0
0
LINE
5
2761
8
0-0
6
CONTINUOUS
62
  7
10
1083.516
20
607.728
30
0.0
11
1084.289
21
608.255
31
0.0
0
LINE
5
2762
8
0-0
6
CONTINUOUS
62
  7
10
1084.289
20
608.255
30
0.0
11
1085.099
21
608.740
31
0.0
0
LINE
5
2763
8
0-0
6
CONTINUOUS
62
  7
10
1085.099
20
608.740
30
0.0
11
1085.951
21
609.186
31
0.0
0
LINE
5
2764
8
0-0
6
CONTINUOUS
62
  7
10
1085.951
20
609.186
30
0.0
11
1086.847
21
609.596
31
0.0
0
LINE
5
2765
8
0-0
6
CONTINUOUS
62
  7
10
1086.847
20
609.596
30
0.0
11
1087.790
21
609.971
31
0.0
0
LINE
5
2766
8
0-0
6
CONTINUOUS
62
  7
10
1087.790
20
609.971
30
0.0
11
1088.784
21
610.313
31
0.0
0
LINE
5
2767
8
0-0
6
CONTINUOUS
62
  7
10
1088.784
20
610.313
30
0.0
11
1089.831
21
610.626
31
0.0
0
LINE
5
2768
8
0-0
6
CONTINUOUS
62
  7
10
1089.831
20
610.626
30
0.0
11
1090.937
21
610.911
31
0.0
0
LINE
5
2769
8
0-0
6
CONTINUOUS
62
  7
10
1090.937
20
610.911
30
0.0
11
1092.102
21
611.167
31
0.0
0
LINE
5
276a
8
0-0
6
CONTINUOUS
62
  7
10
1092.102
20
611.167
30
0.0
11
1093.333
21
611.396
31
0.0
0
LINE
5
276b
8
0-0
6
CONTINUOUS
62
  7
10
1093.333
20
611.396
30
0.0
11
1094.631
21
611.595
31
0.0
0
LINE
5
276c
8
0-0
6
CONTINUOUS
62
  7
10
1094.631
20
611.595
30
0.0
11
1095.999
21
611.761
31
0.0
0
LINE
5
276d
8
0-0
6
CONTINUOUS
62
  7
10
1095.999
20
611.761
30
0.0
11
1096.914
21
611.842
31
0.0
0
LINE
5
276e
8
0-0
6
CONTINUOUS
62
  7
10
1003.086
20
638.212
30
0.0
11
985.415
21
481.392
31
0.0
0
LINE
5
276f
8
0-0
6
CONTINUOUS
62
  7
10
1019.828
20
634.964
30
0.0
11
1003.360
21
488.826
31
0.0
0
LINE
5
2770
8
0-0
6
CONTINUOUS
62
  7
10
1035.728
20
633.179
30
0.0
11
1020.250
21
495.823
31
0.0
0
LINE
5
2771
8
0-0
6
CONTINUOUS
62
  7
10
1049.383
20
620.400
30
0.0
11
1036.084
21
502.383
31
0.0
0
LINE
5
2772
8
0-0
6
CONTINUOUS
62
  7
10
1062.959
20
606.919
30
0.0
11
1051.918
21
508.943
31
0.0
0
LINE
5
2773
8
0-0
6
CONTINUOUS
62
  7
10
1073.773
20
586.796
30
0.0
11
1065.641
21
514.628
31
0.0
0
LINE
5
2774
8
0-0
6
CONTINUOUS
62
  7
10
1089.292
20
581.625
30
0.0
11
1082.531
21
521.625
31
0.0
0
LINE
5
2775
8
0-0
6
CONTINUOUS
62
  7
10
1236.914
20
469.584
30
0.0
11
1096.914
21
527.584
31
0.0
0
LINE
5
2776
8
0-0
6
CONTINUOUS
62
  7
10
1049.383
20
620.400
30
0.0
11
1049.901
21
622.413
31
0.0
0
LINE
5
2777
8
0-0
6
CONTINUOUS
62
  7
10
1049.901
20
622.413
30
0.0
11
1050.441
21
624.378
31
0.0
0
LINE
5
2778
8
0-0
6
CONTINUOUS
62
  7
10
1050.441
20
624.378
30
0.0
11
1051.009
21
626.292
31
0.0
0
LINE
5
2779
8
0-0
6
CONTINUOUS
62
  7
10
1051.009
20
626.292
30
0.0
11
1051.612
21
628.151
31
0.0
0
LINE
5
277a
8
0-0
6
CONTINUOUS
62
  7
10
1051.612
20
628.151
30
0.0
11
1052.256
21
629.951
31
0.0
0
LINE
5
277b
8
0-0
6
CONTINUOUS
62
  7
10
1052.256
20
629.951
30
0.0
11
1052.950
21
631.691
31
0.0
0
LINE
5
277c
8
0-0
6
CONTINUOUS
62
  7
10
1052.950
20
631.691
30
0.0
11
1053.700
21
633.365
31
0.0
0
LINE
5
277d
8
0-0
6
CONTINUOUS
62
  7
10
1053.700
20
633.365
30
0.0
11
1054.510
21
634.972
31
0.0
0
LINE
5
277e
8
0-0
6
CONTINUOUS
62
  7
10
1054.510
20
634.972
30
0.0
11
1055.389
21
636.509
31
0.0
0
LINE
5
277f
8
0-0
6
CONTINUOUS
62
  7
10
1055.389
20
636.509
30
0.0
11
1056.341
21
637.974
31
0.0
0
LINE
5
2780
8
0-0
6
CONTINUOUS
62
  7
10
1056.341
20
637.974
30
0.0
11
1057.370
21
639.366
31
0.0
0
LINE
5
2781
8
0-0
6
CONTINUOUS
62
  7
10
1057.370
20
639.366
30
0.0
11
1058.481
21
640.683
31
0.0
0
LINE
5
2782
8
0-0
6
CONTINUOUS
62
  7
10
1058.481
20
640.683
30
0.0
11
1059.677
21
641.924
31
0.0
0
LINE
5
2783
8
0-0
6
CONTINUOUS
62
  7
10
1059.677
20
641.924
30
0.0
11
1060.959
21
643.090
31
0.0
0
LINE
5
2784
8
0-0
6
CONTINUOUS
62
  7
10
1060.959
20
643.090
30
0.0
11
1062.330
21
644.180
31
0.0
0
LINE
5
2785
8
0-0
6
CONTINUOUS
62
  7
10
1062.330
20
644.180
30
0.0
11
1063.790
21
645.196
31
0.0
0
LINE
5
2786
8
0-0
6
CONTINUOUS
62
  7
10
1063.790
20
645.196
30
0.0
11
1065.336
21
646.138
31
0.0
0
LINE
5
2787
8
0-0
6
CONTINUOUS
62
  7
10
1065.336
20
646.138
30
0.0
11
1066.968
21
647.008
31
0.0
0
LINE
5
2788
8
0-0
6
CONTINUOUS
62
  7
10
1066.968
20
647.008
30
0.0
11
1068.681
21
647.808
31
0.0
0
LINE
5
2789
8
0-0
6
CONTINUOUS
62
  7
10
1068.681
20
647.808
30
0.0
11
1070.471
21
648.540
31
0.0
0
LINE
5
278a
8
0-0
6
CONTINUOUS
62
  7
10
1070.471
20
648.540
30
0.0
11
1072.333
21
649.207
31
0.0
0
LINE
5
278b
8
0-0
6
CONTINUOUS
62
  7
10
1072.333
20
649.207
30
0.0
11
1074.259
21
649.811
31
0.0
0
LINE
5
278c
8
0-0
6
CONTINUOUS
62
  7
10
1074.259
20
649.811
30
0.0
11
1076.240
21
650.356
31
0.0
0
LINE
5
278d
8
0-0
6
CONTINUOUS
62
  7
10
1076.240
20
650.356
30
0.0
11
1078.269
21
650.844
31
0.0
0
LINE
5
278e
8
0-0
6
CONTINUOUS
62
  7
10
1078.269
20
650.844
30
0.0
11
1080.333
21
651.280
31
0.0
0
LINE
5
278f
8
0-0
6
CONTINUOUS
62
  7
10
1080.333
20
651.280
30
0.0
11
1082.422
21
651.666
31
0.0
0
LINE
5
2790
8
0-0
6
CONTINUOUS
62
  7
10
1082.422
20
651.666
30
0.0
11
1084.522
21
652.007
31
0.0
0
LINE
5
2791
8
0-0
6
CONTINUOUS
62
  7
10
1084.522
20
652.007
30
0.0
11
1086.621
21
652.306
31
0.0
0
LINE
5
2792
8
0-0
6
CONTINUOUS
62
  7
10
1086.621
20
652.306
30
0.0
11
1088.705
21
652.566
31
0.0
0
LINE
5
2793
8
0-0
6
CONTINUOUS
62
  7
10
1088.705
20
652.566
30
0.0
11
1090.758
21
652.791
31
0.0
0
LINE
5
2794
8
0-0
6
CONTINUOUS
62
  7
10
1090.758
20
652.791
30
0.0
11
1092.766
21
652.984
31
0.0
0
LINE
5
2795
8
0-0
6
CONTINUOUS
62
  7
10
1092.766
20
652.984
30
0.0
11
1094.713
21
653.150
31
0.0
0
LINE
5
2796
8
0-0
6
CONTINUOUS
62
  7
10
1094.713
20
653.150
30
0.0
11
1096.585
21
653.290
31
0.0
0
LINE
5
2797
8
0-0
6
CONTINUOUS
62
  7
10
1096.585
20
653.290
30
0.0
11
1096.914
21
653.312
31
0.0
0
LINE
5
2798
8
0-0
6
CONTINUOUS
62
  7
10
1062.959
20
606.919
30
0.0
11
1063.344
21
608.527
31
0.0
0
LINE
5
2799
8
0-0
6
CONTINUOUS
62
  7
10
1063.344
20
608.527
30
0.0
11
1063.728
21
610.040
31
0.0
0
LINE
5
279a
8
0-0
6
CONTINUOUS
62
  7
10
1063.728
20
610.040
30
0.0
11
1064.118
21
611.462
31
0.0
0
LINE
5
279b
8
0-0
6
CONTINUOUS
62
  7
10
1064.118
20
611.462
30
0.0
11
1064.515
21
612.797
31
0.0
0
LINE
5
279c
8
0-0
6
CONTINUOUS
62
  7
10
1064.515
20
612.797
30
0.0
11
1064.924
21
614.049
31
0.0
0
LINE
5
279d
8
0-0
6
CONTINUOUS
62
  7
10
1064.924
20
614.049
30
0.0
11
1065.348
21
615.223
31
0.0
0
LINE
5
279e
8
0-0
6
CONTINUOUS
62
  7
10
1065.348
20
615.223
30
0.0
11
1065.788
21
616.325
31
0.0
0
LINE
5
279f
8
0-0
6
CONTINUOUS
62
  7
10
1065.788
20
616.325
30
0.0
11
1066.248
21
617.357
31
0.0
0
LINE
5
27a0
8
0-0
6
CONTINUOUS
62
  7
10
1066.248
20
617.357
30
0.0
11
1066.731
21
618.326
31
0.0
0
LINE
5
27a1
8
0-0
6
CONTINUOUS
62
  7
10
1066.731
20
618.326
30
0.0
11
1067.239
21
619.235
31
0.0
0
LINE
5
27a2
8
0-0
6
CONTINUOUS
62
  7
10
1067.239
20
619.235
30
0.0
11
1067.773
21
620.088
31
0.0
0
LINE
5
27a3
8
0-0
6
CONTINUOUS
62
  7
10
1067.773
20
620.088
30
0.0
11
1068.338
21
620.891
31
0.0
0
LINE
5
27a4
8
0-0
6
CONTINUOUS
62
  7
10
1068.338
20
620.891
30
0.0
11
1068.935
21
621.646
31
0.0
0
LINE
5
27a5
8
0-0
6
CONTINUOUS
62
  7
10
1068.935
20
621.646
30
0.0
11
1069.567
21
622.356
31
0.0
0
LINE
5
27a6
8
0-0
6
CONTINUOUS
62
  7
10
1069.567
20
622.356
30
0.0
11
1070.235
21
623.025
31
0.0
0
LINE
5
27a7
8
0-0
6
CONTINUOUS
62
  7
10
1070.235
20
623.025
30
0.0
11
1070.943
21
623.656
31
0.0
0
LINE
5
27a8
8
0-0
6
CONTINUOUS
62
  7
10
1070.943
20
623.656
30
0.0
11
1071.691
21
624.250
31
0.0
0
LINE
5
27a9
8
0-0
6
CONTINUOUS
62
  7
10
1071.691
20
624.250
30
0.0
11
1072.483
21
624.811
31
0.0
0
LINE
5
27aa
8
0-0
6
CONTINUOUS
62
  7
10
1072.483
20
624.811
30
0.0
11
1073.319
21
625.341
31
0.0
0
LINE
5
27ab
8
0-0
6
CONTINUOUS
62
  7
10
1073.319
20
625.341
30
0.0
11
1074.201
21
625.841
31
0.0
0
LINE
5
27ac
8
0-0
6
CONTINUOUS
62
  7
10
1074.201
20
625.841
30
0.0
11
1075.130
21
626.312
31
0.0
0
LINE
5
27ad
8
0-0
6
CONTINUOUS
62
  7
10
1075.130
20
626.312
30
0.0
11
1076.105
21
626.757
31
0.0
0
LINE
5
27ae
8
0-0
6
CONTINUOUS
62
  7
10
1076.105
20
626.757
30
0.0
11
1077.129
21
627.177
31
0.0
0
LINE
5
27af
8
0-0
6
CONTINUOUS
62
  7
10
1077.129
20
627.177
30
0.0
11
1078.199
21
627.573
31
0.0
0
LINE
5
27b0
8
0-0
6
CONTINUOUS
62
  7
10
1078.199
20
627.573
30
0.0
11
1079.316
21
627.946
31
0.0
0
LINE
5
27b1
8
0-0
6
CONTINUOUS
62
  7
10
1079.316
20
627.946
30
0.0
11
1080.478
21
628.297
31
0.0
0
LINE
5
27b2
8
0-0
6
CONTINUOUS
62
  7
10
1080.478
20
628.297
30
0.0
11
1081.684
21
628.626
31
0.0
0
LINE
5
27b3
8
0-0
6
CONTINUOUS
62
  7
10
1081.684
20
628.626
30
0.0
11
1082.931
21
628.936
31
0.0
0
LINE
5
27b4
8
0-0
6
CONTINUOUS
62
  7
10
1082.931
20
628.936
30
0.0
11
1084.216
21
629.226
31
0.0
0
LINE
5
27b5
8
0-0
6
CONTINUOUS
62
  7
10
1084.216
20
629.226
30
0.0
11
1085.534
21
629.496
31
0.0
0
LINE
5
27b6
8
0-0
6
CONTINUOUS
62
  7
10
1085.534
20
629.496
30
0.0
11
1086.880
21
629.748
31
0.0
0
LINE
5
27b7
8
0-0
6
CONTINUOUS
62
  7
10
1086.880
20
629.748
30
0.0
11
1088.247
21
629.980
31
0.0
0
LINE
5
27b8
8
0-0
6
CONTINUOUS
62
  7
10
1088.247
20
629.980
30
0.0
11
1089.626
21
630.194
31
0.0
0
LINE
5
27b9
8
0-0
6
CONTINUOUS
62
  7
10
1089.626
20
630.194
30
0.0
11
1091.008
21
630.388
31
0.0
0
LINE
5
27ba
8
0-0
6
CONTINUOUS
62
  7
10
1091.008
20
630.388
30
0.0
11
1092.378
21
630.561
31
0.0
0
LINE
5
27bb
8
0-0
6
CONTINUOUS
62
  7
10
1092.378
20
630.561
30
0.0
11
1093.721
21
630.713
31
0.0
0
LINE
5
27bc
8
0-0
6
CONTINUOUS
62
  7
10
1093.721
20
630.713
30
0.0
11
1095.016
21
630.839
31
0.0
0
LINE
5
27bd
8
0-0
6
CONTINUOUS
62
  7
10
1095.016
20
630.839
30
0.0
11
1096.240
21
630.938
31
0.0
0
LINE
5
27be
8
0-0
6
CONTINUOUS
62
  7
10
1096.240
20
630.938
30
0.0
11
1096.914
21
630.979
31
0.0
0
LINE
5
27bf
8
0-0
6
CONTINUOUS
62
  7
10
994.237
20
639.854
30
0.0
11
994.164
21
639.405
31
0.0
0
LINE
5
27c0
8
0-0
6
CONTINUOUS
62
  7
10
994.164
20
639.405
30
0.0
11
975.915
21
477.456
31
0.0
0
LINE
5
27c1
8
0-0
6
CONTINUOUS
62
  7
10
1096.914
20
710.584
30
0.0
11
1091.414
21
710.352
31
0.0
0
LINE
5
27c2
8
0-0
6
CONTINUOUS
62
  7
10
1091.414
20
710.352
30
0.0
11
1086.055
21
710.038
31
0.0
0
LINE
5
27c3
8
0-0
6
CONTINUOUS
62
  7
10
1086.055
20
710.038
30
0.0
11
1080.846
21
709.651
31
0.0
0
LINE
5
27c4
8
0-0
6
CONTINUOUS
62
  7
10
1080.846
20
709.651
30
0.0
11
1075.799
21
709.196
31
0.0
0
LINE
5
27c5
8
0-0
6
CONTINUOUS
62
  7
10
1075.799
20
709.196
30
0.0
11
1070.923
21
708.681
31
0.0
0
LINE
5
27c6
8
0-0
6
CONTINUOUS
62
  7
10
1070.923
20
708.681
30
0.0
11
1066.228
21
708.110
31
0.0
0
LINE
5
27c7
8
0-0
6
CONTINUOUS
62
  7
10
1066.228
20
708.110
30
0.0
11
1061.723
21
707.489
31
0.0
0
LINE
5
27c8
8
0-0
6
CONTINUOUS
62
  7
10
1061.723
20
707.489
30
0.0
11
1057.412
21
706.823
31
0.0
0
LINE
5
27c9
8
0-0
6
CONTINUOUS
62
  7
10
1057.412
20
706.823
30
0.0
11
1053.303
21
706.114
31
0.0
0
LINE
5
27ca
8
0-0
6
CONTINUOUS
62
  7
10
1053.303
20
706.114
30
0.0
11
1049.398
21
705.367
31
0.0
0
LINE
5
27cb
8
0-0
6
CONTINUOUS
62
  7
10
1049.398
20
705.367
30
0.0
11
1045.698
21
704.582
31
0.0
0
LINE
5
27cc
8
0-0
6
CONTINUOUS
62
  7
10
1045.698
20
704.582
30
0.0
11
1042.202
21
703.762
31
0.0
0
LINE
5
27cd
8
0-0
6
CONTINUOUS
62
  7
10
1042.202
20
703.762
30
0.0
11
1038.907
21
702.905
31
0.0
0
LINE
5
27ce
8
0-0
6
CONTINUOUS
62
  7
10
1038.907
20
702.905
30
0.0
11
1035.810
21
702.011
31
0.0
0
LINE
5
27cf
8
0-0
6
CONTINUOUS
62
  7
10
1035.810
20
702.011
30
0.0
11
1032.903
21
701.077
31
0.0
0
LINE
5
27d0
8
0-0
6
CONTINUOUS
62
  7
10
1032.903
20
701.077
30
0.0
11
1030.179
21
700.100
31
0.0
0
LINE
5
27d1
8
0-0
6
CONTINUOUS
62
  7
10
1030.179
20
700.100
30
0.0
11
1027.628
21
699.077
31
0.0
0
LINE
5
27d2
8
0-0
6
CONTINUOUS
62
  7
10
1027.628
20
699.077
30
0.0
11
1025.242
21
698.000
31
0.0
0
LINE
5
27d3
8
0-0
6
CONTINUOUS
62
  7
10
1025.242
20
698.000
30
0.0
11
1023.007
21
696.865
31
0.0
0
LINE
5
27d4
8
0-0
6
CONTINUOUS
62
  7
10
1023.007
20
696.865
30
0.0
11
1020.913
21
695.661
31
0.0
0
LINE
5
27d5
8
0-0
6
CONTINUOUS
62
  7
10
1020.913
20
695.661
30
0.0
11
1018.948
21
694.382
31
0.0
0
LINE
5
27d6
8
0-0
6
CONTINUOUS
62
  7
10
1018.948
20
694.382
30
0.0
11
1017.099
21
693.015
31
0.0
0
LINE
5
27d7
8
0-0
6
CONTINUOUS
62
  7
10
1017.099
20
693.015
30
0.0
11
1015.353
21
691.550
31
0.0
0
LINE
5
27d8
8
0-0
6
CONTINUOUS
62
  7
10
1015.353
20
691.550
30
0.0
11
1013.699
21
689.974
31
0.0
0
LINE
5
27d9
8
0-0
6
CONTINUOUS
62
  7
10
1013.699
20
689.974
30
0.0
11
1012.126
21
688.271
31
0.0
0
LINE
5
27da
8
0-0
6
CONTINUOUS
62
  7
10
1012.126
20
688.271
30
0.0
11
1010.621
21
686.428
31
0.0
0
LINE
5
27db
8
0-0
6
CONTINUOUS
62
  7
10
1010.621
20
686.428
30
0.0
11
1009.176
21
684.425
31
0.0
0
LINE
5
27dc
8
0-0
6
CONTINUOUS
62
  7
10
1009.176
20
684.425
30
0.0
11
1007.781
21
682.246
31
0.0
0
LINE
5
27dd
8
0-0
6
CONTINUOUS
62
  7
10
1007.781
20
682.246
30
0.0
11
1006.428
21
679.870
31
0.0
0
LINE
5
27de
8
0-0
6
CONTINUOUS
62
  7
10
1006.428
20
679.870
30
0.0
11
1005.109
21
677.276
31
0.0
0
LINE
5
27df
8
0-0
6
CONTINUOUS
62
  7
10
1005.109
20
677.276
30
0.0
11
1003.820
21
674.439
31
0.0
0
LINE
5
27e0
8
0-0
6
CONTINUOUS
62
  7
10
1003.820
20
674.439
30
0.0
11
1002.554
21
671.335
31
0.0
0
LINE
5
27e1
8
0-0
6
CONTINUOUS
62
  7
10
1002.554
20
671.335
30
0.0
11
1001.309
21
667.937
31
0.0
0
LINE
5
27e2
8
0-0
6
CONTINUOUS
62
  7
10
1001.309
20
667.937
30
0.0
11
1000.083
21
664.216
31
0.0
0
LINE
5
27e3
8
0-0
6
CONTINUOUS
62
  7
10
1000.083
20
664.216
30
0.0
11
998.872
21
660.141
31
0.0
0
LINE
5
27e4
8
0-0
6
CONTINUOUS
62
  7
10
998.872
20
660.141
30
0.0
11
997.677
21
655.678
31
0.0
0
LINE
5
27e5
8
0-0
6
CONTINUOUS
62
  7
10
997.677
20
655.678
30
0.0
11
996.497
21
650.790
31
0.0
0
LINE
5
27e6
8
0-0
6
CONTINUOUS
62
  7
10
996.497
20
650.790
30
0.0
11
995.333
21
645.440
31
0.0
0
LINE
5
27e7
8
0-0
6
CONTINUOUS
62
  7
10
995.333
20
645.440
30
0.0
11
994.237
21
639.854
31
0.0
0
LINE
5
27e8
8
0-0
6
CONTINUOUS
62
  7
10
1020.148
20
636.543
30
0.0
11
1020.108
21
636.378
31
0.0
0
LINE
5
27e9
8
0-0
6
CONTINUOUS
62
  7
10
1020.108
20
636.378
30
0.0
11
1020.072
21
636.221
31
0.0
0
LINE
5
27ea
8
0-0
6
CONTINUOUS
62
  7
10
1020.072
20
636.221
30
0.0
11
1020.038
21
636.073
31
0.0
0
LINE
5
27eb
8
0-0
6
CONTINUOUS
62
  7
10
1020.038
20
636.073
30
0.0
11
1020.007
21
635.933
31
0.0
0
LINE
5
27ec
8
0-0
6
CONTINUOUS
62
  7
10
1020.007
20
635.933
30
0.0
11
1019.979
21
635.802
31
0.0
0
LINE
5
27ed
8
0-0
6
CONTINUOUS
62
  7
10
1019.979
20
635.802
30
0.0
11
1019.954
21
635.678
31
0.0
0
LINE
5
27ee
8
0-0
6
CONTINUOUS
62
  7
10
1019.954
20
635.678
30
0.0
11
1019.931
21
635.563
31
0.0
0
LINE
5
27ef
8
0-0
6
CONTINUOUS
62
  7
10
1019.931
20
635.563
30
0.0
11
1019.910
21
635.455
31
0.0
0
LINE
5
27f0
8
0-0
6
CONTINUOUS
62
  7
10
1019.910
20
635.455
30
0.0
11
1019.892
21
635.355
31
0.0
0
LINE
5
27f1
8
0-0
6
CONTINUOUS
62
  7
10
1019.892
20
635.355
30
0.0
11
1019.875
21
635.263
31
0.0
0
LINE
5
27f2
8
0-0
6
CONTINUOUS
62
  7
10
1019.875
20
635.263
30
0.0
11
1019.861
21
635.177
31
0.0
0
LINE
5
27f3
8
0-0
6
CONTINUOUS
62
  7
10
1019.861
20
635.177
30
0.0
11
1019.848
21
635.099
31
0.0
0
LINE
5
27f4
8
0-0
6
CONTINUOUS
62
  7
10
1019.848
20
635.099
30
0.0
11
1019.837
21
635.028
31
0.0
0
LINE
5
27f5
8
0-0
6
CONTINUOUS
62
  7
10
1019.837
20
635.028
30
0.0
11
1019.828
21
634.964
31
0.0
0
LINE
5
27f6
8
0-0
6
CONTINUOUS
62
  7
10
1096.914
20
701.576
30
0.0
11
1091.868
21
701.363
31
0.0
0
LINE
5
27f7
8
0-0
6
CONTINUOUS
62
  7
10
1091.868
20
701.363
30
0.0
11
1086.651
21
701.058
31
0.0
0
LINE
5
27f8
8
0-0
6
CONTINUOUS
62
  7
10
1086.651
20
701.058
30
0.0
11
1081.582
21
700.681
31
0.0
0
LINE
5
27f9
8
0-0
6
CONTINUOUS
62
  7
10
1081.582
20
700.681
30
0.0
11
1076.678
21
700.239
31
0.0
0
LINE
5
27fa
8
0-0
6
CONTINUOUS
62
  7
10
1076.678
20
700.239
30
0.0
11
1071.939
21
699.738
31
0.0
0
LINE
5
27fb
8
0-0
6
CONTINUOUS
62
  7
10
1071.939
20
699.738
30
0.0
11
1067.385
21
699.184
31
0.0
0
LINE
5
27fc
8
0-0
6
CONTINUOUS
62
  7
10
1067.385
20
699.184
30
0.0
11
1063.024
21
698.583
31
0.0
0
LINE
5
27fd
8
0-0
6
CONTINUOUS
62
  7
10
1063.024
20
698.583
30
0.0
11
1058.864
21
697.940
31
0.0
0
LINE
5
27fe
8
0-0
6
CONTINUOUS
62
  7
10
1058.864
20
697.940
30
0.0
11
1054.917
21
697.260
31
0.0
0
LINE
5
27ff
8
0-0
6
CONTINUOUS
62
  7
10
1054.917
20
697.260
30
0.0
11
1051.176
21
696.544
31
0.0
0
LINE
5
2800
8
0-0
6
CONTINUOUS
62
  7
10
1051.176
20
696.544
30
0.0
11
1047.660
21
695.798
31
0.0
0
LINE
5
2801
8
0-0
6
CONTINUOUS
62
  7
10
1047.660
20
695.798
30
0.0
11
1044.365
21
695.025
31
0.0
0
LINE
5
2802
8
0-0
6
CONTINUOUS
62
  7
10
1044.365
20
695.025
30
0.0
11
1041.288
21
694.224
31
0.0
0
LINE
5
2803
8
0-0
6
CONTINUOUS
62
  7
10
1041.288
20
694.224
30
0.0
11
1038.434
21
693.401
31
0.0
0
LINE
5
2804
8
0-0
6
CONTINUOUS
62
  7
10
1038.434
20
693.401
30
0.0
11
1035.798
21
692.554
31
0.0
0
LINE
5
2805
8
0-0
6
CONTINUOUS
62
  7
10
1035.798
20
692.554
30
0.0
11
1033.374
21
691.685
31
0.0
0
LINE
5
2806
8
0-0
6
CONTINUOUS
62
  7
10
1033.374
20
691.685
30
0.0
11
1031.157
21
690.795
31
0.0
0
LINE
5
2807
8
0-0
6
CONTINUOUS
62
  7
10
1031.157
20
690.795
30
0.0
11
1029.133
21
689.882
31
0.0
0
LINE
5
2808
8
0-0
6
CONTINUOUS
62
  7
10
1029.133
20
689.882
30
0.0
11
1027.291
21
688.946
31
0.0
0
LINE
5
2809
8
0-0
6
CONTINUOUS
62
  7
10
1027.291
20
688.946
30
0.0
11
1025.614
21
687.982
31
0.0
0
LINE
5
280a
8
0-0
6
CONTINUOUS
62
  7
10
1025.614
20
687.982
30
0.0
11
1024.082
21
686.985
31
0.0
0
LINE
5
280b
8
0-0
6
CONTINUOUS
62
  7
10
1024.082
20
686.985
30
0.0
11
1022.672
21
685.943
31
0.0
0
LINE
5
280c
8
0-0
6
CONTINUOUS
62
  7
10
1022.672
20
685.943
30
0.0
11
1021.357
21
684.840
31
0.0
0
LINE
5
280d
8
0-0
6
CONTINUOUS
62
  7
10
1021.357
20
684.840
30
0.0
11
1020.115
21
683.655
31
0.0
0
LINE
5
280e
8
0-0
6
CONTINUOUS
62
  7
10
1020.115
20
683.655
30
0.0
11
1018.923
21
682.366
31
0.0
0
LINE
5
280f
8
0-0
6
CONTINUOUS
62
  7
10
1018.923
20
682.366
30
0.0
11
1017.763
21
680.944
31
0.0
0
LINE
5
2810
8
0-0
6
CONTINUOUS
62
  7
10
1017.763
20
680.944
30
0.0
11
1016.620
21
679.361
31
0.0
0
LINE
5
2811
8
0-0
6
CONTINUOUS
62
  7
10
1016.620
20
679.361
30
0.0
11
1015.486
21
677.590
31
0.0
0
LINE
5
2812
8
0-0
6
CONTINUOUS
62
  7
10
1015.486
20
677.590
30
0.0
11
1014.354
21
675.602
31
0.0
0
LINE
5
2813
8
0-0
6
CONTINUOUS
62
  7
10
1014.354
20
675.602
30
0.0
11
1013.221
21
673.372
31
0.0
0
LINE
5
2814
8
0-0
6
CONTINUOUS
62
  7
10
1013.221
20
673.372
30
0.0
11
1012.087
21
670.876
31
0.0
0
LINE
5
2815
8
0-0
6
CONTINUOUS
62
  7
10
1012.087
20
670.876
30
0.0
11
1010.950
21
668.088
31
0.0
0
LINE
5
2816
8
0-0
6
CONTINUOUS
62
  7
10
1010.950
20
668.088
30
0.0
11
1009.810
21
664.978
31
0.0
0
LINE
5
2817
8
0-0
6
CONTINUOUS
62
  7
10
1009.810
20
664.978
30
0.0
11
1008.672
21
661.526
31
0.0
0
LINE
5
2818
8
0-0
6
CONTINUOUS
62
  7
10
1008.672
20
661.526
30
0.0
11
1007.534
21
657.695
31
0.0
0
LINE
5
2819
8
0-0
6
CONTINUOUS
62
  7
10
1007.534
20
657.695
30
0.0
11
1006.400
21
653.458
31
0.0
0
LINE
5
281a
8
0-0
6
CONTINUOUS
62
  7
10
1006.400
20
653.458
30
0.0
11
1005.270
21
648.776
31
0.0
0
LINE
5
281b
8
0-0
6
CONTINUOUS
62
  7
10
1005.270
20
648.776
30
0.0
11
1004.146
21
643.615
31
0.0
0
LINE
5
281c
8
0-0
6
CONTINUOUS
62
  7
10
1004.146
20
643.615
30
0.0
11
1003.086
21
638.212
31
0.0
0
LINE
5
281d
8
0-0
6
CONTINUOUS
62
  7
10
1020.148
20
636.543
30
0.0
11
1020.305
21
637.230
31
0.0
0
LINE
5
281e
8
0-0
6
CONTINUOUS
62
  7
10
1020.305
20
637.230
30
0.0
11
1020.929
21
639.773
31
0.0
0
LINE
5
281f
8
0-0
6
CONTINUOUS
62
  7
10
1020.929
20
639.773
30
0.0
11
1021.568
21
642.210
31
0.0
0
LINE
5
2820
8
0-0
6
CONTINUOUS
62
  7
10
1021.568
20
642.210
30
0.0
11
1022.225
21
644.545
31
0.0
0
LINE
5
2821
8
0-0
6
CONTINUOUS
62
  7
10
1022.225
20
644.545
30
0.0
11
1022.902
21
646.782
31
0.0
0
LINE
5
2822
8
0-0
6
CONTINUOUS
62
  7
10
1022.902
20
646.782
30
0.0
11
1023.601
21
648.926
31
0.0
0
LINE
5
2823
8
0-0
6
CONTINUOUS
62
  7
10
1023.601
20
648.926
30
0.0
11
1024.328
21
650.980
31
0.0
0
LINE
5
2824
8
0-0
6
CONTINUOUS
62
  7
10
1024.328
20
650.980
30
0.0
11
1025.087
21
652.947
31
0.0
0
LINE
5
2825
8
0-0
6
CONTINUOUS
62
  7
10
1025.087
20
652.947
30
0.0
11
1025.884
21
654.832
31
0.0
0
LINE
5
2826
8
0-0
6
CONTINUOUS
62
  7
10
1025.884
20
654.832
30
0.0
11
1026.727
21
656.637
31
0.0
0
LINE
5
2827
8
0-0
6
CONTINUOUS
62
  7
10
1026.727
20
656.637
30
0.0
11
1027.623
21
658.367
31
0.0
0
LINE
5
2828
8
0-0
6
CONTINUOUS
62
  7
10
1027.623
20
658.367
30
0.0
11
1028.580
21
660.024
31
0.0
0
LINE
5
2829
8
0-0
6
CONTINUOUS
62
  7
10
1028.580
20
660.024
30
0.0
11
1029.606
21
661.611
31
0.0
0
LINE
5
282a
8
0-0
6
CONTINUOUS
62
  7
10
1029.606
20
661.611
30
0.0
11
1030.711
21
663.133
31
0.0
0
LINE
5
282b
8
0-0
6
CONTINUOUS
62
  7
10
1030.711
20
663.133
30
0.0
11
1031.902
21
664.590
31
0.0
0
LINE
5
282c
8
0-0
6
CONTINUOUS
62
  7
10
1031.902
20
664.590
30
0.0
11
1033.188
21
665.987
31
0.0
0
LINE
5
282d
8
0-0
6
CONTINUOUS
62
  7
10
1033.188
20
665.987
30
0.0
11
1034.578
21
667.326
31
0.0
0
LINE
5
282e
8
0-0
6
CONTINUOUS
62
  7
10
1034.578
20
667.326
30
0.0
11
1036.080
21
668.608
31
0.0
0
LINE
5
282f
8
0-0
6
CONTINUOUS
62
  7
10
1036.080
20
668.608
30
0.0
11
1037.700
21
669.836
31
0.0
0
LINE
5
2830
8
0-0
6
CONTINUOUS
62
  7
10
1037.700
20
669.836
30
0.0
11
1039.446
21
671.012
31
0.0
0
LINE
5
2831
8
0-0
6
CONTINUOUS
62
  7
10
1039.446
20
671.012
30
0.0
11
1041.322
21
672.136
31
0.0
0
LINE
5
2832
8
0-0
6
CONTINUOUS
62
  7
10
1041.322
20
672.136
30
0.0
11
1043.333
21
673.211
31
0.0
0
LINE
5
2833
8
0-0
6
CONTINUOUS
62
  7
10
1043.333
20
673.211
30
0.0
11
1045.483
21
674.236
31
0.0
0
LINE
5
2834
8
0-0
6
CONTINUOUS
62
  7
10
1045.483
20
674.236
30
0.0
11
1047.773
21
675.211
31
0.0
0
LINE
5
2835
8
0-0
6
CONTINUOUS
62
  7
10
1047.773
20
675.211
30
0.0
11
1050.204
21
676.138
31
0.0
0
LINE
5
2836
8
0-0
6
CONTINUOUS
62
  7
10
1050.204
20
676.138
30
0.0
11
1052.777
21
677.015
31
0.0
0
LINE
5
2837
8
0-0
6
CONTINUOUS
62
  7
10
1052.777
20
677.015
30
0.0
11
1055.488
21
677.842
31
0.0
0
LINE
5
2838
8
0-0
6
CONTINUOUS
62
  7
10
1055.488
20
677.842
30
0.0
11
1058.336
21
678.618
31
0.0
0
LINE
5
2839
8
0-0
6
CONTINUOUS
62
  7
10
1058.336
20
678.618
30
0.0
11
1061.314
21
679.343
31
0.0
0
LINE
5
283a
8
0-0
6
CONTINUOUS
62
  7
10
1061.314
20
679.343
30
0.0
11
1064.420
21
680.015
31
0.0
0
LINE
5
283b
8
0-0
6
CONTINUOUS
62
  7
10
1064.420
20
680.015
30
0.0
11
1067.645
21
680.633
31
0.0
0
LINE
5
283c
8
0-0
6
CONTINUOUS
62
  7
10
1067.645
20
680.633
30
0.0
11
1070.983
21
681.195
31
0.0
0
LINE
5
283d
8
0-0
6
CONTINUOUS
62
  7
10
1070.983
20
681.195
30
0.0
11
1074.426
21
681.702
31
0.0
0
LINE
5
283e
8
0-0
6
CONTINUOUS
62
  7
10
1074.426
20
681.702
30
0.0
11
1077.967
21
682.153
31
0.0
0
LINE
5
283f
8
0-0
6
CONTINUOUS
62
  7
10
1077.967
20
682.153
30
0.0
11
1081.598
21
682.547
31
0.0
0
LINE
5
2840
8
0-0
6
CONTINUOUS
62
  7
10
1081.598
20
682.547
30
0.0
11
1085.313
21
682.885
31
0.0
0
LINE
5
2841
8
0-0
6
CONTINUOUS
62
  7
10
1085.313
20
682.885
30
0.0
11
1089.106
21
683.169
31
0.0
0
LINE
5
2842
8
0-0
6
CONTINUOUS
62
  7
10
1089.106
20
683.169
30
0.0
11
1092.974
21
683.401
31
0.0
0
LINE
5
2843
8
0-0
6
CONTINUOUS
62
  7
10
1092.974
20
683.401
30
0.0
11
1096.914
21
683.584
31
0.0
0
LINE
5
2844
8
0-0
6
CONTINUOUS
62
  7
10
1236.914
20
469.584
30
0.0
11
1096.914
21
527.584
31
0.0
0
LINE
5
2845
8
0-0
6
CONTINUOUS
62
  7
10
1096.914
20
593.584
30
0.0
11
1097.198
21
593.540
31
0.0
0
LINE
5
2846
8
0-0
6
CONTINUOUS
62
  7
10
1097.198
20
593.540
30
0.0
11
1097.462
21
593.487
31
0.0
0
LINE
5
2847
8
0-0
6
CONTINUOUS
62
  7
10
1097.462
20
593.487
30
0.0
11
1097.708
21
593.421
31
0.0
0
LINE
5
2848
8
0-0
6
CONTINUOUS
62
  7
10
1097.708
20
593.421
30
0.0
11
1097.942
21
593.340
31
0.0
0
LINE
5
2849
8
0-0
6
CONTINUOUS
62
  7
10
1097.942
20
593.340
30
0.0
11
1098.165
21
593.245
31
0.0
0
LINE
5
284a
8
0-0
6
CONTINUOUS
62
  7
10
1098.165
20
593.245
30
0.0
11
1098.381
21
593.132
31
0.0
0
LINE
5
284b
8
0-0
6
CONTINUOUS
62
  7
10
1098.381
20
593.132
30
0.0
11
1098.590
21
593.003
31
0.0
0
LINE
5
284c
8
0-0
6
CONTINUOUS
62
  7
10
1098.590
20
593.003
30
0.0
11
1098.795
21
592.856
31
0.0
0
LINE
5
284d
8
0-0
6
CONTINUOUS
62
  7
10
1098.795
20
592.856
30
0.0
11
1098.996
21
592.692
31
0.0
0
LINE
5
284e
8
0-0
6
CONTINUOUS
62
  7
10
1098.996
20
592.692
30
0.0
11
1099.194
21
592.510
31
0.0
0
LINE
5
284f
8
0-0
6
CONTINUOUS
62
  7
10
1099.194
20
592.510
30
0.0
11
1099.391
21
592.311
31
0.0
0
LINE
5
2850
8
0-0
6
CONTINUOUS
62
  7
10
1099.391
20
592.311
30
0.0
11
1099.586
21
592.095
31
0.0
0
LINE
5
2851
8
0-0
6
CONTINUOUS
62
  7
10
1099.586
20
592.095
30
0.0
11
1099.779
21
591.862
31
0.0
0
LINE
5
2852
8
0-0
6
CONTINUOUS
62
  7
10
1099.779
20
591.862
30
0.0
11
1099.972
21
591.615
31
0.0
0
LINE
5
2853
8
0-0
6
CONTINUOUS
62
  7
10
1099.972
20
591.615
30
0.0
11
1100.165
21
591.353
31
0.0
0
LINE
5
2854
8
0-0
6
CONTINUOUS
62
  7
10
1100.165
20
591.353
30
0.0
11
1100.356
21
591.077
31
0.0
0
LINE
5
2855
8
0-0
6
CONTINUOUS
62
  7
10
1100.356
20
591.077
30
0.0
11
1100.547
21
590.789
31
0.0
0
LINE
5
2856
8
0-0
6
CONTINUOUS
62
  7
10
1100.547
20
590.789
30
0.0
11
1100.736
21
590.489
31
0.0
0
LINE
5
2857
8
0-0
6
CONTINUOUS
62
  7
10
1100.736
20
590.489
30
0.0
11
1100.925
21
590.180
31
0.0
0
LINE
5
2858
8
0-0
6
CONTINUOUS
62
  7
10
1100.925
20
590.180
30
0.0
11
1101.113
21
589.861
31
0.0
0
LINE
5
2859
8
0-0
6
CONTINUOUS
62
  7
10
1101.113
20
589.861
30
0.0
11
1101.299
21
589.535
31
0.0
0
LINE
5
285a
8
0-0
6
CONTINUOUS
62
  7
10
1101.299
20
589.535
30
0.0
11
1101.483
21
589.202
31
0.0
0
LINE
5
285b
8
0-0
6
CONTINUOUS
62
  7
10
1101.483
20
589.202
30
0.0
11
1101.665
21
588.863
31
0.0
0
LINE
5
285c
8
0-0
6
CONTINUOUS
62
  7
10
1101.665
20
588.863
30
0.0
11
1101.845
21
588.519
31
0.0
0
LINE
5
285d
8
0-0
6
CONTINUOUS
62
  7
10
1101.845
20
588.519
30
0.0
11
1102.023
21
588.170
31
0.0
0
LINE
5
285e
8
0-0
6
CONTINUOUS
62
  7
10
1102.023
20
588.170
30
0.0
11
1102.199
21
587.817
31
0.0
0
LINE
5
285f
8
0-0
6
CONTINUOUS
62
  7
10
1102.199
20
587.817
30
0.0
11
1102.372
21
587.458
31
0.0
0
LINE
5
2860
8
0-0
6
CONTINUOUS
62
  7
10
1102.372
20
587.458
30
0.0
11
1102.543
21
587.094
31
0.0
0
LINE
5
2861
8
0-0
6
CONTINUOUS
62
  7
10
1102.543
20
587.094
30
0.0
11
1102.712
21
586.722
31
0.0
0
LINE
5
2862
8
0-0
6
CONTINUOUS
62
  7
10
1102.712
20
586.722
30
0.0
11
1102.879
21
586.341
31
0.0
0
LINE
5
2863
8
0-0
6
CONTINUOUS
62
  7
10
1102.879
20
586.341
30
0.0
11
1103.046
21
585.946
31
0.0
0
LINE
5
2864
8
0-0
6
CONTINUOUS
62
  7
10
1103.046
20
585.946
30
0.0
11
1103.214
21
585.535
31
0.0
0
LINE
5
2865
8
0-0
6
CONTINUOUS
62
  7
10
1103.214
20
585.535
30
0.0
11
1103.383
21
585.103
31
0.0
0
LINE
5
2866
8
0-0
6
CONTINUOUS
62
  7
10
1103.383
20
585.103
30
0.0
11
1103.555
21
584.642
31
0.0
0
LINE
5
2867
8
0-0
6
CONTINUOUS
62
  7
10
1103.555
20
584.642
30
0.0
11
1103.732
21
584.147
31
0.0
0
LINE
5
2868
8
0-0
6
CONTINUOUS
62
  7
10
1103.732
20
584.147
30
0.0
11
1103.916
21
583.608
31
0.0
0
LINE
5
2869
8
0-0
6
CONTINUOUS
62
  7
10
1103.916
20
583.608
30
0.0
11
1104.110
21
583.016
31
0.0
0
LINE
5
286a
8
0-0
6
CONTINUOUS
62
  7
10
1104.110
20
583.016
30
0.0
11
1104.315
21
582.359
31
0.0
0
LINE
5
286b
8
0-0
6
CONTINUOUS
62
  7
10
1104.315
20
582.359
30
0.0
11
1104.536
21
581.625
31
0.0
0
LINE
5
286c
8
0-0
6
CONTINUOUS
62
  7
10
1104.536
20
581.625
30
0.0
11
1111.297
21
521.625
31
0.0
0
LINE
5
286d
8
0-0
6
CONTINUOUS
62
  7
10
956.914
20
907.422
30
0.0
11
956.914
21
972.422
31
0.0
0
LINE
5
286e
8
0-0
6
CONTINUOUS
62
  7
10
956.914
20
907.422
30
0.0
11
1236.914
21
907.422
31
0.0
0
LINE
5
286f
8
0-0
6
CONTINUOUS
62
  7
10
1236.914
20
907.422
30
0.0
11
1236.914
21
972.422
31
0.0
0
LINE
5
2870
8
0-0
6
CONTINUOUS
62
  7
10
956.914
20
972.422
30
0.0
11
1236.914
21
972.422
31
0.0
0
LINE
5
2871
8
0-0
6
CONTINUOUS
62
  7
10
1500.198
20
732.584
30
0.0
11
1565.198
21
732.584
31
0.0
0
LINE
5
2872
8
0-0
6
CONTINUOUS
62
  7
10
1565.198
20
732.584
30
0.0
11
1565.198
21
469.584
31
0.0
0
LINE
5
2873
8
0-0
6
CONTINUOUS
62
  7
10
1500.198
20
732.584
30
0.0
11
1500.198
21
469.584
31
0.0
0
LINE
5
2874
8
0-0
6
CONTINUOUS
62
  7
10
1500.198
20
469.584
30
0.0
11
1565.198
21
469.584
31
0.0
0
LINE
5
2875
8
ADD_LINE
6
HIDDEN
62
  3
10
1500.198
20
469.584
30
0.0
11
882.049
21
469.584
31
0.0
0
LINE
5
2876
8
ADD_LINE
6
HIDDEN
62
  3
10
1096.914
20
527.584
30
0.0
11
1096.914
21
453.571
31
0.0
0
LINE
5
2877
8
0-0
6
CONTINUOUS
62
  7
10
1024.047
20
635.650
30
0.0
11
1023.802
21
634.516
31
0.0
0
LINE
5
2878
8
0-0
6
CONTINUOUS
62
  7
10
1096.914
20
591.557
30
0.0
11
1096.825
21
591.539
31
0.0
0
LINE
5
2879
8
0-0
6
CONTINUOUS
62
  7
10
1096.825
20
591.539
30
0.0
11
1096.704
21
591.507
31
0.0
0
LINE
5
287a
8
0-0
6
CONTINUOUS
62
  7
10
1096.704
20
591.507
30
0.0
11
1096.606
21
591.473
31
0.0
0
LINE
5
287b
8
0-0
6
CONTINUOUS
62
  7
10
1096.606
20
591.473
30
0.0
11
1096.519
21
591.436
31
0.0
0
LINE
5
287c
8
0-0
6
CONTINUOUS
62
  7
10
1096.519
20
591.436
30
0.0
11
1096.436
21
591.393
31
0.0
0
LINE
5
287d
8
0-0
6
CONTINUOUS
62
  7
10
1096.436
20
591.393
30
0.0
11
1096.348
21
591.338
31
0.0
0
LINE
5
287e
8
0-0
6
CONTINUOUS
62
  7
10
1096.348
20
591.338
30
0.0
11
1096.250
21
591.268
31
0.0
0
LINE
5
287f
8
0-0
6
CONTINUOUS
62
  7
10
1096.250
20
591.268
30
0.0
11
1096.142
21
591.180
31
0.0
0
LINE
5
2880
8
0-0
6
CONTINUOUS
62
  7
10
1096.142
20
591.180
30
0.0
11
1096.022
21
591.070
31
0.0
0
LINE
5
2881
8
0-0
6
CONTINUOUS
62
  7
10
1096.022
20
591.070
30
0.0
11
1095.891
21
590.937
31
0.0
0
LINE
5
2882
8
0-0
6
CONTINUOUS
62
  7
10
1095.891
20
590.937
30
0.0
11
1095.753
21
590.784
31
0.0
0
LINE
5
2883
8
0-0
6
CONTINUOUS
62
  7
10
1095.753
20
590.784
30
0.0
11
1095.606
21
590.607
31
0.0
0
LINE
5
2884
8
0-0
6
CONTINUOUS
62
  7
10
1095.606
20
590.607
30
0.0
11
1095.450
21
590.408
31
0.0
0
LINE
5
2885
8
0-0
6
CONTINUOUS
62
  7
10
1095.450
20
590.408
30
0.0
11
1095.291
21
590.191
31
0.0
0
LINE
5
2886
8
0-0
6
CONTINUOUS
62
  7
10
1095.291
20
590.191
30
0.0
11
1095.128
21
589.956
31
0.0
0
LINE
5
2887
8
0-0
6
CONTINUOUS
62
  7
10
1095.128
20
589.956
30
0.0
11
1094.960
21
589.702
31
0.0
0
LINE
5
2888
8
0-0
6
CONTINUOUS
62
  7
10
1094.960
20
589.702
30
0.0
11
1094.789
21
589.433
31
0.0
0
LINE
5
2889
8
0-0
6
CONTINUOUS
62
  7
10
1094.789
20
589.433
30
0.0
11
1094.618
21
589.152
31
0.0
0
LINE
5
288a
8
0-0
6
CONTINUOUS
62
  7
10
1094.618
20
589.152
30
0.0
11
1094.445
21
588.859
31
0.0
0
LINE
5
288b
8
0-0
6
CONTINUOUS
62
  7
10
1094.445
20
588.859
30
0.0
11
1094.272
21
588.555
31
0.0
0
LINE
5
288c
8
0-0
6
CONTINUOUS
62
  7
10
1094.272
20
588.555
30
0.0
11
1094.099
21
588.242
31
0.0
0
LINE
5
288d
8
0-0
6
CONTINUOUS
62
  7
10
1094.099
20
588.242
30
0.0
11
1093.931
21
587.928
31
0.0
0
LINE
5
288e
8
0-0
6
CONTINUOUS
62
  7
10
1093.931
20
587.928
30
0.0
11
1093.757
21
587.597
31
0.0
0
LINE
5
288f
8
0-0
6
CONTINUOUS
62
  7
10
1093.757
20
587.597
30
0.0
11
1093.592
21
587.274
31
0.0
0
LINE
5
2890
8
0-0
6
CONTINUOUS
62
  7
10
1093.592
20
587.274
30
0.0
11
1093.426
21
586.939
31
0.0
0
LINE
5
2891
8
0-0
6
CONTINUOUS
62
  7
10
1093.426
20
586.939
30
0.0
11
1093.263
21
586.601
31
0.0
0
LINE
5
2892
8
0-0
6
CONTINUOUS
62
  7
10
1093.263
20
586.601
30
0.0
11
1093.101
21
586.256
31
0.0
0
LINE
5
2893
8
0-0
6
CONTINUOUS
62
  7
10
1093.101
20
586.256
30
0.0
11
1092.941
21
585.904
31
0.0
0
LINE
5
2894
8
0-0
6
CONTINUOUS
62
  7
10
1092.941
20
585.904
30
0.0
11
1092.784
21
585.548
31
0.0
0
LINE
5
2895
8
0-0
6
CONTINUOUS
62
  7
10
1092.784
20
585.548
30
0.0
11
1092.629
21
585.180
31
0.0
0
LINE
5
2896
8
0-0
6
CONTINUOUS
62
  7
10
1092.629
20
585.180
30
0.0
11
1092.473
21
584.797
31
0.0
0
LINE
5
2897
8
0-0
6
CONTINUOUS
62
  7
10
1092.473
20
584.797
30
0.0
11
1092.313
21
584.388
31
0.0
0
LINE
5
2898
8
0-0
6
CONTINUOUS
62
  7
10
1092.313
20
584.388
30
0.0
11
1092.150
21
583.953
31
0.0
0
LINE
5
2899
8
0-0
6
CONTINUOUS
62
  7
10
1092.150
20
583.953
30
0.0
11
1091.984
21
583.488
31
0.0
0
LINE
5
289a
8
0-0
6
CONTINUOUS
62
  7
10
1091.984
20
583.488
30
0.0
11
1091.808
21
582.972
31
0.0
0
LINE
5
289b
8
0-0
6
CONTINUOUS
62
  7
10
1091.808
20
582.972
30
0.0
11
1091.623
21
582.406
31
0.0
0
LINE
5
289c
8
0-0
6
CONTINUOUS
62
  7
10
1091.623
20
582.406
30
0.0
11
1091.425
21
581.774
31
0.0
0
LINE
5
289d
8
0-0
6
CONTINUOUS
62
  7
10
1091.425
20
581.774
30
0.0
11
1091.259
21
581.223
31
0.0
0
LINE
5
289e
8
0-0
6
CONTINUOUS
62
  7
10
1007.043
20
637.602
30
0.0
11
989.638
21
483.141
31
0.0
0
LINE
5
289f
8
0-0
6
CONTINUOUS
62
  7
10
1023.802
20
634.516
30
0.0
11
1007.583
21
490.575
31
0.0
0
LINE
5
28a0
8
0-0
6
CONTINUOUS
62
  7
10
1039.658
20
632.338
30
0.0
11
1024.473
21
497.573
31
0.0
0
LINE
5
28a1
8
0-0
6
CONTINUOUS
62
  7
10
1053.326
20
619.674
30
0.0
11
1040.307
21
504.132
31
0.0
0
LINE
5
28a2
8
0-0
6
CONTINUOUS
62
  7
10
1066.906
20
606.227
30
0.0
11
1056.141
21
510.692
31
0.0
0
LINE
5
28a3
8
0-0
6
CONTINUOUS
62
  7
10
1091.259
20
581.223
30
0.0
11
1084.642
21
522.500
31
0.0
0
LINE
5
28a4
8
ADD_LINE
6
HIDDEN
62
  3
10
1096.914
20
1089.854
30
0.0
11
1096.914
21
527.584
31
0.0
0
LINE
5
28a5
8
0-0
6
CONTINUOUS
62
  7
10
1096.914
20
697.572
30
0.0
11
1092.068
21
697.368
31
0.0
0
LINE
5
28a6
8
0-0
6
CONTINUOUS
62
  7
10
1092.068
20
697.368
30
0.0
11
1086.915
21
697.066
31
0.0
0
LINE
5
28a7
8
0-0
6
CONTINUOUS
62
  7
10
1086.915
20
697.066
30
0.0
11
1081.912
21
696.694
31
0.0
0
LINE
5
28a8
8
0-0
6
CONTINUOUS
62
  7
10
1081.912
20
696.694
30
0.0
11
1077.068
21
696.258
31
0.0
0
LINE
5
28a9
8
0-0
6
CONTINUOUS
62
  7
10
1077.068
20
696.258
30
0.0
11
1072.387
21
695.763
31
0.0
0
LINE
5
28aa
8
0-0
6
CONTINUOUS
62
  7
10
1072.387
20
695.763
30
0.0
11
1067.901
21
695.218
31
0.0
0
LINE
5
28ab
8
0-0
6
CONTINUOUS
62
  7
10
1067.901
20
695.218
30
0.0
11
1063.603
21
694.625
31
0.0
0
LINE
5
28ac
8
0-0
6
CONTINUOUS
62
  7
10
1063.603
20
694.625
30
0.0
11
1059.508
21
693.992
31
0.0
0
LINE
5
28ad
8
0-0
6
CONTINUOUS
62
  7
10
1059.508
20
693.992
30
0.0
11
1055.633
21
693.324
31
0.0
0
LINE
5
28ae
8
0-0
6
CONTINUOUS
62
  7
10
1055.633
20
693.324
30
0.0
11
1051.968
21
692.623
31
0.0
0
LINE
5
28af
8
0-0
6
CONTINUOUS
62
  7
10
1051.968
20
692.623
30
0.0
11
1048.532
21
691.894
31
0.0
0
LINE
5
28b0
8
0-0
6
CONTINUOUS
62
  7
10
1048.532
20
691.894
30
0.0
11
1045.324
21
691.141
31
0.0
0
LINE
5
28b1
8
0-0
6
CONTINUOUS
62
  7
10
1045.324
20
691.141
30
0.0
11
1042.349
21
690.367
31
0.0
0
LINE
5
28b2
8
0-0
6
CONTINUOUS
62
  7
10
1042.349
20
690.367
30
0.0
11
1039.601
21
689.574
31
0.0
0
LINE
5
28b3
8
0-0
6
CONTINUOUS
62
  7
10
1039.601
20
689.574
30
0.0
11
1037.084
21
688.766
31
0.0
0
LINE
5
28b4
8
0-0
6
CONTINUOUS
62
  7
10
1037.084
20
688.766
30
0.0
11
1034.794
21
687.945
31
0.0
0
LINE
5
28b5
8
0-0
6
CONTINUOUS
62
  7
10
1034.794
20
687.945
30
0.0
11
1032.725
21
687.114
31
0.0
0
LINE
5
28b6
8
0-0
6
CONTINUOUS
62
  7
10
1032.725
20
687.114
30
0.0
11
1030.863
21
686.274
31
0.0
0
LINE
5
28b7
8
0-0
6
CONTINUOUS
62
  7
10
1030.863
20
686.274
30
0.0
11
1029.195
21
685.427
31
0.0
0
LINE
5
28b8
8
0-0
6
CONTINUOUS
62
  7
10
1029.195
20
685.427
30
0.0
11
1027.704
21
684.570
31
0.0
0
LINE
5
28b9
8
0-0
6
CONTINUOUS
62
  7
10
1027.704
20
684.570
30
0.0
11
1026.364
21
683.698
31
0.0
0
LINE
5
28ba
8
0-0
6
CONTINUOUS
62
  7
10
1026.364
20
683.698
30
0.0
11
1025.148
21
682.799
31
0.0
0
LINE
5
28bb
8
0-0
6
CONTINUOUS
62
  7
10
1025.148
20
682.799
30
0.0
11
1024.026
21
681.857
31
0.0
0
LINE
5
28bc
8
0-0
6
CONTINUOUS
62
  7
10
1024.026
20
681.857
30
0.0
11
1022.967
21
680.848
31
0.0
0
LINE
5
28bd
8
0-0
6
CONTINUOUS
62
  7
10
1022.967
20
680.848
30
0.0
11
1021.944
21
679.741
31
0.0
0
LINE
5
28be
8
0-0
6
CONTINUOUS
62
  7
10
1021.944
20
679.741
30
0.0
11
1020.938
21
678.508
31
0.0
0
LINE
5
28bf
8
0-0
6
CONTINUOUS
62
  7
10
1020.938
20
678.508
30
0.0
11
1019.929
21
677.110
31
0.0
0
LINE
5
28c0
8
0-0
6
CONTINUOUS
62
  7
10
1019.929
20
677.110
30
0.0
11
1018.911
21
675.520
31
0.0
0
LINE
5
28c1
8
0-0
6
CONTINUOUS
62
  7
10
1018.911
20
675.520
30
0.0
11
1017.877
21
673.705
31
0.0
0
LINE
5
28c2
8
0-0
6
CONTINUOUS
62
  7
10
1017.877
20
673.705
30
0.0
11
1016.827
21
671.638
31
0.0
0
LINE
5
28c3
8
0-0
6
CONTINUOUS
62
  7
10
1016.827
20
671.638
30
0.0
11
1015.760
21
669.292
31
0.0
0
LINE
5
28c4
8
0-0
6
CONTINUOUS
62
  7
10
1015.760
20
669.292
30
0.0
11
1014.681
21
666.646
31
0.0
0
LINE
5
28c5
8
0-0
6
CONTINUOUS
62
  7
10
1014.681
20
666.646
30
0.0
11
1013.588
21
663.662
31
0.0
0
LINE
5
28c6
8
0-0
6
CONTINUOUS
62
  7
10
1013.588
20
663.662
30
0.0
11
1012.489
21
660.330
31
0.0
0
LINE
5
28c7
8
0-0
6
CONTINUOUS
62
  7
10
1012.489
20
660.330
30
0.0
11
1011.384
21
656.608
31
0.0
0
LINE
5
28c8
8
0-0
6
CONTINUOUS
62
  7
10
1011.384
20
656.608
30
0.0
11
1010.276
21
652.472
31
0.0
0
LINE
5
28c9
8
0-0
6
CONTINUOUS
62
  7
10
1010.276
20
652.472
30
0.0
11
1009.169
21
647.883
31
0.0
0
LINE
5
28ca
8
0-0
6
CONTINUOUS
62
  7
10
1009.169
20
647.883
30
0.0
11
1008.063
21
642.804
31
0.0
0
LINE
5
28cb
8
0-0
6
CONTINUOUS
62
  7
10
1008.063
20
642.804
30
0.0
11
1007.043
21
637.602
31
0.0
0
LINE
5
28cc
8
0-0
6
CONTINUOUS
62
  7
10
1066.906
20
606.227
30
0.0
11
1067.227
21
607.567
31
0.0
0
LINE
5
28cd
8
0-0
6
CONTINUOUS
62
  7
10
1067.227
20
607.567
30
0.0
11
1067.596
21
609.020
31
0.0
0
LINE
5
28ce
8
0-0
6
CONTINUOUS
62
  7
10
1067.596
20
609.020
30
0.0
11
1067.964
21
610.364
31
0.0
0
LINE
5
28cf
8
0-0
6
CONTINUOUS
62
  7
10
1067.964
20
610.364
30
0.0
11
1068.333
21
611.604
31
0.0
0
LINE
5
28d0
8
0-0
6
CONTINUOUS
62
  7
10
1068.333
20
611.604
30
0.0
11
1068.708
21
612.750
31
0.0
0
LINE
5
28d1
8
0-0
6
CONTINUOUS
62
  7
10
1068.708
20
612.750
30
0.0
11
1069.087
21
613.802
31
0.0
0
LINE
5
28d2
8
0-0
6
CONTINUOUS
62
  7
10
1069.087
20
613.802
30
0.0
11
1069.473
21
614.766
31
0.0
0
LINE
5
28d3
8
0-0
6
CONTINUOUS
62
  7
10
1069.473
20
614.766
30
0.0
11
1069.867
21
615.649
31
0.0
0
LINE
5
28d4
8
0-0
6
CONTINUOUS
62
  7
10
1069.867
20
615.649
30
0.0
11
1070.270
21
616.458
31
0.0
0
LINE
5
28d5
8
0-0
6
CONTINUOUS
62
  7
10
1070.270
20
616.458
30
0.0
11
1070.682
21
617.196
31
0.0
0
LINE
5
28d6
8
0-0
6
CONTINUOUS
62
  7
10
1070.682
20
617.196
30
0.0
11
1071.106
21
617.873
31
0.0
0
LINE
5
28d7
8
0-0
6
CONTINUOUS
62
  7
10
1071.106
20
617.873
30
0.0
11
1071.545
21
618.497
31
0.0
0
LINE
5
28d8
8
0-0
6
CONTINUOUS
62
  7
10
1071.545
20
618.497
30
0.0
11
1072.001
21
619.074
31
0.0
0
LINE
5
28d9
8
0-0
6
CONTINUOUS
62
  7
10
1072.001
20
619.074
30
0.0
11
1072.478
21
619.611
31
0.0
0
LINE
5
28da
8
0-0
6
CONTINUOUS
62
  7
10
1072.478
20
619.611
30
0.0
11
1072.983
21
620.116
31
0.0
0
LINE
5
28db
8
0-0
6
CONTINUOUS
62
  7
10
1072.983
20
620.116
30
0.0
11
1073.519
21
620.594
31
0.0
0
LINE
5
28dc
8
0-0
6
CONTINUOUS
62
  7
10
1073.519
20
620.594
30
0.0
11
1074.093
21
621.050
31
0.0
0
LINE
5
28dd
8
0-0
6
CONTINUOUS
62
  7
10
1074.093
20
621.050
30
0.0
11
1074.711
21
621.488
31
0.0
0
LINE
5
28de
8
0-0
6
CONTINUOUS
62
  7
10
1074.711
20
621.488
30
0.0
11
1075.376
21
621.909
31
0.0
0
LINE
5
28df
8
0-0
6
CONTINUOUS
62
  7
10
1075.376
20
621.909
30
0.0
11
1076.095
21
622.316
31
0.0
0
LINE
5
28e0
8
0-0
6
CONTINUOUS
62
  7
10
1076.095
20
622.316
30
0.0
11
1076.866
21
622.708
31
0.0
0
LINE
5
28e1
8
0-0
6
CONTINUOUS
62
  7
10
1076.866
20
622.708
30
0.0
11
1077.696
21
623.086
31
0.0
0
LINE
5
28e2
8
0-0
6
CONTINUOUS
62
  7
10
1077.696
20
623.086
30
0.0
11
1078.581
21
623.450
31
0.0
0
LINE
5
28e3
8
0-0
6
CONTINUOUS
62
  7
10
1078.581
20
623.450
30
0.0
11
1079.527
21
623.799
31
0.0
0
LINE
5
28e4
8
0-0
6
CONTINUOUS
62
  7
10
1079.527
20
623.799
30
0.0
11
1080.527
21
624.133
31
0.0
0
LINE
5
28e5
8
0-0
6
CONTINUOUS
62
  7
10
1080.527
20
624.133
30
0.0
11
1081.583
21
624.452
31
0.0
0
LINE
5
28e6
8
0-0
6
CONTINUOUS
62
  7
10
1081.583
20
624.452
30
0.0
11
1082.695
21
624.756
31
0.0
0
LINE
5
28e7
8
0-0
6
CONTINUOUS
62
  7
10
1082.695
20
624.756
30
0.0
11
1083.853
21
625.043
31
0.0
0
LINE
5
28e8
8
0-0
6
CONTINUOUS
62
  7
10
1083.853
20
625.043
30
0.0
11
1085.058
21
625.315
31
0.0
0
LINE
5
28e9
8
0-0
6
CONTINUOUS
62
  7
10
1085.058
20
625.315
30
0.0
11
1086.301
21
625.570
31
0.0
0
LINE
5
28ea
8
0-0
6
CONTINUOUS
62
  7
10
1086.301
20
625.570
30
0.0
11
1087.584
21
625.810
31
0.0
0
LINE
5
28eb
8
0-0
6
CONTINUOUS
62
  7
10
1087.584
20
625.810
30
0.0
11
1088.889
21
626.032
31
0.0
0
LINE
5
28ec
8
0-0
6
CONTINUOUS
62
  7
10
1088.889
20
626.032
30
0.0
11
1090.210
21
626.237
31
0.0
0
LINE
5
28ed
8
0-0
6
CONTINUOUS
62
  7
10
1090.210
20
626.237
30
0.0
11
1091.535
21
626.423
31
0.0
0
LINE
5
28ee
8
0-0
6
CONTINUOUS
62
  7
10
1091.535
20
626.423
30
0.0
11
1092.851
21
626.589
31
0.0
0
LINE
5
28ef
8
0-0
6
CONTINUOUS
62
  7
10
1092.851
20
626.589
30
0.0
11
1094.142
21
626.735
31
0.0
0
LINE
5
28f0
8
0-0
6
CONTINUOUS
62
  7
10
1094.142
20
626.735
30
0.0
11
1095.371
21
626.855
31
0.0
0
LINE
5
28f1
8
0-0
6
CONTINUOUS
62
  7
10
1095.371
20
626.855
30
0.0
11
1096.521
21
626.948
31
0.0
0
LINE
5
28f2
8
0-0
6
CONTINUOUS
62
  7
10
1096.521
20
626.948
30
0.0
11
1096.914
21
626.972
31
0.0
0
LINE
5
28f3
8
0-0
6
CONTINUOUS
62
  7
10
1096.914
20
665.577
30
0.0
11
1094.642
21
665.442
31
0.0
0
LINE
5
28f4
8
0-0
6
CONTINUOUS
62
  7
10
1094.642
20
665.442
30
0.0
11
1092.093
21
665.283
31
0.0
0
LINE
5
28f5
8
0-0
6
CONTINUOUS
62
  7
10
1092.093
20
665.283
30
0.0
11
1089.503
21
665.108
31
0.0
0
LINE
5
28f6
8
0-0
6
CONTINUOUS
62
  7
10
1089.503
20
665.108
30
0.0
11
1086.901
21
664.915
31
0.0
0
LINE
5
28f7
8
0-0
6
CONTINUOUS
62
  7
10
1086.901
20
664.915
30
0.0
11
1084.304
21
664.701
31
0.0
0
LINE
5
28f8
8
0-0
6
CONTINUOUS
62
  7
10
1084.304
20
664.701
30
0.0
11
1081.730
21
664.466
31
0.0
0
LINE
5
28f9
8
0-0
6
CONTINUOUS
62
  7
10
1081.730
20
664.466
30
0.0
11
1079.187
21
664.206
31
0.0
0
LINE
5
28fa
8
0-0
6
CONTINUOUS
62
  7
10
1079.187
20
664.206
30
0.0
11
1076.701
21
663.922
31
0.0
0
LINE
5
28fb
8
0-0
6
CONTINUOUS
62
  7
10
1076.701
20
663.922
30
0.0
11
1074.272
21
663.610
31
0.0
0
LINE
5
28fc
8
0-0
6
CONTINUOUS
62
  7
10
1074.272
20
663.610
30
0.0
11
1071.923
21
663.269
31
0.0
0
LINE
5
28fd
8
0-0
6
CONTINUOUS
62
  7
10
1071.923
20
663.269
30
0.0
11
1069.658
21
662.896
31
0.0
0
LINE
5
28fe
8
0-0
6
CONTINUOUS
62
  7
10
1069.658
20
662.896
30
0.0
11
1067.490
21
662.490
31
0.0
0
LINE
5
28ff
8
0-0
6
CONTINUOUS
62
  7
10
1067.490
20
662.490
30
0.0
11
1065.423
21
662.046
31
0.0
0
LINE
5
2900
8
0-0
6
CONTINUOUS
62
  7
10
1065.423
20
662.046
30
0.0
11
1063.469
21
661.563
31
0.0
0
LINE
5
2901
8
0-0
6
CONTINUOUS
62
  7
10
1063.469
20
661.563
30
0.0
11
1061.626
21
661.037
31
0.0
0
LINE
5
2902
8
0-0
6
CONTINUOUS
62
  7
10
1061.626
20
661.037
30
0.0
11
1059.902
21
660.467
31
0.0
0
LINE
5
2903
8
0-0
6
CONTINUOUS
62
  7
10
1059.902
20
660.467
30
0.0
11
1058.294
21
659.847
31
0.0
0
LINE
5
2904
8
0-0
6
CONTINUOUS
62
  7
10
1058.294
20
659.847
30
0.0
11
1056.797
21
659.173
31
0.0
0
LINE
5
2905
8
0-0
6
CONTINUOUS
62
  7
10
1056.797
20
659.173
30
0.0
11
1055.405
21
658.441
31
0.0
0
LINE
5
2906
8
0-0
6
CONTINUOUS
62
  7
10
1055.405
20
658.441
30
0.0
11
1054.106
21
657.643
31
0.0
0
LINE
5
2907
8
0-0
6
CONTINUOUS
62
  7
10
1054.106
20
657.643
30
0.0
11
1052.888
21
656.768
31
0.0
0
LINE
5
2908
8
0-0
6
CONTINUOUS
62
  7
10
1052.888
20
656.768
30
0.0
11
1051.732
21
655.803
31
0.0
0
LINE
5
2909
8
0-0
6
CONTINUOUS
62
  7
10
1051.732
20
655.803
30
0.0
11
1050.626
21
654.731
31
0.0
0
LINE
5
290a
8
0-0
6
CONTINUOUS
62
  7
10
1050.626
20
654.731
30
0.0
11
1049.555
21
653.534
31
0.0
0
LINE
5
290b
8
0-0
6
CONTINUOUS
62
  7
10
1049.555
20
653.534
30
0.0
11
1048.510
21
652.194
31
0.0
0
LINE
5
290c
8
0-0
6
CONTINUOUS
62
  7
10
1048.510
20
652.194
30
0.0
11
1047.480
21
650.694
31
0.0
0
LINE
5
290d
8
0-0
6
CONTINUOUS
62
  7
10
1047.480
20
650.694
30
0.0
11
1046.465
21
649.024
31
0.0
0
LINE
5
290e
8
0-0
6
CONTINUOUS
62
  7
10
1046.465
20
649.024
30
0.0
11
1045.458
21
647.169
31
0.0
0
LINE
5
290f
8
0-0
6
CONTINUOUS
62
  7
10
1045.458
20
647.169
30
0.0
11
1044.457
21
645.126
31
0.0
0
LINE
5
2910
8
0-0
6
CONTINUOUS
62
  7
10
1044.457
20
645.126
30
0.0
11
1043.462
21
642.890
31
0.0
0
LINE
5
2911
8
0-0
6
CONTINUOUS
62
  7
10
1043.462
20
642.890
30
0.0
11
1042.471
21
640.457
31
0.0
0
LINE
5
2912
8
0-0
6
CONTINUOUS
62
  7
10
1042.471
20
640.457
30
0.0
11
1041.487
21
637.831
31
0.0
0
LINE
5
2913
8
0-0
6
CONTINUOUS
62
  7
10
1041.487
20
637.831
30
0.0
11
1040.512
21
635.010
31
0.0
0
LINE
5
2914
8
0-0
6
CONTINUOUS
62
  7
10
1040.512
20
635.010
30
0.0
11
1039.658
21
632.338
31
0.0
0
LINE
5
2915
8
0-0
6
CONTINUOUS
62
  7
10
1024.047
20
635.650
30
0.0
11
1024.198
21
636.309
31
0.0
0
LINE
5
2916
8
0-0
6
CONTINUOUS
62
  7
10
1024.198
20
636.309
30
0.0
11
1024.806
21
638.787
31
0.0
0
LINE
5
2917
8
0-0
6
CONTINUOUS
62
  7
10
1024.806
20
638.787
30
0.0
11
1025.428
21
641.160
31
0.0
0
LINE
5
2918
8
0-0
6
CONTINUOUS
62
  7
10
1025.428
20
641.160
30
0.0
11
1026.065
21
643.424
31
0.0
0
LINE
5
2919
8
0-0
6
CONTINUOUS
62
  7
10
1026.065
20
643.424
30
0.0
11
1026.718
21
645.584
31
0.0
0
LINE
5
291a
8
0-0
6
CONTINUOUS
62
  7
10
1026.718
20
645.584
30
0.0
11
1027.388
21
647.638
31
0.0
0
LINE
5
291b
8
0-0
6
CONTINUOUS
62
  7
10
1027.388
20
647.638
30
0.0
11
1028.080
21
649.592
31
0.0
0
LINE
5
291c
8
0-0
6
CONTINUOUS
62
  7
10
1028.080
20
649.592
30
0.0
11
1028.795
21
651.447
31
0.0
0
LINE
5
291d
8
0-0
6
CONTINUOUS
62
  7
10
1028.795
20
651.447
30
0.0
11
1029.540
21
653.207
31
0.0
0
LINE
5
291e
8
0-0
6
CONTINUOUS
62
  7
10
1029.540
20
653.207
30
0.0
11
1030.317
21
654.871
31
0.0
0
LINE
5
291f
8
0-0
6
CONTINUOUS
62
  7
10
1030.317
20
654.871
30
0.0
11
1031.133
21
656.446
31
0.0
0
LINE
5
2920
8
0-0
6
CONTINUOUS
62
  7
10
1031.133
20
656.446
30
0.0
11
1031.994
21
657.937
31
0.0
0
LINE
5
2921
8
0-0
6
CONTINUOUS
62
  7
10
1031.994
20
657.937
30
0.0
11
1032.907
21
659.349
31
0.0
0
LINE
5
2922
8
0-0
6
CONTINUOUS
62
  7
10
1032.907
20
659.349
30
0.0
11
1033.880
21
660.690
31
0.0
0
LINE
5
2923
8
0-0
6
CONTINUOUS
62
  7
10
1033.880
20
660.690
30
0.0
11
1034.924
21
661.967
31
0.0
0
LINE
5
2924
8
0-0
6
CONTINUOUS
62
  7
10
1034.924
20
661.967
30
0.0
11
1036.049
21
663.189
31
0.0
0
LINE
5
2925
8
0-0
6
CONTINUOUS
62
  7
10
1036.049
20
663.189
30
0.0
11
1037.267
21
664.361
31
0.0
0
LINE
5
2926
8
0-0
6
CONTINUOUS
62
  7
10
1037.267
20
664.361
30
0.0
11
1038.590
21
665.491
31
0.0
0
LINE
5
2927
8
0-0
6
CONTINUOUS
62
  7
10
1038.590
20
665.491
30
0.0
11
1040.028
21
666.581
31
0.0
0
LINE
5
2928
8
0-0
6
CONTINUOUS
62
  7
10
1040.028
20
666.581
30
0.0
11
1041.593
21
667.635
31
0.0
0
LINE
5
2929
8
0-0
6
CONTINUOUS
62
  7
10
1041.593
20
667.635
30
0.0
11
1043.293
21
668.655
31
0.0
0
LINE
5
292a
8
0-0
6
CONTINUOUS
62
  7
10
1043.293
20
668.655
30
0.0
11
1045.138
21
669.640
31
0.0
0
LINE
5
292b
8
0-0
6
CONTINUOUS
62
  7
10
1045.138
20
669.640
30
0.0
11
1047.128
21
670.589
31
0.0
0
LINE
5
292c
8
0-0
6
CONTINUOUS
62
  7
10
1047.128
20
670.589
30
0.0
11
1049.268
21
671.501
31
0.0
0
LINE
5
292d
8
0-0
6
CONTINUOUS
62
  7
10
1049.268
20
671.501
30
0.0
11
1051.563
21
672.375
31
0.0
0
LINE
5
292e
8
0-0
6
CONTINUOUS
62
  7
10
1051.563
20
672.375
30
0.0
11
1054.007
21
673.208
31
0.0
0
LINE
5
292f
8
0-0
6
CONTINUOUS
62
  7
10
1054.007
20
673.208
30
0.0
11
1056.597
21
673.999
31
0.0
0
LINE
5
2930
8
0-0
6
CONTINUOUS
62
  7
10
1056.597
20
673.999
30
0.0
11
1059.334
21
674.745
31
0.0
0
LINE
5
2931
8
0-0
6
CONTINUOUS
62
  7
10
1059.334
20
674.745
30
0.0
11
1062.211
21
675.444
31
0.0
0
LINE
5
2932
8
0-0
6
CONTINUOUS
62
  7
10
1062.211
20
675.444
30
0.0
11
1065.220
21
676.095
31
0.0
0
LINE
5
2933
8
0-0
6
CONTINUOUS
62
  7
10
1065.220
20
676.095
30
0.0
11
1068.353
21
676.696
31
0.0
0
LINE
5
2934
8
0-0
6
CONTINUOUS
62
  7
10
1068.353
20
676.696
30
0.0
11
1071.605
21
677.244
31
0.0
0
LINE
5
2935
8
0-0
6
CONTINUOUS
62
  7
10
1071.605
20
677.244
30
0.0
11
1074.970
21
677.739
31
0.0
0
LINE
5
2936
8
0-0
6
CONTINUOUS
62
  7
10
1074.970
20
677.739
30
0.0
11
1078.434
21
678.180
31
0.0
0
LINE
5
2937
8
0-0
6
CONTINUOUS
62
  7
10
1078.434
20
678.180
30
0.0
11
1081.997
21
678.567
31
0.0
0
LINE
5
2938
8
0-0
6
CONTINUOUS
62
  7
10
1081.997
20
678.567
30
0.0
11
1085.644
21
678.899
31
0.0
0
LINE
5
2939
8
0-0
6
CONTINUOUS
62
  7
10
1085.644
20
678.899
30
0.0
11
1089.377
21
679.178
31
0.0
0
LINE
5
293a
8
0-0
6
CONTINUOUS
62
  7
10
1089.377
20
679.178
30
0.0
11
1093.182
21
679.406
31
0.0
0
LINE
5
293b
8
0-0
6
CONTINUOUS
62
  7
10
1093.182
20
679.406
30
0.0
11
1096.914
21
679.580
31
0.0
0
LINE
5
293c
8
0-0
6
CONTINUOUS
62
  7
10
1236.914
20
469.584
30
0.0
11
1096.914
21
527.584
31
0.0
0
LINE
5
293d
8
0-0
6
CONTINUOUS
62
  7
10
1214.039
20
672.584
30
0.0
11
1236.914
21
469.584
31
0.0
0
LINE
5
293e
8
0-0
6
CONTINUOUS
62
  7
10
1214.039
20
672.584
30
0.0
11
1213.152
21
675.457
31
0.0
0
LINE
5
293f
8
0-0
6
CONTINUOUS
62
  7
10
1213.152
20
675.457
30
0.0
11
1211.561
21
680.383
31
0.0
0
LINE
5
2940
8
0-0
6
CONTINUOUS
62
  7
10
1211.561
20
680.383
30
0.0
11
1209.801
21
685.226
31
0.0
0
LINE
5
2941
8
0-0
6
CONTINUOUS
62
  7
10
1209.801
20
685.226
30
0.0
11
1207.764
21
689.935
31
0.0
0
LINE
5
2942
8
0-0
6
CONTINUOUS
62
  7
10
1207.764
20
689.935
30
0.0
11
1206.414
21
692.584
31
0.0
0
LINE
5
2943
8
0-0
6
CONTINUOUS
62
  7
10
1206.414
20
692.584
30
0.0
11
1206.021
21
693.293
31
0.0
0
LINE
5
2944
8
0-0
6
CONTINUOUS
62
  7
10
1206.021
20
693.293
30
0.0
11
1205.322
21
694.504
31
0.0
0
LINE
5
2945
8
0-0
6
CONTINUOUS
62
  7
10
1205.322
20
694.504
30
0.0
11
1204.600
21
695.704
31
0.0
0
LINE
5
2946
8
0-0
6
CONTINUOUS
62
  7
10
1204.600
20
695.704
30
0.0
11
1203.859
21
696.895
31
0.0
0
LINE
5
2947
8
0-0
6
CONTINUOUS
62
  7
10
1203.859
20
696.895
30
0.0
11
1203.424
21
697.584
31
0.0
0
LINE
5
2948
8
0-0
6
CONTINUOUS
62
  7
10
1203.424
20
697.584
30
0.0
11
1202.964
21
698.304
31
0.0
0
LINE
5
2949
8
0-0
6
CONTINUOUS
62
  7
10
1202.964
20
698.304
30
0.0
11
1202.157
21
699.535
31
0.0
0
LINE
5
294a
8
0-0
6
CONTINUOUS
62
  7
10
1202.157
20
699.535
30
0.0
11
1201.322
21
700.745
31
0.0
0
LINE
5
294b
8
0-0
6
CONTINUOUS
62
  7
10
1201.322
20
700.745
30
0.0
11
1200.445
21
701.921
31
0.0
0
LINE
5
294c
8
0-0
6
CONTINUOUS
62
  7
10
1200.445
20
701.921
30
0.0
11
1199.914
21
702.584
31
0.0
0
LINE
5
294d
8
0-0
6
CONTINUOUS
62
  7
10
1199.914
20
702.584
30
0.0
11
1199.274
21
703.330
31
0.0
0
LINE
5
294e
8
0-0
6
CONTINUOUS
62
  7
10
1199.274
20
703.330
30
0.0
11
1198.117
21
704.570
31
0.0
0
LINE
5
294f
8
0-0
6
CONTINUOUS
62
  7
10
1198.117
20
704.570
30
0.0
11
1196.905
21
705.763
31
0.0
0
LINE
5
2950
8
0-0
6
CONTINUOUS
62
  7
10
1196.905
20
705.763
30
0.0
11
1195.652
21
706.922
31
0.0
0
LINE
5
2951
8
0-0
6
CONTINUOUS
62
  7
10
1195.652
20
706.922
30
0.0
11
1194.914
21
707.584
31
0.0
0
LINE
5
2952
8
0-0
6
CONTINUOUS
62
  7
10
1194.914
20
707.584
30
0.0
11
1193.093
21
709.173
31
0.0
0
LINE
5
2953
8
0-0
6
CONTINUOUS
62
  7
10
1193.093
20
709.173
30
0.0
11
1189.869
21
711.814
31
0.0
0
LINE
5
2954
8
0-0
6
CONTINUOUS
62
  7
10
1189.869
20
711.814
30
0.0
11
1186.518
21
714.266
31
0.0
0
LINE
5
2955
8
0-0
6
CONTINUOUS
62
  7
10
1186.518
20
714.266
30
0.0
11
1183.020
21
716.459
31
0.0
0
LINE
5
2956
8
0-0
6
CONTINUOUS
62
  7
10
1183.020
20
716.459
30
0.0
11
1180.914
21
717.584
31
0.0
0
LINE
5
2957
8
0-0
6
CONTINUOUS
62
  7
10
1180.914
20
717.584
30
0.0
11
1179.037
21
718.463
31
0.0
0
LINE
5
2958
8
0-0
6
CONTINUOUS
62
  7
10
1179.037
20
718.463
30
0.0
11
1175.712
21
719.795
31
0.0
0
LINE
5
2959
8
0-0
6
CONTINUOUS
62
  7
10
1175.712
20
719.795
30
0.0
11
1172.304
21
720.952
31
0.0
0
LINE
5
295a
8
0-0
6
CONTINUOUS
62
  7
10
1172.304
20
720.952
30
0.0
11
1168.848
21
722.000
31
0.0
0
LINE
5
295b
8
0-0
6
CONTINUOUS
62
  7
10
1168.848
20
722.000
30
0.0
11
1166.836
21
722.584
31
0.0
0
LINE
5
295c
8
0-0
6
CONTINUOUS
62
  7
10
1166.836
20
722.584
30
0.0
11
1164.201
21
723.343
31
0.0
0
LINE
5
295d
8
0-0
6
CONTINUOUS
62
  7
10
1164.201
20
723.343
30
0.0
11
1159.662
21
724.628
31
0.0
0
LINE
5
295e
8
0-0
6
CONTINUOUS
62
  7
10
1159.662
20
724.628
30
0.0
11
1155.120
21
725.853
31
0.0
0
LINE
5
295f
8
0-0
6
CONTINUOUS
62
  7
10
1155.120
20
725.853
30
0.0
11
1150.565
21
726.984
31
0.0
0
LINE
5
2960
8
0-0
6
CONTINUOUS
62
  7
10
1150.565
20
726.984
30
0.0
11
1147.914
21
727.584
31
0.0
0
LINE
5
2961
8
0-0
6
CONTINUOUS
62
  7
10
1147.914
20
727.584
30
0.0
11
1140.928
21
728.931
31
0.0
0
LINE
5
2962
8
0-0
6
CONTINUOUS
62
  7
10
1140.928
20
728.931
30
0.0
11
1128.757
21
730.594
31
0.0
0
LINE
5
2963
8
0-0
6
CONTINUOUS
62
  7
10
1128.757
20
730.594
30
0.0
11
1116.466
21
731.631
31
0.0
0
LINE
5
2964
8
0-0
6
CONTINUOUS
62
  7
10
1116.466
20
731.631
30
0.0
11
1104.101
21
732.285
31
0.0
0
LINE
5
2965
8
0-0
6
CONTINUOUS
62
  7
10
1104.101
20
732.285
30
0.0
11
1096.914
21
732.584
31
0.0
0
LINE
5
2966
8
0-0
6
CONTINUOUS
62
  7
10
1096.914
20
669.584
30
0.0
11
1099.428
21
669.435
31
0.0
0
LINE
5
2967
8
0-0
6
CONTINUOUS
62
  7
10
1099.428
20
669.435
30
0.0
11
1102.000
21
669.274
31
0.0
0
LINE
5
2968
8
0-0
6
CONTINUOUS
62
  7
10
1102.000
20
669.274
30
0.0
11
1104.609
21
669.098
31
0.0
0
LINE
5
2969
8
0-0
6
CONTINUOUS
62
  7
10
1104.609
20
669.098
30
0.0
11
1107.238
21
668.903
31
0.0
0
LINE
5
296a
8
0-0
6
CONTINUOUS
62
  7
10
1107.238
20
668.903
30
0.0
11
1109.868
21
668.686
31
0.0
0
LINE
5
296b
8
0-0
6
CONTINUOUS
62
  7
10
1109.868
20
668.686
30
0.0
11
1112.483
21
668.448
31
0.0
0
LINE
5
296c
8
0-0
6
CONTINUOUS
62
  7
10
1112.483
20
668.448
30
0.0
11
1115.069
21
668.184
31
0.0
0
LINE
5
296d
8
0-0
6
CONTINUOUS
62
  7
10
1115.069
20
668.184
30
0.0
11
1117.610
21
667.893
31
0.0
0
LINE
5
296e
8
0-0
6
CONTINUOUS
62
  7
10
1117.610
20
667.893
30
0.0
11
1120.097
21
667.573
31
0.0
0
LINE
5
296f
8
0-0
6
CONTINUOUS
62
  7
10
1120.097
20
667.573
30
0.0
11
1122.517
21
667.222
31
0.0
0
LINE
5
2970
8
0-0
6
CONTINUOUS
62
  7
10
1122.517
20
667.222
30
0.0
11
1124.863
21
666.836
31
0.0
0
LINE
5
2971
8
0-0
6
CONTINUOUS
62
  7
10
1124.863
20
666.836
30
0.0
11
1127.127
21
666.411
31
0.0
0
LINE
5
2972
8
0-0
6
CONTINUOUS
62
  7
10
1127.127
20
666.411
30
0.0
11
1129.304
21
665.944
31
0.0
0
LINE
5
2973
8
0-0
6
CONTINUOUS
62
  7
10
1129.304
20
665.944
30
0.0
11
1131.388
21
665.429
31
0.0
0
LINE
5
2974
8
0-0
6
CONTINUOUS
62
  7
10
1131.388
20
665.429
30
0.0
11
1133.379
21
664.861
31
0.0
0
LINE
5
2975
8
0-0
6
CONTINUOUS
62
  7
10
1133.379
20
664.861
30
0.0
11
1135.274
21
664.234
31
0.0
0
LINE
5
2976
8
0-0
6
CONTINUOUS
62
  7
10
1135.274
20
664.234
30
0.0
11
1137.075
21
663.539
31
0.0
0
LINE
5
2977
8
0-0
6
CONTINUOUS
62
  7
10
1137.075
20
663.539
30
0.0
11
1138.784
21
662.771
31
0.0
0
LINE
5
2978
8
0-0
6
CONTINUOUS
62
  7
10
1138.784
20
662.771
30
0.0
11
1140.403
21
661.919
31
0.0
0
LINE
5
2979
8
0-0
6
CONTINUOUS
62
  7
10
1140.403
20
661.919
30
0.0
11
1141.938
21
660.976
31
0.0
0
LINE
5
297a
8
0-0
6
CONTINUOUS
62
  7
10
1141.938
20
660.976
30
0.0
11
1143.392
21
659.932
31
0.0
0
LINE
5
297b
8
0-0
6
CONTINUOUS
62
  7
10
1143.392
20
659.932
30
0.0
11
1144.773
21
658.778
31
0.0
0
LINE
5
297c
8
0-0
6
CONTINUOUS
62
  7
10
1144.773
20
658.778
30
0.0
11
1146.088
21
657.504
31
0.0
0
LINE
5
297d
8
0-0
6
CONTINUOUS
62
  7
10
1146.088
20
657.504
30
0.0
11
1147.343
21
656.100
31
0.0
0
LINE
5
297e
8
0-0
6
CONTINUOUS
62
  7
10
1147.343
20
656.100
30
0.0
11
1148.547
21
654.557
31
0.0
0
LINE
5
297f
8
0-0
6
CONTINUOUS
62
  7
10
1148.547
20
654.557
30
0.0
11
1149.707
21
652.866
31
0.0
0
LINE
5
2980
8
0-0
6
CONTINUOUS
62
  7
10
1149.707
20
652.866
30
0.0
11
1150.831
21
651.018
31
0.0
0
LINE
5
2981
8
0-0
6
CONTINUOUS
62
  7
10
1150.831
20
651.018
30
0.0
11
1151.925
21
649.005
31
0.0
0
LINE
5
2982
8
0-0
6
CONTINUOUS
62
  7
10
1151.925
20
649.005
30
0.0
11
1152.995
21
646.820
31
0.0
0
LINE
5
2983
8
0-0
6
CONTINUOUS
62
  7
10
1152.995
20
646.820
30
0.0
11
1154.046
21
644.458
31
0.0
0
LINE
5
2984
8
0-0
6
CONTINUOUS
62
  7
10
1154.046
20
644.458
30
0.0
11
1155.082
21
641.914
31
0.0
0
LINE
5
2985
8
0-0
6
CONTINUOUS
62
  7
10
1155.082
20
641.914
30
0.0
11
1156.104
21
639.186
31
0.0
0
LINE
5
2986
8
0-0
6
CONTINUOUS
62
  7
10
1156.104
20
639.186
30
0.0
11
1157.111
21
636.273
31
0.0
0
LINE
5
2987
8
0-0
6
CONTINUOUS
62
  7
10
1157.111
20
636.273
30
0.0
11
1158.100
21
633.179
31
0.0
0
LINE
5
2988
8
0-0
6
CONTINUOUS
62
  7
10
1096.914
20
593.584
30
0.0
11
1097.198
21
593.540
31
0.0
0
LINE
5
2989
8
0-0
6
CONTINUOUS
62
  7
10
1097.198
20
593.540
30
0.0
11
1097.462
21
593.487
31
0.0
0
LINE
5
298a
8
0-0
6
CONTINUOUS
62
  7
10
1097.462
20
593.487
30
0.0
11
1097.708
21
593.421
31
0.0
0
LINE
5
298b
8
0-0
6
CONTINUOUS
62
  7
10
1097.708
20
593.421
30
0.0
11
1097.942
21
593.340
31
0.0
0
LINE
5
298c
8
0-0
6
CONTINUOUS
62
  7
10
1097.942
20
593.340
30
0.0
11
1098.165
21
593.245
31
0.0
0
LINE
5
298d
8
0-0
6
CONTINUOUS
62
  7
10
1098.165
20
593.245
30
0.0
11
1098.381
21
593.132
31
0.0
0
LINE
5
298e
8
0-0
6
CONTINUOUS
62
  7
10
1098.381
20
593.132
30
0.0
11
1098.590
21
593.003
31
0.0
0
LINE
5
298f
8
0-0
6
CONTINUOUS
62
  7
10
1098.590
20
593.003
30
0.0
11
1098.795
21
592.856
31
0.0
0
LINE
5
2990
8
0-0
6
CONTINUOUS
62
  7
10
1098.795
20
592.856
30
0.0
11
1098.996
21
592.692
31
0.0
0
LINE
5
2991
8
0-0
6
CONTINUOUS
62
  7
10
1098.996
20
592.692
30
0.0
11
1099.194
21
592.510
31
0.0
0
LINE
5
2992
8
0-0
6
CONTINUOUS
62
  7
10
1099.194
20
592.510
30
0.0
11
1099.391
21
592.311
31
0.0
0
LINE
5
2993
8
0-0
6
CONTINUOUS
62
  7
10
1099.391
20
592.311
30
0.0
11
1099.586
21
592.095
31
0.0
0
LINE
5
2994
8
0-0
6
CONTINUOUS
62
  7
10
1099.586
20
592.095
30
0.0
11
1099.779
21
591.862
31
0.0
0
LINE
5
2995
8
0-0
6
CONTINUOUS
62
  7
10
1099.779
20
591.862
30
0.0
11
1099.972
21
591.615
31
0.0
0
LINE
5
2996
8
0-0
6
CONTINUOUS
62
  7
10
1099.972
20
591.615
30
0.0
11
1100.165
21
591.353
31
0.0
0
LINE
5
2997
8
0-0
6
CONTINUOUS
62
  7
10
1100.165
20
591.353
30
0.0
11
1100.356
21
591.077
31
0.0
0
LINE
5
2998
8
0-0
6
CONTINUOUS
62
  7
10
1100.356
20
591.077
30
0.0
11
1100.547
21
590.789
31
0.0
0
LINE
5
2999
8
0-0
6
CONTINUOUS
62
  7
10
1100.547
20
590.789
30
0.0
11
1100.736
21
590.489
31
0.0
0
LINE
5
299a
8
0-0
6
CONTINUOUS
62
  7
10
1100.736
20
590.489
30
0.0
11
1100.925
21
590.180
31
0.0
0
LINE
5
299b
8
0-0
6
CONTINUOUS
62
  7
10
1100.925
20
590.180
30
0.0
11
1101.113
21
589.861
31
0.0
0
LINE
5
299c
8
0-0
6
CONTINUOUS
62
  7
10
1101.113
20
589.861
30
0.0
11
1101.299
21
589.535
31
0.0
0
LINE
5
299d
8
0-0
6
CONTINUOUS
62
  7
10
1101.299
20
589.535
30
0.0
11
1101.483
21
589.202
31
0.0
0
LINE
5
299e
8
0-0
6
CONTINUOUS
62
  7
10
1101.483
20
589.202
30
0.0
11
1101.665
21
588.863
31
0.0
0
LINE
5
299f
8
0-0
6
CONTINUOUS
62
  7
10
1101.665
20
588.863
30
0.0
11
1101.845
21
588.519
31
0.0
0
LINE
5
29a0
8
0-0
6
CONTINUOUS
62
  7
10
1101.845
20
588.519
30
0.0
11
1102.023
21
588.170
31
0.0
0
LINE
5
29a1
8
0-0
6
CONTINUOUS
62
  7
10
1102.023
20
588.170
30
0.0
11
1102.199
21
587.817
31
0.0
0
LINE
5
29a2
8
0-0
6
CONTINUOUS
62
  7
10
1102.199
20
587.817
30
0.0
11
1102.372
21
587.458
31
0.0
0
LINE
5
29a3
8
0-0
6
CONTINUOUS
62
  7
10
1102.372
20
587.458
30
0.0
11
1102.543
21
587.094
31
0.0
0
LINE
5
29a4
8
0-0
6
CONTINUOUS
62
  7
10
1102.543
20
587.094
30
0.0
11
1102.712
21
586.722
31
0.0
0
LINE
5
29a5
8
0-0
6
CONTINUOUS
62
  7
10
1102.712
20
586.722
30
0.0
11
1102.879
21
586.341
31
0.0
0
LINE
5
29a6
8
0-0
6
CONTINUOUS
62
  7
10
1102.879
20
586.341
30
0.0
11
1103.046
21
585.946
31
0.0
0
LINE
5
29a7
8
0-0
6
CONTINUOUS
62
  7
10
1103.046
20
585.946
30
0.0
11
1103.214
21
585.535
31
0.0
0
LINE
5
29a8
8
0-0
6
CONTINUOUS
62
  7
10
1103.214
20
585.535
30
0.0
11
1103.383
21
585.103
31
0.0
0
LINE
5
29a9
8
0-0
6
CONTINUOUS
62
  7
10
1103.383
20
585.103
30
0.0
11
1103.555
21
584.642
31
0.0
0
LINE
5
29aa
8
0-0
6
CONTINUOUS
62
  7
10
1103.555
20
584.642
30
0.0
11
1103.732
21
584.147
31
0.0
0
LINE
5
29ab
8
0-0
6
CONTINUOUS
62
  7
10
1103.732
20
584.147
30
0.0
11
1103.916
21
583.608
31
0.0
0
LINE
5
29ac
8
0-0
6
CONTINUOUS
62
  7
10
1103.916
20
583.608
30
0.0
11
1104.110
21
583.016
31
0.0
0
LINE
5
29ad
8
0-0
6
CONTINUOUS
62
  7
10
1104.110
20
583.016
30
0.0
11
1104.315
21
582.359
31
0.0
0
LINE
5
29ae
8
0-0
6
CONTINUOUS
62
  7
10
1104.315
20
582.359
30
0.0
11
1104.536
21
581.625
31
0.0
0
LINE
5
29af
8
0-0
6
CONTINUOUS
62
  7
10
1120.054
20
586.796
30
0.0
11
1119.819
21
588.188
31
0.0
0
LINE
5
29b0
8
0-0
6
CONTINUOUS
62
  7
10
1119.819
20
588.188
30
0.0
11
1119.566
21
589.533
31
0.0
0
LINE
5
29b1
8
0-0
6
CONTINUOUS
62
  7
10
1119.566
20
589.533
30
0.0
11
1119.293
21
590.835
31
0.0
0
LINE
5
29b2
8
0-0
6
CONTINUOUS
62
  7
10
1119.293
20
590.835
30
0.0
11
1119.001
21
592.099
31
0.0
0
LINE
5
29b3
8
0-0
6
CONTINUOUS
62
  7
10
1119.001
20
592.099
30
0.0
11
1118.688
21
593.327
31
0.0
0
LINE
5
29b4
8
0-0
6
CONTINUOUS
62
  7
10
1118.688
20
593.327
30
0.0
11
1118.353
21
594.521
31
0.0
0
LINE
5
29b5
8
0-0
6
CONTINUOUS
62
  7
10
1118.353
20
594.521
30
0.0
11
1117.995
21
595.681
31
0.0
0
LINE
5
29b6
8
0-0
6
CONTINUOUS
62
  7
10
1117.995
20
595.681
30
0.0
11
1117.613
21
596.806
31
0.0
0
LINE
5
29b7
8
0-0
6
CONTINUOUS
62
  7
10
1117.613
20
596.806
30
0.0
11
1117.208
21
597.897
31
0.0
0
LINE
5
29b8
8
0-0
6
CONTINUOUS
62
  7
10
1117.208
20
597.897
30
0.0
11
1116.778
21
598.951
31
0.0
0
LINE
5
29b9
8
0-0
6
CONTINUOUS
62
  7
10
1116.778
20
598.951
30
0.0
11
1116.324
21
599.967
31
0.0
0
LINE
5
29ba
8
0-0
6
CONTINUOUS
62
  7
10
1116.324
20
599.967
30
0.0
11
1115.845
21
600.943
31
0.0
0
LINE
5
29bb
8
0-0
6
CONTINUOUS
62
  7
10
1115.845
20
600.943
30
0.0
11
1115.341
21
601.878
31
0.0
0
LINE
5
29bc
8
0-0
6
CONTINUOUS
62
  7
10
1115.341
20
601.878
30
0.0
11
1114.812
21
602.770
31
0.0
0
LINE
5
29bd
8
0-0
6
CONTINUOUS
62
  7
10
1114.812
20
602.770
30
0.0
11
1114.255
21
603.617
31
0.0
0
LINE
5
29be
8
0-0
6
CONTINUOUS
62
  7
10
1114.255
20
603.617
30
0.0
11
1113.672
21
604.418
31
0.0
0
LINE
5
29bf
8
0-0
6
CONTINUOUS
62
  7
10
1113.672
20
604.418
30
0.0
11
1113.061
21
605.173
31
0.0
0
LINE
5
29c0
8
0-0
6
CONTINUOUS
62
  7
10
1113.061
20
605.173
30
0.0
11
1112.421
21
605.881
31
0.0
0
LINE
5
29c1
8
0-0
6
CONTINUOUS
62
  7
10
1112.421
20
605.881
30
0.0
11
1111.750
21
606.542
31
0.0
0
LINE
5
29c2
8
0-0
6
CONTINUOUS
62
  7
10
1111.750
20
606.542
30
0.0
11
1111.048
21
607.158
31
0.0
0
LINE
5
29c3
8
0-0
6
CONTINUOUS
62
  7
10
1111.048
20
607.158
30
0.0
11
1110.312
21
607.728
31
0.0
0
LINE
5
29c4
8
0-0
6
CONTINUOUS
62
  7
10
1110.312
20
607.728
30
0.0
11
1109.539
21
608.255
31
0.0
0
LINE
5
29c5
8
0-0
6
CONTINUOUS
62
  7
10
1109.539
20
608.255
30
0.0
11
1108.728
21
608.740
31
0.0
0
LINE
5
29c6
8
0-0
6
CONTINUOUS
62
  7
10
1108.728
20
608.740
30
0.0
11
1107.876
21
609.186
31
0.0
0
LINE
5
29c7
8
0-0
6
CONTINUOUS
62
  7
10
1107.876
20
609.186
30
0.0
11
1106.980
21
609.596
31
0.0
0
LINE
5
29c8
8
0-0
6
CONTINUOUS
62
  7
10
1106.980
20
609.596
30
0.0
11
1106.037
21
609.971
31
0.0
0
LINE
5
29c9
8
0-0
6
CONTINUOUS
62
  7
10
1106.037
20
609.971
30
0.0
11
1105.044
21
610.313
31
0.0
0
LINE
5
29ca
8
0-0
6
CONTINUOUS
62
  7
10
1105.044
20
610.313
30
0.0
11
1103.996
21
610.626
31
0.0
0
LINE
5
29cb
8
0-0
6
CONTINUOUS
62
  7
10
1103.996
20
610.626
30
0.0
11
1102.891
21
610.911
31
0.0
0
LINE
5
29cc
8
0-0
6
CONTINUOUS
62
  7
10
1102.891
20
610.911
30
0.0
11
1101.725
21
611.167
31
0.0
0
LINE
5
29cd
8
0-0
6
CONTINUOUS
62
  7
10
1101.725
20
611.167
30
0.0
11
1100.495
21
611.396
31
0.0
0
LINE
5
29ce
8
0-0
6
CONTINUOUS
62
  7
10
1100.495
20
611.396
30
0.0
11
1099.197
21
611.595
31
0.0
0
LINE
5
29cf
8
0-0
6
CONTINUOUS
62
  7
10
1099.197
20
611.595
30
0.0
11
1097.829
21
611.761
31
0.0
0
LINE
5
29d0
8
0-0
6
CONTINUOUS
62
  7
10
1097.829
20
611.761
30
0.0
11
1096.914
21
611.842
31
0.0
0
LINE
5
29d1
8
0-0
6
CONTINUOUS
62
  7
10
1190.742
20
638.212
30
0.0
11
1208.412
21
481.392
31
0.0
0
LINE
5
29d2
8
0-0
6
CONTINUOUS
62
  7
10
1174.000
20
634.964
30
0.0
11
1190.467
21
488.826
31
0.0
0
LINE
5
29d3
8
0-0
6
CONTINUOUS
62
  7
10
1158.100
20
633.179
30
0.0
11
1173.577
21
495.823
31
0.0
0
LINE
5
29d4
8
0-0
6
CONTINUOUS
62
  7
10
1144.445
20
620.400
30
0.0
11
1157.743
21
502.383
31
0.0
0
LINE
5
29d5
8
0-0
6
CONTINUOUS
62
  7
10
1130.869
20
606.919
30
0.0
11
1141.909
21
508.943
31
0.0
0
LINE
5
29d6
8
0-0
6
CONTINUOUS
62
  7
10
1120.054
20
586.796
30
0.0
11
1128.186
21
514.628
31
0.0
0
LINE
5
29d7
8
0-0
6
CONTINUOUS
62
  7
10
1104.536
20
581.625
30
0.0
11
1111.297
21
521.625
31
0.0
0
LINE
5
29d8
8
0-0
6
CONTINUOUS
62
  7
10
1144.445
20
620.400
30
0.0
11
1143.927
21
622.413
31
0.0
0
LINE
5
29d9
8
0-0
6
CONTINUOUS
62
  7
10
1143.927
20
622.413
30
0.0
11
1143.387
21
624.378
31
0.0
0
LINE
5
29da
8
0-0
6
CONTINUOUS
62
  7
10
1143.387
20
624.378
30
0.0
11
1142.819
21
626.292
31
0.0
0
LINE
5
29db
8
0-0
6
CONTINUOUS
62
  7
10
1142.819
20
626.292
30
0.0
11
1142.216
21
628.151
31
0.0
0
LINE
5
29dc
8
0-0
6
CONTINUOUS
62
  7
10
1142.216
20
628.151
30
0.0
11
1141.571
21
629.951
31
0.0
0
LINE
5
29dd
8
0-0
6
CONTINUOUS
62
  7
10
1141.571
20
629.951
30
0.0
11
1140.877
21
631.691
31
0.0
0
LINE
5
29de
8
0-0
6
CONTINUOUS
62
  7
10
1140.877
20
631.691
30
0.0
11
1140.128
21
633.365
31
0.0
0
LINE
5
29df
8
0-0
6
CONTINUOUS
62
  7
10
1140.128
20
633.365
30
0.0
11
1139.317
21
634.972
31
0.0
0
LINE
5
29e0
8
0-0
6
CONTINUOUS
62
  7
10
1139.317
20
634.972
30
0.0
11
1138.438
21
636.509
31
0.0
0
LINE
5
29e1
8
0-0
6
CONTINUOUS
62
  7
10
1138.438
20
636.509
30
0.0
11
1137.487
21
637.974
31
0.0
0
LINE
5
29e2
8
0-0
6
CONTINUOUS
62
  7
10
1137.487
20
637.974
30
0.0
11
1136.458
21
639.366
31
0.0
0
LINE
5
29e3
8
0-0
6
CONTINUOUS
62
  7
10
1136.458
20
639.366
30
0.0
11
1135.347
21
640.683
31
0.0
0
LINE
5
29e4
8
0-0
6
CONTINUOUS
62
  7
10
1135.347
20
640.683
30
0.0
11
1134.151
21
641.924
31
0.0
0
LINE
5
29e5
8
0-0
6
CONTINUOUS
62
  7
10
1134.151
20
641.924
30
0.0
11
1132.868
21
643.090
31
0.0
0
LINE
5
29e6
8
0-0
6
CONTINUOUS
62
  7
10
1132.868
20
643.090
30
0.0
11
1131.497
21
644.180
31
0.0
0
LINE
5
29e7
8
0-0
6
CONTINUOUS
62
  7
10
1131.497
20
644.180
30
0.0
11
1130.038
21
645.196
31
0.0
0
LINE
5
29e8
8
0-0
6
CONTINUOUS
62
  7
10
1130.038
20
645.196
30
0.0
11
1128.492
21
646.138
31
0.0
0
LINE
5
29e9
8
0-0
6
CONTINUOUS
62
  7
10
1128.492
20
646.138
30
0.0
11
1126.860
21
647.008
31
0.0
0
LINE
5
29ea
8
0-0
6
CONTINUOUS
62
  7
10
1126.860
20
647.008
30
0.0
11
1125.147
21
647.808
31
0.0
0
LINE
5
29eb
8
0-0
6
CONTINUOUS
62
  7
10
1125.147
20
647.808
30
0.0
11
1123.356
21
648.540
31
0.0
0
LINE
5
29ec
8
0-0
6
CONTINUOUS
62
  7
10
1123.356
20
648.540
30
0.0
11
1121.495
21
649.207
31
0.0
0
LINE
5
29ed
8
0-0
6
CONTINUOUS
62
  7
10
1121.495
20
649.207
30
0.0
11
1119.569
21
649.811
31
0.0
0
LINE
5
29ee
8
0-0
6
CONTINUOUS
62
  7
10
1119.569
20
649.811
30
0.0
11
1117.587
21
650.356
31
0.0
0
LINE
5
29ef
8
0-0
6
CONTINUOUS
62
  7
10
1117.587
20
650.356
30
0.0
11
1115.559
21
650.844
31
0.0
0
LINE
5
29f0
8
0-0
6
CONTINUOUS
62
  7
10
1115.559
20
650.844
30
0.0
11
1113.495
21
651.280
31
0.0
0
LINE
5
29f1
8
0-0
6
CONTINUOUS
62
  7
10
1113.495
20
651.280
30
0.0
11
1111.406
21
651.666
31
0.0
0
LINE
5
29f2
8
0-0
6
CONTINUOUS
62
  7
10
1111.406
20
651.666
30
0.0
11
1109.305
21
652.007
31
0.0
0
LINE
5
29f3
8
0-0
6
CONTINUOUS
62
  7
10
1109.305
20
652.007
30
0.0
11
1107.206
21
652.306
31
0.0
0
LINE
5
29f4
8
0-0
6
CONTINUOUS
62
  7
10
1107.206
20
652.306
30
0.0
11
1105.123
21
652.566
31
0.0
0
LINE
5
29f5
8
0-0
6
CONTINUOUS
62
  7
10
1105.123
20
652.566
30
0.0
11
1103.070
21
652.791
31
0.0
0
LINE
5
29f6
8
0-0
6
CONTINUOUS
62
  7
10
1103.070
20
652.791
30
0.0
11
1101.062
21
652.984
31
0.0
0
LINE
5
29f7
8
0-0
6
CONTINUOUS
62
  7
10
1101.062
20
652.984
30
0.0
11
1099.114
21
653.150
31
0.0
0
LINE
5
29f8
8
0-0
6
CONTINUOUS
62
  7
10
1099.114
20
653.150
30
0.0
11
1097.243
21
653.290
31
0.0
0
LINE
5
29f9
8
0-0
6
CONTINUOUS
62
  7
10
1097.243
20
653.290
30
0.0
11
1096.914
21
653.312
31
0.0
0
LINE
5
29fa
8
0-0
6
CONTINUOUS
62
  7
10
1130.869
20
606.919
30
0.0
11
1130.484
21
608.527
31
0.0
0
LINE
5
29fb
8
0-0
6
CONTINUOUS
62
  7
10
1130.484
20
608.527
30
0.0
11
1130.099
21
610.040
31
0.0
0
LINE
5
29fc
8
0-0
6
CONTINUOUS
62
  7
10
1130.099
20
610.040
30
0.0
11
1129.710
21
611.462
31
0.0
0
LINE
5
29fd
8
0-0
6
CONTINUOUS
62
  7
10
1129.710
20
611.462
30
0.0
11
1129.313
21
612.797
31
0.0
0
LINE
5
29fe
8
0-0
6
CONTINUOUS
62
  7
10
1129.313
20
612.797
30
0.0
11
1128.904
21
614.049
31
0.0
0
LINE
5
29ff
8
0-0
6
CONTINUOUS
62
  7
10
1128.904
20
614.049
30
0.0
11
1128.480
21
615.223
31
0.0
0
LINE
5
2a00
8
0-0
6
CONTINUOUS
62
  7
10
1128.480
20
615.223
30
0.0
11
1128.039
21
616.325
31
0.0
0
LINE
5
2a01
8
0-0
6
CONTINUOUS
62
  7
10
1128.039
20
616.325
30
0.0
11
1127.579
21
617.357
31
0.0
0
LINE
5
2a02
8
0-0
6
CONTINUOUS
62
  7
10
1127.579
20
617.357
30
0.0
11
1127.096
21
618.326
31
0.0
0
LINE
5
2a03
8
0-0
6
CONTINUOUS
62
  7
10
1127.096
20
618.326
30
0.0
11
1126.589
21
619.235
31
0.0
0
LINE
5
2a04
8
0-0
6
CONTINUOUS
62
  7
10
1126.589
20
619.235
30
0.0
11
1126.054
21
620.088
31
0.0
0
LINE
5
2a05
8
0-0
6
CONTINUOUS
62
  7
10
1126.054
20
620.088
30
0.0
11
1125.490
21
620.891
31
0.0
0
LINE
5
2a06
8
0-0
6
CONTINUOUS
62
  7
10
1125.490
20
620.891
30
0.0
11
1124.893
21
621.646
31
0.0
0
LINE
5
2a07
8
0-0
6
CONTINUOUS
62
  7
10
1124.893
20
621.646
30
0.0
11
1124.261
21
622.356
31
0.0
0
LINE
5
2a08
8
0-0
6
CONTINUOUS
62
  7
10
1124.261
20
622.356
30
0.0
11
1123.593
21
623.025
31
0.0
0
LINE
5
2a09
8
0-0
6
CONTINUOUS
62
  7
10
1123.593
20
623.025
30
0.0
11
1122.885
21
623.656
31
0.0
0
LINE
5
2a0a
8
0-0
6
CONTINUOUS
62
  7
10
1122.885
20
623.656
30
0.0
11
1122.136
21
624.250
31
0.0
0
LINE
5
2a0b
8
0-0
6
CONTINUOUS
62
  7
10
1122.136
20
624.250
30
0.0
11
1121.344
21
624.811
31
0.0
0
LINE
5
2a0c
8
0-0
6
CONTINUOUS
62
  7
10
1121.344
20
624.811
30
0.0
11
1120.508
21
625.341
31
0.0
0
LINE
5
2a0d
8
0-0
6
CONTINUOUS
62
  7
10
1120.508
20
625.341
30
0.0
11
1119.626
21
625.841
31
0.0
0
LINE
5
2a0e
8
0-0
6
CONTINUOUS
62
  7
10
1119.626
20
625.841
30
0.0
11
1118.698
21
626.312
31
0.0
0
LINE
5
2a0f
8
0-0
6
CONTINUOUS
62
  7
10
1118.698
20
626.312
30
0.0
11
1117.722
21
626.757
31
0.0
0
LINE
5
2a10
8
0-0
6
CONTINUOUS
62
  7
10
1117.722
20
626.757
30
0.0
11
1116.699
21
627.177
31
0.0
0
LINE
5
2a11
8
0-0
6
CONTINUOUS
62
  7
10
1116.699
20
627.177
30
0.0
11
1115.629
21
627.573
31
0.0
0
LINE
5
2a12
8
0-0
6
CONTINUOUS
62
  7
10
1115.629
20
627.573
30
0.0
11
1114.512
21
627.946
31
0.0
0
LINE
5
2a13
8
0-0
6
CONTINUOUS
62
  7
10
1114.512
20
627.946
30
0.0
11
1113.349
21
628.297
31
0.0
0
LINE
5
2a14
8
0-0
6
CONTINUOUS
62
  7
10
1113.349
20
628.297
30
0.0
11
1112.143
21
628.626
31
0.0
0
LINE
5
2a15
8
0-0
6
CONTINUOUS
62
  7
10
1112.143
20
628.626
30
0.0
11
1110.896
21
628.936
31
0.0
0
LINE
5
2a16
8
0-0
6
CONTINUOUS
62
  7
10
1110.896
20
628.936
30
0.0
11
1109.612
21
629.226
31
0.0
0
LINE
5
2a17
8
0-0
6
CONTINUOUS
62
  7
10
1109.612
20
629.226
30
0.0
11
1108.294
21
629.496
31
0.0
0
LINE
5
2a18
8
0-0
6
CONTINUOUS
62
  7
10
1108.294
20
629.496
30
0.0
11
1106.948
21
629.748
31
0.0
0
LINE
5
2a19
8
0-0
6
CONTINUOUS
62
  7
10
1106.948
20
629.748
30
0.0
11
1105.581
21
629.980
31
0.0
0
LINE
5
2a1a
8
0-0
6
CONTINUOUS
62
  7
10
1105.581
20
629.980
30
0.0
11
1104.202
21
630.194
31
0.0
0
LINE
5
2a1b
8
0-0
6
CONTINUOUS
62
  7
10
1104.202
20
630.194
30
0.0
11
1102.820
21
630.388
31
0.0
0
LINE
5
2a1c
8
0-0
6
CONTINUOUS
62
  7
10
1102.820
20
630.388
30
0.0
11
1101.450
21
630.561
31
0.0
0
LINE
5
2a1d
8
0-0
6
CONTINUOUS
62
  7
10
1101.450
20
630.561
30
0.0
11
1100.107
21
630.713
31
0.0
0
LINE
5
2a1e
8
0-0
6
CONTINUOUS
62
  7
10
1100.107
20
630.713
30
0.0
11
1098.812
21
630.839
31
0.0
0
LINE
5
2a1f
8
0-0
6
CONTINUOUS
62
  7
10
1098.812
20
630.839
30
0.0
11
1097.588
21
630.938
31
0.0
0
LINE
5
2a20
8
0-0
6
CONTINUOUS
62
  7
10
1097.588
20
630.938
30
0.0
11
1096.914
21
630.979
31
0.0
0
LINE
5
2a21
8
0-0
6
CONTINUOUS
62
  7
10
1199.591
20
639.854
30
0.0
11
1199.664
21
639.405
31
0.0
0
LINE
5
2a22
8
0-0
6
CONTINUOUS
62
  7
10
1199.664
20
639.405
30
0.0
11
1217.913
21
477.456
31
0.0
0
LINE
5
2a23
8
0-0
6
CONTINUOUS
62
  7
10
1096.914
20
710.584
30
0.0
11
1102.414
21
710.352
31
0.0
0
LINE
5
2a24
8
0-0
6
CONTINUOUS
62
  7
10
1102.414
20
710.352
30
0.0
11
1107.773
21
710.038
31
0.0
0
LINE
5
2a25
8
0-0
6
CONTINUOUS
62
  7
10
1107.773
20
710.038
30
0.0
11
1112.981
21
709.651
31
0.0
0
LINE
5
2a26
8
0-0
6
CONTINUOUS
62
  7
10
1112.981
20
709.651
30
0.0
11
1118.028
21
709.196
31
0.0
0
LINE
5
2a27
8
0-0
6
CONTINUOUS
62
  7
10
1118.028
20
709.196
30
0.0
11
1122.904
21
708.681
31
0.0
0
LINE
5
2a28
8
0-0
6
CONTINUOUS
62
  7
10
1122.904
20
708.681
30
0.0
11
1127.599
21
708.110
31
0.0
0
LINE
5
2a29
8
0-0
6
CONTINUOUS
62
  7
10
1127.599
20
708.110
30
0.0
11
1132.105
21
707.489
31
0.0
0
LINE
5
2a2a
8
0-0
6
CONTINUOUS
62
  7
10
1132.105
20
707.489
30
0.0
11
1136.415
21
706.823
31
0.0
0
LINE
5
2a2b
8
0-0
6
CONTINUOUS
62
  7
10
1136.415
20
706.823
30
0.0
11
1140.524
21
706.114
31
0.0
0
LINE
5
2a2c
8
0-0
6
CONTINUOUS
62
  7
10
1140.524
20
706.114
30
0.0
11
1144.430
21
705.367
31
0.0
0
LINE
5
2a2d
8
0-0
6
CONTINUOUS
62
  7
10
1144.430
20
705.367
30
0.0
11
1148.130
21
704.582
31
0.0
0
LINE
5
2a2e
8
0-0
6
CONTINUOUS
62
  7
10
1148.130
20
704.582
30
0.0
11
1151.626
21
703.762
31
0.0
0
LINE
5
2a2f
8
0-0
6
CONTINUOUS
62
  7
10
1151.626
20
703.762
30
0.0
11
1154.920
21
702.905
31
0.0
0
LINE
5
2a30
8
0-0
6
CONTINUOUS
62
  7
10
1154.920
20
702.905
30
0.0
11
1158.018
21
702.011
31
0.0
0
LINE
5
2a31
8
0-0
6
CONTINUOUS
62
  7
10
1158.018
20
702.011
30
0.0
11
1160.925
21
701.077
31
0.0
0
LINE
5
2a32
8
0-0
6
CONTINUOUS
62
  7
10
1160.925
20
701.077
30
0.0
11
1163.649
21
700.100
31
0.0
0
LINE
5
2a33
8
0-0
6
CONTINUOUS
62
  7
10
1163.649
20
700.100
30
0.0
11
1166.199
21
699.077
31
0.0
0
LINE
5
2a34
8
0-0
6
CONTINUOUS
62
  7
10
1166.199
20
699.077
30
0.0
11
1168.586
21
698.000
31
0.0
0
LINE
5
2a35
8
0-0
6
CONTINUOUS
62
  7
10
1168.586
20
698.000
30
0.0
11
1170.820
21
696.865
31
0.0
0
LINE
5
2a36
8
0-0
6
CONTINUOUS
62
  7
10
1170.820
20
696.865
30
0.0
11
1172.914
21
695.661
31
0.0
0
LINE
5
2a37
8
0-0
6
CONTINUOUS
62
  7
10
1172.914
20
695.661
30
0.0
11
1174.880
21
694.382
31
0.0
0
LINE
5
2a38
8
0-0
6
CONTINUOUS
62
  7
10
1174.880
20
694.382
30
0.0
11
1176.729
21
693.015
31
0.0
0
LINE
5
2a39
8
0-0
6
CONTINUOUS
62
  7
10
1176.729
20
693.015
30
0.0
11
1178.474
21
691.550
31
0.0
0
LINE
5
2a3a
8
0-0
6
CONTINUOUS
62
  7
10
1178.474
20
691.550
30
0.0
11
1180.128
21
689.974
31
0.0
0
LINE
5
2a3b
8
0-0
6
CONTINUOUS
62
  7
10
1180.128
20
689.974
30
0.0
11
1181.702
21
688.271
31
0.0
0
LINE
5
2a3c
8
0-0
6
CONTINUOUS
62
  7
10
1181.702
20
688.271
30
0.0
11
1183.206
21
686.428
31
0.0
0
LINE
5
2a3d
8
0-0
6
CONTINUOUS
62
  7
10
1183.206
20
686.428
30
0.0
11
1184.651
21
684.425
31
0.0
0
LINE
5
2a3e
8
0-0
6
CONTINUOUS
62
  7
10
1184.651
20
684.425
30
0.0
11
1186.046
21
682.246
31
0.0
0
LINE
5
2a3f
8
0-0
6
CONTINUOUS
62
  7
10
1186.046
20
682.246
30
0.0
11
1187.400
21
679.870
31
0.0
0
LINE
5
2a40
8
0-0
6
CONTINUOUS
62
  7
10
1187.400
20
679.870
30
0.0
11
1188.718
21
677.276
31
0.0
0
LINE
5
2a41
8
0-0
6
CONTINUOUS
62
  7
10
1188.718
20
677.276
30
0.0
11
1190.008
21
674.439
31
0.0
0
LINE
5
2a42
8
0-0
6
CONTINUOUS
62
  7
10
1190.008
20
674.439
30
0.0
11
1191.273
21
671.335
31
0.0
0
LINE
5
2a43
8
0-0
6
CONTINUOUS
62
  7
10
1191.273
20
671.335
30
0.0
11
1192.518
21
667.937
31
0.0
0
LINE
5
2a44
8
0-0
6
CONTINUOUS
62
  7
10
1192.518
20
667.937
30
0.0
11
1193.745
21
664.216
31
0.0
0
LINE
5
2a45
8
0-0
6
CONTINUOUS
62
  7
10
1193.745
20
664.216
30
0.0
11
1194.956
21
660.141
31
0.0
0
LINE
5
2a46
8
0-0
6
CONTINUOUS
62
  7
10
1194.956
20
660.141
30
0.0
11
1196.151
21
655.678
31
0.0
0
LINE
5
2a47
8
0-0
6
CONTINUOUS
62
  7
10
1196.151
20
655.678
30
0.0
11
1197.330
21
650.790
31
0.0
0
LINE
5
2a48
8
0-0
6
CONTINUOUS
62
  7
10
1197.330
20
650.790
30
0.0
11
1198.495
21
645.440
31
0.0
0
LINE
5
2a49
8
0-0
6
CONTINUOUS
62
  7
10
1198.495
20
645.440
30
0.0
11
1199.591
21
639.854
31
0.0
0
LINE
5
2a4a
8
0-0
6
CONTINUOUS
62
  7
10
1173.680
20
636.543
30
0.0
11
1173.719
21
636.378
31
0.0
0
LINE
5
2a4b
8
0-0
6
CONTINUOUS
62
  7
10
1173.719
20
636.378
30
0.0
11
1173.756
21
636.221
31
0.0
0
LINE
5
2a4c
8
0-0
6
CONTINUOUS
62
  7
10
1173.756
20
636.221
30
0.0
11
1173.790
21
636.073
31
0.0
0
LINE
5
2a4d
8
0-0
6
CONTINUOUS
62
  7
10
1173.790
20
636.073
30
0.0
11
1173.820
21
635.933
31
0.0
0
LINE
5
2a4e
8
0-0
6
CONTINUOUS
62
  7
10
1173.820
20
635.933
30
0.0
11
1173.848
21
635.802
31
0.0
0
LINE
5
2a4f
8
0-0
6
CONTINUOUS
62
  7
10
1173.848
20
635.802
30
0.0
11
1173.874
21
635.678
31
0.0
0
LINE
5
2a50
8
0-0
6
CONTINUOUS
62
  7
10
1173.874
20
635.678
30
0.0
11
1173.897
21
635.563
31
0.0
0
LINE
5
2a51
8
0-0
6
CONTINUOUS
62
  7
10
1173.897
20
635.563
30
0.0
11
1173.917
21
635.455
31
0.0
0
LINE
5
2a52
8
0-0
6
CONTINUOUS
62
  7
10
1173.917
20
635.455
30
0.0
11
1173.936
21
635.355
31
0.0
0
LINE
5
2a53
8
0-0
6
CONTINUOUS
62
  7
10
1173.936
20
635.355
30
0.0
11
1173.952
21
635.263
31
0.0
0
LINE
5
2a54
8
0-0
6
CONTINUOUS
62
  7
10
1173.952
20
635.263
30
0.0
11
1173.967
21
635.177
31
0.0
0
LINE
5
2a55
8
0-0
6
CONTINUOUS
62
  7
10
1173.967
20
635.177
30
0.0
11
1173.979
21
635.099
31
0.0
0
LINE
5
2a56
8
0-0
6
CONTINUOUS
62
  7
10
1173.979
20
635.099
30
0.0
11
1173.991
21
635.028
31
0.0
0
LINE
5
2a57
8
0-0
6
CONTINUOUS
62
  7
10
1173.991
20
635.028
30
0.0
11
1174.000
21
634.964
31
0.0
0
LINE
5
2a58
8
0-0
6
CONTINUOUS
62
  7
10
1096.914
20
701.576
30
0.0
11
1101.959
21
701.363
31
0.0
0
LINE
5
2a59
8
0-0
6
CONTINUOUS
62
  7
10
1101.959
20
701.363
30
0.0
11
1107.177
21
701.058
31
0.0
0
LINE
5
2a5a
8
0-0
6
CONTINUOUS
62
  7
10
1107.177
20
701.058
30
0.0
11
1112.245
21
700.681
31
0.0
0
LINE
5
2a5b
8
0-0
6
CONTINUOUS
62
  7
10
1112.245
20
700.681
30
0.0
11
1117.150
21
700.239
31
0.0
0
LINE
5
2a5c
8
0-0
6
CONTINUOUS
62
  7
10
1117.150
20
700.239
30
0.0
11
1121.889
21
699.738
31
0.0
0
LINE
5
2a5d
8
0-0
6
CONTINUOUS
62
  7
10
1121.889
20
699.738
30
0.0
11
1126.442
21
699.184
31
0.0
0
LINE
5
2a5e
8
0-0
6
CONTINUOUS
62
  7
10
1126.442
20
699.184
30
0.0
11
1130.803
21
698.583
31
0.0
0
LINE
5
2a5f
8
0-0
6
CONTINUOUS
62
  7
10
1130.803
20
698.583
30
0.0
11
1134.963
21
697.940
31
0.0
0
LINE
5
2a60
8
0-0
6
CONTINUOUS
62
  7
10
1134.963
20
697.940
30
0.0
11
1138.911
21
697.260
31
0.0
0
LINE
5
2a61
8
0-0
6
CONTINUOUS
62
  7
10
1138.911
20
697.260
30
0.0
11
1142.651
21
696.544
31
0.0
0
LINE
5
2a62
8
0-0
6
CONTINUOUS
62
  7
10
1142.651
20
696.544
30
0.0
11
1146.168
21
695.798
31
0.0
0
LINE
5
2a63
8
0-0
6
CONTINUOUS
62
  7
10
1146.168
20
695.798
30
0.0
11
1149.463
21
695.025
31
0.0
0
LINE
5
2a64
8
0-0
6
CONTINUOUS
62
  7
10
1149.463
20
695.025
30
0.0
11
1152.539
21
694.224
31
0.0
0
LINE
5
2a65
8
0-0
6
CONTINUOUS
62
  7
10
1152.539
20
694.224
30
0.0
11
1155.393
21
693.401
31
0.0
0
LINE
5
2a66
8
0-0
6
CONTINUOUS
62
  7
10
1155.393
20
693.401
30
0.0
11
1158.030
21
692.554
31
0.0
0
LINE
5
2a67
8
0-0
6
CONTINUOUS
62
  7
10
1158.030
20
692.554
30
0.0
11
1160.453
21
691.685
31
0.0
0
LINE
5
2a68
8
0-0
6
CONTINUOUS
62
  7
10
1160.453
20
691.685
30
0.0
11
1162.671
21
690.795
31
0.0
0
LINE
5
2a69
8
0-0
6
CONTINUOUS
62
  7
10
1162.671
20
690.795
30
0.0
11
1164.695
21
689.882
31
0.0
0
LINE
5
2a6a
8
0-0
6
CONTINUOUS
62
  7
10
1164.695
20
689.882
30
0.0
11
1166.537
21
688.946
31
0.0
0
LINE
5
2a6b
8
0-0
6
CONTINUOUS
62
  7
10
1166.537
20
688.946
30
0.0
11
1168.214
21
687.982
31
0.0
0
LINE
5
2a6c
8
0-0
6
CONTINUOUS
62
  7
10
1168.214
20
687.982
30
0.0
11
1169.745
21
686.985
31
0.0
0
LINE
5
2a6d
8
0-0
6
CONTINUOUS
62
  7
10
1169.745
20
686.985
30
0.0
11
1171.156
21
685.943
31
0.0
0
LINE
5
2a6e
8
0-0
6
CONTINUOUS
62
  7
10
1171.156
20
685.943
30
0.0
11
1172.470
21
684.840
31
0.0
0
LINE
5
2a6f
8
0-0
6
CONTINUOUS
62
  7
10
1172.470
20
684.840
30
0.0
11
1173.712
21
683.655
31
0.0
0
LINE
5
2a70
8
0-0
6
CONTINUOUS
62
  7
10
1173.712
20
683.655
30
0.0
11
1174.904
21
682.366
31
0.0
0
LINE
5
2a71
8
0-0
6
CONTINUOUS
62
  7
10
1174.904
20
682.366
30
0.0
11
1176.064
21
680.944
31
0.0
0
LINE
5
2a72
8
0-0
6
CONTINUOUS
62
  7
10
1176.064
20
680.944
30
0.0
11
1177.207
21
679.361
31
0.0
0
LINE
5
2a73
8
0-0
6
CONTINUOUS
62
  7
10
1177.207
20
679.361
30
0.0
11
1178.341
21
677.590
31
0.0
0
LINE
5
2a74
8
0-0
6
CONTINUOUS
62
  7
10
1178.341
20
677.590
30
0.0
11
1179.473
21
675.602
31
0.0
0
LINE
5
2a75
8
0-0
6
CONTINUOUS
62
  7
10
1179.473
20
675.602
30
0.0
11
1180.606
21
673.372
31
0.0
0
LINE
5
2a76
8
0-0
6
CONTINUOUS
62
  7
10
1180.606
20
673.372
30
0.0
11
1181.741
21
670.876
31
0.0
0
LINE
5
2a77
8
0-0
6
CONTINUOUS
62
  7
10
1181.741
20
670.876
30
0.0
11
1182.878
21
668.088
31
0.0
0
LINE
5
2a78
8
0-0
6
CONTINUOUS
62
  7
10
1182.878
20
668.088
30
0.0
11
1184.017
21
664.978
31
0.0
0
LINE
5
2a79
8
0-0
6
CONTINUOUS
62
  7
10
1184.017
20
664.978
30
0.0
11
1185.156
21
661.526
31
0.0
0
LINE
5
2a7a
8
0-0
6
CONTINUOUS
62
  7
10
1185.156
20
661.526
30
0.0
11
1186.293
21
657.695
31
0.0
0
LINE
5
2a7b
8
0-0
6
CONTINUOUS
62
  7
10
1186.293
20
657.695
30
0.0
11
1187.428
21
653.458
31
0.0
0
LINE
5
2a7c
8
0-0
6
CONTINUOUS
62
  7
10
1187.428
20
653.458
30
0.0
11
1188.558
21
648.776
31
0.0
0
LINE
5
2a7d
8
0-0
6
CONTINUOUS
62
  7
10
1188.558
20
648.776
30
0.0
11
1189.681
21
643.615
31
0.0
0
LINE
5
2a7e
8
0-0
6
CONTINUOUS
62
  7
10
1189.681
20
643.615
30
0.0
11
1190.742
21
638.212
31
0.0
0
LINE
5
2a7f
8
0-0
6
CONTINUOUS
62
  7
10
1173.680
20
636.543
30
0.0
11
1173.522
21
637.230
31
0.0
0
LINE
5
2a80
8
0-0
6
CONTINUOUS
62
  7
10
1173.522
20
637.230
30
0.0
11
1172.899
21
639.773
31
0.0
0
LINE
5
2a81
8
0-0
6
CONTINUOUS
62
  7
10
1172.899
20
639.773
30
0.0
11
1172.259
21
642.210
31
0.0
0
LINE
5
2a82
8
0-0
6
CONTINUOUS
62
  7
10
1172.259
20
642.210
30
0.0
11
1171.602
21
644.545
31
0.0
0
LINE
5
2a83
8
0-0
6
CONTINUOUS
62
  7
10
1171.602
20
644.545
30
0.0
11
1170.926
21
646.782
31
0.0
0
LINE
5
2a84
8
0-0
6
CONTINUOUS
62
  7
10
1170.926
20
646.782
30
0.0
11
1170.226
21
648.926
31
0.0
0
LINE
5
2a85
8
0-0
6
CONTINUOUS
62
  7
10
1170.226
20
648.926
30
0.0
11
1169.500
21
650.980
31
0.0
0
LINE
5
2a86
8
0-0
6
CONTINUOUS
62
  7
10
1169.500
20
650.980
30
0.0
11
1168.741
21
652.947
31
0.0
0
LINE
5
2a87
8
0-0
6
CONTINUOUS
62
  7
10
1168.741
20
652.947
30
0.0
11
1167.943
21
654.832
31
0.0
0
LINE
5
2a88
8
0-0
6
CONTINUOUS
62
  7
10
1167.943
20
654.832
30
0.0
11
1167.100
21
656.637
31
0.0
0
LINE
5
2a89
8
0-0
6
CONTINUOUS
62
  7
10
1167.100
20
656.637
30
0.0
11
1166.204
21
658.367
31
0.0
0
LINE
5
2a8a
8
0-0
6
CONTINUOUS
62
  7
10
1166.204
20
658.367
30
0.0
11
1165.248
21
660.024
31
0.0
0
LINE
5
2a8b
8
0-0
6
CONTINUOUS
62
  7
10
1165.248
20
660.024
30
0.0
11
1164.221
21
661.611
31
0.0
0
LINE
5
2a8c
8
0-0
6
CONTINUOUS
62
  7
10
1164.221
20
661.611
30
0.0
11
1163.117
21
663.133
31
0.0
0
LINE
5
2a8d
8
0-0
6
CONTINUOUS
62
  7
10
1163.117
20
663.133
30
0.0
11
1161.926
21
664.590
31
0.0
0
LINE
5
2a8e
8
0-0
6
CONTINUOUS
62
  7
10
1161.926
20
664.590
30
0.0
11
1160.639
21
665.987
31
0.0
0
LINE
5
2a8f
8
0-0
6
CONTINUOUS
62
  7
10
1160.639
20
665.987
30
0.0
11
1159.249
21
667.326
31
0.0
0
LINE
5
2a90
8
0-0
6
CONTINUOUS
62
  7
10
1159.249
20
667.326
30
0.0
11
1157.747
21
668.608
31
0.0
0
LINE
5
2a91
8
0-0
6
CONTINUOUS
62
  7
10
1157.747
20
668.608
30
0.0
11
1156.127
21
669.836
31
0.0
0
LINE
5
2a92
8
0-0
6
CONTINUOUS
62
  7
10
1156.127
20
669.836
30
0.0
11
1154.382
21
671.012
31
0.0
0
LINE
5
2a93
8
0-0
6
CONTINUOUS
62
  7
10
1154.382
20
671.012
30
0.0
11
1152.506
21
672.136
31
0.0
0
LINE
5
2a94
8
0-0
6
CONTINUOUS
62
  7
10
1152.506
20
672.136
30
0.0
11
1150.494
21
673.211
31
0.0
0
LINE
5
2a95
8
0-0
6
CONTINUOUS
62
  7
10
1150.494
20
673.211
30
0.0
11
1148.345
21
674.236
31
0.0
0
LINE
5
2a96
8
0-0
6
CONTINUOUS
62
  7
10
1148.345
20
674.236
30
0.0
11
1146.055
21
675.211
31
0.0
0
LINE
5
2a97
8
0-0
6
CONTINUOUS
62
  7
10
1146.055
20
675.211
30
0.0
11
1143.623
21
676.138
31
0.0
0
LINE
5
2a98
8
0-0
6
CONTINUOUS
62
  7
10
1143.623
20
676.138
30
0.0
11
1141.051
21
677.015
31
0.0
0
LINE
5
2a99
8
0-0
6
CONTINUOUS
62
  7
10
1141.051
20
677.015
30
0.0
11
1138.339
21
677.842
31
0.0
0
LINE
5
2a9a
8
0-0
6
CONTINUOUS
62
  7
10
1138.339
20
677.842
30
0.0
11
1135.492
21
678.618
31
0.0
0
LINE
5
2a9b
8
0-0
6
CONTINUOUS
62
  7
10
1135.492
20
678.618
30
0.0
11
1132.513
21
679.343
31
0.0
0
LINE
5
2a9c
8
0-0
6
CONTINUOUS
62
  7
10
1132.513
20
679.343
30
0.0
11
1129.408
21
680.015
31
0.0
0
LINE
5
2a9d
8
0-0
6
CONTINUOUS
62
  7
10
1129.408
20
680.015
30
0.0
11
1126.183
21
680.633
31
0.0
0
LINE
5
2a9e
8
0-0
6
CONTINUOUS
62
  7
10
1126.183
20
680.633
30
0.0
11
1122.845
21
681.195
31
0.0
0
LINE
5
2a9f
8
0-0
6
CONTINUOUS
62
  7
10
1122.845
20
681.195
30
0.0
11
1119.402
21
681.702
31
0.0
0
LINE
5
2aa0
8
0-0
6
CONTINUOUS
62
  7
10
1119.402
20
681.702
30
0.0
11
1115.861
21
682.153
31
0.0
0
LINE
5
2aa1
8
0-0
6
CONTINUOUS
62
  7
10
1115.861
20
682.153
30
0.0
11
1112.229
21
682.547
31
0.0
0
LINE
5
2aa2
8
0-0
6
CONTINUOUS
62
  7
10
1112.229
20
682.547
30
0.0
11
1108.514
21
682.885
31
0.0
0
LINE
5
2aa3
8
0-0
6
CONTINUOUS
62
  7
10
1108.514
20
682.885
30
0.0
11
1104.721
21
683.169
31
0.0
0
LINE
5
2aa4
8
0-0
6
CONTINUOUS
62
  7
10
1104.721
20
683.169
30
0.0
11
1100.854
21
683.401
31
0.0
0
LINE
5
2aa5
8
0-0
6
CONTINUOUS
62
  7
10
1100.854
20
683.401
30
0.0
11
1096.914
21
683.584
31
0.0
0
LINE
5
2aa6
8
0-0
6
CONTINUOUS
62
  7
10
1096.914
20
593.584
30
0.0
11
1096.629
21
593.540
31
0.0
0
LINE
5
2aa7
8
0-0
6
CONTINUOUS
62
  7
10
1096.629
20
593.540
30
0.0
11
1096.366
21
593.487
31
0.0
0
LINE
5
2aa8
8
0-0
6
CONTINUOUS
62
  7
10
1096.366
20
593.487
30
0.0
11
1096.119
21
593.421
31
0.0
0
LINE
5
2aa9
8
0-0
6
CONTINUOUS
62
  7
10
1096.119
20
593.421
30
0.0
11
1095.886
21
593.340
31
0.0
0
LINE
5
2aaa
8
0-0
6
CONTINUOUS
62
  7
10
1095.886
20
593.340
30
0.0
11
1095.662
21
593.245
31
0.0
0
LINE
5
2aab
8
0-0
6
CONTINUOUS
62
  7
10
1095.662
20
593.245
30
0.0
11
1095.447
21
593.132
31
0.0
0
LINE
5
2aac
8
0-0
6
CONTINUOUS
62
  7
10
1095.447
20
593.132
30
0.0
11
1095.238
21
593.003
31
0.0
0
LINE
5
2aad
8
0-0
6
CONTINUOUS
62
  7
10
1095.238
20
593.003
30
0.0
11
1095.033
21
592.856
31
0.0
0
LINE
5
2aae
8
0-0
6
CONTINUOUS
62
  7
10
1095.033
20
592.856
30
0.0
11
1094.832
21
592.692
31
0.0
0
LINE
5
2aaf
8
0-0
6
CONTINUOUS
62
  7
10
1094.832
20
592.692
30
0.0
11
1094.634
21
592.510
31
0.0
0
LINE
5
2ab0
8
0-0
6
CONTINUOUS
62
  7
10
1094.634
20
592.510
30
0.0
11
1094.437
21
592.311
31
0.0
0
LINE
5
2ab1
8
0-0
6
CONTINUOUS
62
  7
10
1094.437
20
592.311
30
0.0
11
1094.242
21
592.095
31
0.0
0
LINE
5
2ab2
8
0-0
6
CONTINUOUS
62
  7
10
1094.242
20
592.095
30
0.0
11
1094.048
21
591.862
31
0.0
0
LINE
5
2ab3
8
0-0
6
CONTINUOUS
62
  7
10
1094.048
20
591.862
30
0.0
11
1093.855
21
591.615
31
0.0
0
LINE
5
2ab4
8
0-0
6
CONTINUOUS
62
  7
10
1093.855
20
591.615
30
0.0
11
1093.663
21
591.353
31
0.0
0
LINE
5
2ab5
8
0-0
6
CONTINUOUS
62
  7
10
1093.663
20
591.353
30
0.0
11
1093.472
21
591.077
31
0.0
0
LINE
5
2ab6
8
0-0
6
CONTINUOUS
62
  7
10
1093.472
20
591.077
30
0.0
11
1093.281
21
590.789
31
0.0
0
LINE
5
2ab7
8
0-0
6
CONTINUOUS
62
  7
10
1093.281
20
590.789
30
0.0
11
1093.091
21
590.489
31
0.0
0
LINE
5
2ab8
8
0-0
6
CONTINUOUS
62
  7
10
1093.091
20
590.489
30
0.0
11
1092.902
21
590.180
31
0.0
0
LINE
5
2ab9
8
0-0
6
CONTINUOUS
62
  7
10
1092.902
20
590.180
30
0.0
11
1092.715
21
589.861
31
0.0
0
LINE
5
2aba
8
0-0
6
CONTINUOUS
62
  7
10
1092.715
20
589.861
30
0.0
11
1092.529
21
589.535
31
0.0
0
LINE
5
2abb
8
0-0
6
CONTINUOUS
62
  7
10
1092.529
20
589.535
30
0.0
11
1092.345
21
589.202
31
0.0
0
LINE
5
2abc
8
0-0
6
CONTINUOUS
62
  7
10
1092.345
20
589.202
30
0.0
11
1092.162
21
588.863
31
0.0
0
LINE
5
2abd
8
0-0
6
CONTINUOUS
62
  7
10
1092.162
20
588.863
30
0.0
11
1091.982
21
588.519
31
0.0
0
LINE
5
2abe
8
0-0
6
CONTINUOUS
62
  7
10
1091.982
20
588.519
30
0.0
11
1091.804
21
588.170
31
0.0
0
LINE
5
2abf
8
0-0
6
CONTINUOUS
62
  7
10
1091.804
20
588.170
30
0.0
11
1091.629
21
587.817
31
0.0
0
LINE
5
2ac0
8
0-0
6
CONTINUOUS
62
  7
10
1091.629
20
587.817
30
0.0
11
1091.456
21
587.458
31
0.0
0
LINE
5
2ac1
8
0-0
6
CONTINUOUS
62
  7
10
1091.456
20
587.458
30
0.0
11
1091.285
21
587.094
31
0.0
0
LINE
5
2ac2
8
0-0
6
CONTINUOUS
62
  7
10
1091.285
20
587.094
30
0.0
11
1091.116
21
586.722
31
0.0
0
LINE
5
2ac3
8
0-0
6
CONTINUOUS
62
  7
10
1091.116
20
586.722
30
0.0
11
1090.948
21
586.341
31
0.0
0
LINE
5
2ac4
8
0-0
6
CONTINUOUS
62
  7
10
1090.948
20
586.341
30
0.0
11
1090.781
21
585.946
31
0.0
0
LINE
5
2ac5
8
0-0
6
CONTINUOUS
62
  7
10
1090.781
20
585.946
30
0.0
11
1090.614
21
585.535
31
0.0
0
LINE
5
2ac6
8
0-0
6
CONTINUOUS
62
  7
10
1090.614
20
585.535
30
0.0
11
1090.445
21
585.103
31
0.0
0
LINE
5
2ac7
8
0-0
6
CONTINUOUS
62
  7
10
1090.445
20
585.103
30
0.0
11
1090.273
21
584.642
31
0.0
0
LINE
5
2ac8
8
0-0
6
CONTINUOUS
62
  7
10
1090.273
20
584.642
30
0.0
11
1090.096
21
584.147
31
0.0
0
LINE
5
2ac9
8
0-0
6
CONTINUOUS
62
  7
10
1090.096
20
584.147
30
0.0
11
1089.911
21
583.608
31
0.0
0
LINE
5
2aca
8
0-0
6
CONTINUOUS
62
  7
10
1089.911
20
583.608
30
0.0
11
1089.718
21
583.016
31
0.0
0
LINE
5
2acb
8
0-0
6
CONTINUOUS
62
  7
10
1089.718
20
583.016
30
0.0
11
1089.512
21
582.359
31
0.0
0
LINE
5
2acc
8
0-0
6
CONTINUOUS
62
  7
10
1089.512
20
582.359
30
0.0
11
1089.292
21
581.625
31
0.0
0
LINE
5
2acd
8
0-0
6
CONTINUOUS
62
  7
10
1089.292
20
581.625
30
0.0
11
1082.531
21
521.625
31
0.0
0
LINE
5
2ace
8
0-0
6
CONTINUOUS
62
  7
10
1169.781
20
635.650
30
0.0
11
1170.025
21
634.516
31
0.0
0
LINE
5
2acf
8
0-0
6
CONTINUOUS
62
  7
10
1096.914
20
591.557
30
0.0
11
1097.003
21
591.539
31
0.0
0
LINE
5
2ad0
8
0-0
6
CONTINUOUS
62
  7
10
1097.003
20
591.539
30
0.0
11
1097.124
21
591.507
31
0.0
0
LINE
5
2ad1
8
0-0
6
CONTINUOUS
62
  7
10
1097.124
20
591.507
30
0.0
11
1097.222
21
591.473
31
0.0
0
LINE
5
2ad2
8
0-0
6
CONTINUOUS
62
  7
10
1097.222
20
591.473
30
0.0
11
1097.308
21
591.436
31
0.0
0
LINE
5
2ad3
8
0-0
6
CONTINUOUS
62
  7
10
1097.308
20
591.436
30
0.0
11
1097.391
21
591.393
31
0.0
0
LINE
5
2ad4
8
0-0
6
CONTINUOUS
62
  7
10
1097.391
20
591.393
30
0.0
11
1097.479
21
591.338
31
0.0
0
LINE
5
2ad5
8
0-0
6
CONTINUOUS
62
  7
10
1097.479
20
591.338
30
0.0
11
1097.578
21
591.268
31
0.0
0
LINE
5
2ad6
8
0-0
6
CONTINUOUS
62
  7
10
1097.578
20
591.268
30
0.0
11
1097.685
21
591.180
31
0.0
0
LINE
5
2ad7
8
0-0
6
CONTINUOUS
62
  7
10
1097.685
20
591.180
30
0.0
11
1097.805
21
591.070
31
0.0
0
LINE
5
2ad8
8
0-0
6
CONTINUOUS
62
  7
10
1097.805
20
591.070
30
0.0
11
1097.936
21
590.937
31
0.0
0
LINE
5
2ad9
8
0-0
6
CONTINUOUS
62
  7
10
1097.936
20
590.937
30
0.0
11
1098.075
21
590.784
31
0.0
0
LINE
5
2ada
8
0-0
6
CONTINUOUS
62
  7
10
1098.075
20
590.784
30
0.0
11
1098.222
21
590.607
31
0.0
0
LINE
5
2adb
8
0-0
6
CONTINUOUS
62
  7
10
1098.222
20
590.607
30
0.0
11
1098.377
21
590.408
31
0.0
0
LINE
5
2adc
8
0-0
6
CONTINUOUS
62
  7
10
1098.377
20
590.408
30
0.0
11
1098.536
21
590.191
31
0.0
0
LINE
5
2add
8
0-0
6
CONTINUOUS
62
  7
10
1098.536
20
590.191
30
0.0
11
1098.700
21
589.956
31
0.0
0
LINE
5
2ade
8
0-0
6
CONTINUOUS
62
  7
10
1098.700
20
589.956
30
0.0
11
1098.868
21
589.702
31
0.0
0
LINE
5
2adf
8
0-0
6
CONTINUOUS
62
  7
10
1098.868
20
589.702
30
0.0
11
1099.038
21
589.433
31
0.0
0
LINE
5
2ae0
8
0-0
6
CONTINUOUS
62
  7
10
1099.038
20
589.433
30
0.0
11
1099.209
21
589.152
31
0.0
0
LINE
5
2ae1
8
0-0
6
CONTINUOUS
62
  7
10
1099.209
20
589.152
30
0.0
11
1099.382
21
588.859
31
0.0
0
LINE
5
2ae2
8
0-0
6
CONTINUOUS
62
  7
10
1099.382
20
588.859
30
0.0
11
1099.555
21
588.555
31
0.0
0
LINE
5
2ae3
8
0-0
6
CONTINUOUS
62
  7
10
1099.555
20
588.555
30
0.0
11
1099.728
21
588.242
31
0.0
0
LINE
5
2ae4
8
0-0
6
CONTINUOUS
62
  7
10
1099.728
20
588.242
30
0.0
11
1099.897
21
587.928
31
0.0
0
LINE
5
2ae5
8
0-0
6
CONTINUOUS
62
  7
10
1099.897
20
587.928
30
0.0
11
1100.070
21
587.597
31
0.0
0
LINE
5
2ae6
8
0-0
6
CONTINUOUS
62
  7
10
1100.070
20
587.597
30
0.0
11
1100.236
21
587.274
31
0.0
0
LINE
5
2ae7
8
0-0
6
CONTINUOUS
62
  7
10
1100.236
20
587.274
30
0.0
11
1100.402
21
586.939
31
0.0
0
LINE
5
2ae8
8
0-0
6
CONTINUOUS
62
  7
10
1100.402
20
586.939
30
0.0
11
1100.565
21
586.601
31
0.0
0
LINE
5
2ae9
8
0-0
6
CONTINUOUS
62
  7
10
1100.565
20
586.601
30
0.0
11
1100.727
21
586.256
31
0.0
0
LINE
5
2aea
8
0-0
6
CONTINUOUS
62
  7
10
1100.727
20
586.256
30
0.0
11
1100.887
21
585.904
31
0.0
0
LINE
5
2aeb
8
0-0
6
CONTINUOUS
62
  7
10
1100.887
20
585.904
30
0.0
11
1101.043
21
585.548
31
0.0
0
LINE
5
2aec
8
0-0
6
CONTINUOUS
62
  7
10
1101.043
20
585.548
30
0.0
11
1101.199
21
585.180
31
0.0
0
LINE
5
2aed
8
0-0
6
CONTINUOUS
62
  7
10
1101.199
20
585.180
30
0.0
11
1101.355
21
584.797
31
0.0
0
LINE
5
2aee
8
0-0
6
CONTINUOUS
62
  7
10
1101.355
20
584.797
30
0.0
11
1101.515
21
584.388
31
0.0
0
LINE
5
2aef
8
0-0
6
CONTINUOUS
62
  7
10
1101.515
20
584.388
30
0.0
11
1101.677
21
583.953
31
0.0
0
LINE
5
2af0
8
0-0
6
CONTINUOUS
62
  7
10
1101.677
20
583.953
30
0.0
11
1101.843
21
583.488
31
0.0
0
LINE
5
2af1
8
0-0
6
CONTINUOUS
62
  7
10
1101.843
20
583.488
30
0.0
11
1102.020
21
582.972
31
0.0
0
LINE
5
2af2
8
0-0
6
CONTINUOUS
62
  7
10
1102.020
20
582.972
30
0.0
11
1102.205
21
582.406
31
0.0
0
LINE
5
2af3
8
0-0
6
CONTINUOUS
62
  7
10
1102.205
20
582.406
30
0.0
11
1102.403
21
581.774
31
0.0
0
LINE
5
2af4
8
0-0
6
CONTINUOUS
62
  7
10
1102.403
20
581.774
30
0.0
11
1102.568
21
581.223
31
0.0
0
LINE
5
2af5
8
0-0
6
CONTINUOUS
62
  7
10
1186.785
20
637.602
30
0.0
11
1204.190
21
483.141
31
0.0
0
LINE
5
2af6
8
0-0
6
CONTINUOUS
62
  7
10
1170.025
20
634.516
30
0.0
11
1186.245
21
490.575
31
0.0
0
LINE
5
2af7
8
0-0
6
CONTINUOUS
62
  7
10
1154.169
20
632.338
30
0.0
11
1169.355
21
497.573
31
0.0
0
LINE
5
2af8
8
0-0
6
CONTINUOUS
62
  7
10
1140.501
20
619.674
30
0.0
11
1153.521
21
504.132
31
0.0
0
LINE
5
2af9
8
0-0
6
CONTINUOUS
62
  7
10
1126.922
20
606.227
30
0.0
11
1137.687
21
510.692
31
0.0
0
LINE
5
2afa
8
0-0
6
CONTINUOUS
62
  7
10
1116.079
20
586.348
30
0.0
11
1123.964
21
516.377
31
0.0
0
LINE
5
2afb
8
0-0
6
CONTINUOUS
62
  7
10
1102.568
20
581.223
30
0.0
11
1109.185
21
522.500
31
0.0
0
LINE
5
2afc
8
0-0
6
CONTINUOUS
62
  7
10
1116.110
20
586.128
30
0.0
11
1115.881
21
587.485
31
0.0
0
LINE
5
2afd
8
0-0
6
CONTINUOUS
62
  7
10
1115.881
20
587.485
30
0.0
11
1115.642
21
588.752
31
0.0
0
LINE
5
2afe
8
0-0
6
CONTINUOUS
62
  7
10
1115.642
20
588.752
30
0.0
11
1115.387
21
589.976
31
0.0
0
LINE
5
2aff
8
0-0
6
CONTINUOUS
62
  7
10
1115.387
20
589.976
30
0.0
11
1115.114
21
591.154
31
0.0
0
LINE
5
2b00
8
0-0
6
CONTINUOUS
62
  7
10
1115.114
20
591.154
30
0.0
11
1114.824
21
592.294
31
0.0
0
LINE
5
2b01
8
0-0
6
CONTINUOUS
62
  7
10
1114.824
20
592.294
30
0.0
11
1114.516
21
593.389
31
0.0
0
LINE
5
2b02
8
0-0
6
CONTINUOUS
62
  7
10
1114.516
20
593.389
30
0.0
11
1114.189
21
594.447
31
0.0
0
LINE
5
2b03
8
0-0
6
CONTINUOUS
62
  7
10
1114.189
20
594.447
30
0.0
11
1113.843
21
595.469
31
0.0
0
LINE
5
2b04
8
0-0
6
CONTINUOUS
62
  7
10
1113.843
20
595.469
30
0.0
11
1113.480
21
596.446
31
0.0
0
LINE
5
2b05
8
0-0
6
CONTINUOUS
62
  7
10
1113.480
20
596.446
30
0.0
11
1113.099
21
597.380
31
0.0
0
LINE
5
2b06
8
0-0
6
CONTINUOUS
62
  7
10
1113.099
20
597.380
30
0.0
11
1112.702
21
598.269
31
0.0
0
LINE
5
2b07
8
0-0
6
CONTINUOUS
62
  7
10
1112.702
20
598.269
30
0.0
11
1112.288
21
599.112
31
0.0
0
LINE
5
2b08
8
0-0
6
CONTINUOUS
62
  7
10
1112.288
20
599.112
30
0.0
11
1111.859
21
599.907
31
0.0
0
LINE
5
2b09
8
0-0
6
CONTINUOUS
62
  7
10
1111.859
20
599.907
30
0.0
11
1111.419
21
600.649
31
0.0
0
LINE
5
2b0a
8
0-0
6
CONTINUOUS
62
  7
10
1111.419
20
600.649
30
0.0
11
1110.965
21
601.340
31
0.0
0
LINE
5
2b0b
8
0-0
6
CONTINUOUS
62
  7
10
1110.965
20
601.340
30
0.0
11
1110.498
21
601.981
31
0.0
0
LINE
5
2b0c
8
0-0
6
CONTINUOUS
62
  7
10
1110.498
20
601.981
30
0.0
11
1110.021
21
602.571
31
0.0
0
LINE
5
2b0d
8
0-0
6
CONTINUOUS
62
  7
10
1110.021
20
602.571
30
0.0
11
1109.530
21
603.114
31
0.0
0
LINE
5
2b0e
8
0-0
6
CONTINUOUS
62
  7
10
1109.530
20
603.114
30
0.0
11
1109.026
21
603.611
31
0.0
0
LINE
5
2b0f
8
0-0
6
CONTINUOUS
62
  7
10
1109.026
20
603.611
30
0.0
11
1108.503
21
604.069
31
0.0
0
LINE
5
2b10
8
0-0
6
CONTINUOUS
62
  7
10
1108.503
20
604.069
30
0.0
11
1107.957
21
604.492
31
0.0
0
LINE
5
2b11
8
0-0
6
CONTINUOUS
62
  7
10
1107.957
20
604.492
30
0.0
11
1107.383
21
604.883
31
0.0
0
LINE
5
2b12
8
0-0
6
CONTINUOUS
62
  7
10
1107.383
20
604.883
30
0.0
11
1106.771
21
605.250
31
0.0
0
LINE
5
2b13
8
0-0
6
CONTINUOUS
62
  7
10
1106.771
20
605.250
30
0.0
11
1106.116
21
605.593
31
0.0
0
LINE
5
2b14
8
0-0
6
CONTINUOUS
62
  7
10
1106.116
20
605.593
30
0.0
11
1105.409
21
605.916
31
0.0
0
LINE
5
2b15
8
0-0
6
CONTINUOUS
62
  7
10
1105.409
20
605.916
30
0.0
11
1104.646
21
606.219
31
0.0
0
LINE
5
2b16
8
0-0
6
CONTINUOUS
62
  7
10
1104.646
20
606.219
30
0.0
11
1103.819
21
606.505
31
0.0
0
LINE
5
2b17
8
0-0
6
CONTINUOUS
62
  7
10
1103.819
20
606.505
30
0.0
11
1102.925
21
606.771
31
0.0
0
LINE
5
2b18
8
0-0
6
CONTINUOUS
62
  7
10
1102.925
20
606.771
30
0.0
11
1101.962
21
607.019
31
0.0
0
LINE
5
2b19
8
0-0
6
CONTINUOUS
62
  7
10
1101.962
20
607.019
30
0.0
11
1100.928
21
607.247
31
0.0
0
LINE
5
2b1a
8
0-0
6
CONTINUOUS
62
  7
10
1100.928
20
607.247
30
0.0
11
1099.825
21
607.452
31
0.0
0
LINE
5
2b1b
8
0-0
6
CONTINUOUS
62
  7
10
1099.825
20
607.452
30
0.0
11
1098.653
21
607.632
31
0.0
0
LINE
5
2b1c
8
0-0
6
CONTINUOUS
62
  7
10
1098.653
20
607.632
30
0.0
11
1097.412
21
607.782
31
0.0
0
LINE
5
2b1d
8
0-0
6
CONTINUOUS
62
  7
10
1097.412
20
607.782
30
0.0
11
1096.914
21
607.826
31
0.0
0
LINE
5
2b1e
8
0-0
6
CONTINUOUS
62
  7
10
1096.914
20
697.572
30
0.0
11
1101.759
21
697.368
31
0.0
0
LINE
5
2b1f
8
0-0
6
CONTINUOUS
62
  7
10
1101.759
20
697.368
30
0.0
11
1106.912
21
697.066
31
0.0
0
LINE
5
2b20
8
0-0
6
CONTINUOUS
62
  7
10
1106.912
20
697.066
30
0.0
11
1111.916
21
696.694
31
0.0
0
LINE
5
2b21
8
0-0
6
CONTINUOUS
62
  7
10
1111.916
20
696.694
30
0.0
11
1116.760
21
696.258
31
0.0
0
LINE
5
2b22
8
0-0
6
CONTINUOUS
62
  7
10
1116.760
20
696.258
30
0.0
11
1121.440
21
695.763
31
0.0
0
LINE
5
2b23
8
0-0
6
CONTINUOUS
62
  7
10
1121.440
20
695.763
30
0.0
11
1125.926
21
695.218
31
0.0
0
LINE
5
2b24
8
0-0
6
CONTINUOUS
62
  7
10
1125.926
20
695.218
30
0.0
11
1130.224
21
694.625
31
0.0
0
LINE
5
2b25
8
0-0
6
CONTINUOUS
62
  7
10
1130.224
20
694.625
30
0.0
11
1134.320
21
693.992
31
0.0
0
LINE
5
2b26
8
0-0
6
CONTINUOUS
62
  7
10
1134.320
20
693.992
30
0.0
11
1138.195
21
693.324
31
0.0
0
LINE
5
2b27
8
0-0
6
CONTINUOUS
62
  7
10
1138.195
20
693.324
30
0.0
11
1141.860
21
692.623
31
0.0
0
LINE
5
2b28
8
0-0
6
CONTINUOUS
62
  7
10
1141.860
20
692.623
30
0.0
11
1145.295
21
691.894
31
0.0
0
LINE
5
2b29
8
0-0
6
CONTINUOUS
62
  7
10
1145.295
20
691.894
30
0.0
11
1148.504
21
691.141
31
0.0
0
LINE
5
2b2a
8
0-0
6
CONTINUOUS
62
  7
10
1148.504
20
691.141
30
0.0
11
1151.479
21
690.367
31
0.0
0
LINE
5
2b2b
8
0-0
6
CONTINUOUS
62
  7
10
1151.479
20
690.367
30
0.0
11
1154.227
21
689.574
31
0.0
0
LINE
5
2b2c
8
0-0
6
CONTINUOUS
62
  7
10
1154.227
20
689.574
30
0.0
11
1156.743
21
688.766
31
0.0
0
LINE
5
2b2d
8
0-0
6
CONTINUOUS
62
  7
10
1156.743
20
688.766
30
0.0
11
1159.034
21
687.945
31
0.0
0
LINE
5
2b2e
8
0-0
6
CONTINUOUS
62
  7
10
1159.034
20
687.945
30
0.0
11
1161.103
21
687.114
31
0.0
0
LINE
5
2b2f
8
0-0
6
CONTINUOUS
62
  7
10
1161.103
20
687.114
30
0.0
11
1162.965
21
686.274
31
0.0
0
LINE
5
2b30
8
0-0
6
CONTINUOUS
62
  7
10
1162.965
20
686.274
30
0.0
11
1164.633
21
685.427
31
0.0
0
LINE
5
2b31
8
0-0
6
CONTINUOUS
62
  7
10
1164.633
20
685.427
30
0.0
11
1166.124
21
684.570
31
0.0
0
LINE
5
2b32
8
0-0
6
CONTINUOUS
62
  7
10
1166.124
20
684.570
30
0.0
11
1167.464
21
683.698
31
0.0
0
LINE
5
2b33
8
0-0
6
CONTINUOUS
62
  7
10
1167.464
20
683.698
30
0.0
11
1168.679
21
682.799
31
0.0
0
LINE
5
2b34
8
0-0
6
CONTINUOUS
62
  7
10
1168.679
20
682.799
30
0.0
11
1169.802
21
681.857
31
0.0
0
LINE
5
2b35
8
0-0
6
CONTINUOUS
62
  7
10
1169.802
20
681.857
30
0.0
11
1170.861
21
680.848
31
0.0
0
LINE
5
2b36
8
0-0
6
CONTINUOUS
62
  7
10
1170.861
20
680.848
30
0.0
11
1171.883
21
679.741
31
0.0
0
LINE
5
2b37
8
0-0
6
CONTINUOUS
62
  7
10
1171.883
20
679.741
30
0.0
11
1172.890
21
678.508
31
0.0
0
LINE
5
2b38
8
0-0
6
CONTINUOUS
62
  7
10
1172.890
20
678.508
30
0.0
11
1173.899
21
677.110
31
0.0
0
LINE
5
2b39
8
0-0
6
CONTINUOUS
62
  7
10
1173.899
20
677.110
30
0.0
11
1174.917
21
675.520
31
0.0
0
LINE
5
2b3a
8
0-0
6
CONTINUOUS
62
  7
10
1174.917
20
675.520
30
0.0
11
1175.950
21
673.705
31
0.0
0
LINE
5
2b3b
8
0-0
6
CONTINUOUS
62
  7
10
1175.950
20
673.705
30
0.0
11
1177.000
21
671.638
31
0.0
0
LINE
5
2b3c
8
0-0
6
CONTINUOUS
62
  7
10
1177.000
20
671.638
30
0.0
11
1178.067
21
669.292
31
0.0
0
LINE
5
2b3d
8
0-0
6
CONTINUOUS
62
  7
10
1178.067
20
669.292
30
0.0
11
1179.146
21
666.646
31
0.0
0
LINE
5
2b3e
8
0-0
6
CONTINUOUS
62
  7
10
1179.146
20
666.646
30
0.0
11
1180.240
21
663.662
31
0.0
0
LINE
5
2b3f
8
0-0
6
CONTINUOUS
62
  7
10
1180.240
20
663.662
30
0.0
11
1181.338
21
660.330
31
0.0
0
LINE
5
2b40
8
0-0
6
CONTINUOUS
62
  7
10
1181.338
20
660.330
30
0.0
11
1182.443
21
656.608
31
0.0
0
LINE
5
2b41
8
0-0
6
CONTINUOUS
62
  7
10
1182.443
20
656.608
30
0.0
11
1183.551
21
652.472
31
0.0
0
LINE
5
2b42
8
0-0
6
CONTINUOUS
62
  7
10
1183.551
20
652.472
30
0.0
11
1184.659
21
647.883
31
0.0
0
LINE
5
2b43
8
0-0
6
CONTINUOUS
62
  7
10
1184.659
20
647.883
30
0.0
11
1185.764
21
642.804
31
0.0
0
LINE
5
2b44
8
0-0
6
CONTINUOUS
62
  7
10
1185.764
20
642.804
30
0.0
11
1186.785
21
637.602
31
0.0
0
LINE
5
2b45
8
0-0
6
CONTINUOUS
62
  7
10
1126.922
20
606.227
30
0.0
11
1126.601
21
607.567
31
0.0
0
LINE
5
2b46
8
0-0
6
CONTINUOUS
62
  7
10
1126.601
20
607.567
30
0.0
11
1126.231
21
609.020
31
0.0
0
LINE
5
2b47
8
0-0
6
CONTINUOUS
62
  7
10
1126.231
20
609.020
30
0.0
11
1125.863
21
610.364
31
0.0
0
LINE
5
2b48
8
0-0
6
CONTINUOUS
62
  7
10
1125.863
20
610.364
30
0.0
11
1125.494
21
611.604
31
0.0
0
LINE
5
2b49
8
0-0
6
CONTINUOUS
62
  7
10
1125.494
20
611.604
30
0.0
11
1125.120
21
612.750
31
0.0
0
LINE
5
2b4a
8
0-0
6
CONTINUOUS
62
  7
10
1125.120
20
612.750
30
0.0
11
1124.740
21
613.802
31
0.0
0
LINE
5
2b4b
8
0-0
6
CONTINUOUS
62
  7
10
1124.740
20
613.802
30
0.0
11
1124.355
21
614.766
31
0.0
0
LINE
5
2b4c
8
0-0
6
CONTINUOUS
62
  7
10
1124.355
20
614.766
30
0.0
11
1123.961
21
615.649
31
0.0
0
LINE
5
2b4d
8
0-0
6
CONTINUOUS
62
  7
10
1123.961
20
615.649
30
0.0
11
1123.558
21
616.458
31
0.0
0
LINE
5
2b4e
8
0-0
6
CONTINUOUS
62
  7
10
1123.558
20
616.458
30
0.0
11
1123.146
21
617.196
31
0.0
0
LINE
5
2b4f
8
0-0
6
CONTINUOUS
62
  7
10
1123.146
20
617.196
30
0.0
11
1122.722
21
617.873
31
0.0
0
LINE
5
2b50
8
0-0
6
CONTINUOUS
62
  7
10
1122.722
20
617.873
30
0.0
11
1122.282
21
618.497
31
0.0
0
LINE
5
2b51
8
0-0
6
CONTINUOUS
62
  7
10
1122.282
20
618.497
30
0.0
11
1121.826
21
619.074
31
0.0
0
LINE
5
2b52
8
0-0
6
CONTINUOUS
62
  7
10
1121.826
20
619.074
30
0.0
11
1121.349
21
619.611
31
0.0
0
LINE
5
2b53
8
0-0
6
CONTINUOUS
62
  7
10
1121.349
20
619.611
30
0.0
11
1120.845
21
620.116
31
0.0
0
LINE
5
2b54
8
0-0
6
CONTINUOUS
62
  7
10
1120.845
20
620.116
30
0.0
11
1120.309
21
620.594
31
0.0
0
LINE
5
2b55
8
0-0
6
CONTINUOUS
62
  7
10
1120.309
20
620.594
30
0.0
11
1119.734
21
621.050
31
0.0
0
LINE
5
2b56
8
0-0
6
CONTINUOUS
62
  7
10
1119.734
20
621.050
30
0.0
11
1119.116
21
621.488
31
0.0
0
LINE
5
2b57
8
0-0
6
CONTINUOUS
62
  7
10
1119.116
20
621.488
30
0.0
11
1118.452
21
621.909
31
0.0
0
LINE
5
2b58
8
0-0
6
CONTINUOUS
62
  7
10
1118.452
20
621.909
30
0.0
11
1117.733
21
622.316
31
0.0
0
LINE
5
2b59
8
0-0
6
CONTINUOUS
62
  7
10
1117.733
20
622.316
30
0.0
11
1116.961
21
622.708
31
0.0
0
LINE
5
2b5a
8
0-0
6
CONTINUOUS
62
  7
10
1116.961
20
622.708
30
0.0
11
1116.132
21
623.086
31
0.0
0
LINE
5
2b5b
8
0-0
6
CONTINUOUS
62
  7
10
1116.132
20
623.086
30
0.0
11
1115.246
21
623.450
31
0.0
0
LINE
5
2b5c
8
0-0
6
CONTINUOUS
62
  7
10
1115.246
20
623.450
30
0.0
11
1114.301
21
623.799
31
0.0
0
LINE
5
2b5d
8
0-0
6
CONTINUOUS
62
  7
10
1114.301
20
623.799
30
0.0
11
1113.301
21
624.133
31
0.0
0
LINE
5
2b5e
8
0-0
6
CONTINUOUS
62
  7
10
1113.301
20
624.133
30
0.0
11
1112.245
21
624.452
31
0.0
0
LINE
5
2b5f
8
0-0
6
CONTINUOUS
62
  7
10
1112.245
20
624.452
30
0.0
11
1111.132
21
624.756
31
0.0
0
LINE
5
2b60
8
0-0
6
CONTINUOUS
62
  7
10
1111.132
20
624.756
30
0.0
11
1109.975
21
625.043
31
0.0
0
LINE
5
2b61
8
0-0
6
CONTINUOUS
62
  7
10
1109.975
20
625.043
30
0.0
11
1108.770
21
625.315
31
0.0
0
LINE
5
2b62
8
0-0
6
CONTINUOUS
62
  7
10
1108.770
20
625.315
30
0.0
11
1107.527
21
625.570
31
0.0
0
LINE
5
2b63
8
0-0
6
CONTINUOUS
62
  7
10
1107.527
20
625.570
30
0.0
11
1106.244
21
625.810
31
0.0
0
LINE
5
2b64
8
0-0
6
CONTINUOUS
62
  7
10
1106.244
20
625.810
30
0.0
11
1104.938
21
626.032
31
0.0
0
LINE
5
2b65
8
0-0
6
CONTINUOUS
62
  7
10
1104.938
20
626.032
30
0.0
11
1103.617
21
626.237
31
0.0
0
LINE
5
2b66
8
0-0
6
CONTINUOUS
62
  7
10
1103.617
20
626.237
30
0.0
11
1102.292
21
626.423
31
0.0
0
LINE
5
2b67
8
0-0
6
CONTINUOUS
62
  7
10
1102.292
20
626.423
30
0.0
11
1100.976
21
626.589
31
0.0
0
LINE
5
2b68
8
0-0
6
CONTINUOUS
62
  7
10
1100.976
20
626.589
30
0.0
11
1099.685
21
626.735
31
0.0
0
LINE
5
2b69
8
0-0
6
CONTINUOUS
62
  7
10
1099.685
20
626.735
30
0.0
11
1098.457
21
626.855
31
0.0
0
LINE
5
2b6a
8
0-0
6
CONTINUOUS
62
  7
10
1098.457
20
626.855
30
0.0
11
1097.307
21
626.948
31
0.0
0
LINE
5
2b6b
8
0-0
6
CONTINUOUS
62
  7
10
1097.307
20
626.948
30
0.0
11
1096.914
21
626.972
31
0.0
0
LINE
5
2b6c
8
0-0
6
CONTINUOUS
62
  7
10
1096.914
20
665.577
30
0.0
11
1099.186
21
665.442
31
0.0
0
LINE
5
2b6d
8
0-0
6
CONTINUOUS
62
  7
10
1099.186
20
665.442
30
0.0
11
1101.734
21
665.283
31
0.0
0
LINE
5
2b6e
8
0-0
6
CONTINUOUS
62
  7
10
1101.734
20
665.283
30
0.0
11
1104.325
21
665.108
31
0.0
0
LINE
5
2b6f
8
0-0
6
CONTINUOUS
62
  7
10
1104.325
20
665.108
30
0.0
11
1106.927
21
664.915
31
0.0
0
LINE
5
2b70
8
0-0
6
CONTINUOUS
62
  7
10
1106.927
20
664.915
30
0.0
11
1109.523
21
664.701
31
0.0
0
LINE
5
2b71
8
0-0
6
CONTINUOUS
62
  7
10
1109.523
20
664.701
30
0.0
11
1112.097
21
664.466
31
0.0
0
LINE
5
2b72
8
0-0
6
CONTINUOUS
62
  7
10
1112.097
20
664.466
30
0.0
11
1114.641
21
664.206
31
0.0
0
LINE
5
2b73
8
0-0
6
CONTINUOUS
62
  7
10
1114.641
20
664.206
30
0.0
11
1117.126
21
663.922
31
0.0
0
LINE
5
2b74
8
0-0
6
CONTINUOUS
62
  7
10
1117.126
20
663.922
30
0.0
11
1119.556
21
663.610
31
0.0
0
LINE
5
2b75
8
0-0
6
CONTINUOUS
62
  7
10
1119.556
20
663.610
30
0.0
11
1121.905
21
663.269
31
0.0
0
LINE
5
2b76
8
0-0
6
CONTINUOUS
62
  7
10
1121.905
20
663.269
30
0.0
11
1124.170
21
662.896
31
0.0
0
LINE
5
2b77
8
0-0
6
CONTINUOUS
62
  7
10
1124.170
20
662.896
30
0.0
11
1126.338
21
662.490
31
0.0
0
LINE
5
2b78
8
0-0
6
CONTINUOUS
62
  7
10
1126.338
20
662.490
30
0.0
11
1128.404
21
662.046
31
0.0
0
LINE
5
2b79
8
0-0
6
CONTINUOUS
62
  7
10
1128.404
20
662.046
30
0.0
11
1130.359
21
661.563
31
0.0
0
LINE
5
2b7a
8
0-0
6
CONTINUOUS
62
  7
10
1130.359
20
661.563
30
0.0
11
1132.202
21
661.037
31
0.0
0
LINE
5
2b7b
8
0-0
6
CONTINUOUS
62
  7
10
1132.202
20
661.037
30
0.0
11
1133.926
21
660.467
31
0.0
0
LINE
5
2b7c
8
0-0
6
CONTINUOUS
62
  7
10
1133.926
20
660.467
30
0.0
11
1135.533
21
659.847
31
0.0
0
LINE
5
2b7d
8
0-0
6
CONTINUOUS
62
  7
10
1135.533
20
659.847
30
0.0
11
1137.031
21
659.173
31
0.0
0
LINE
5
2b7e
8
0-0
6
CONTINUOUS
62
  7
10
1137.031
20
659.173
30
0.0
11
1138.423
21
658.441
31
0.0
0
LINE
5
2b7f
8
0-0
6
CONTINUOUS
62
  7
10
1138.423
20
658.441
30
0.0
11
1139.721
21
657.643
31
0.0
0
LINE
5
2b80
8
0-0
6
CONTINUOUS
62
  7
10
1139.721
20
657.643
30
0.0
11
1140.940
21
656.768
31
0.0
0
LINE
5
2b81
8
0-0
6
CONTINUOUS
62
  7
10
1140.940
20
656.768
30
0.0
11
1142.096
21
655.803
31
0.0
0
LINE
5
2b82
8
0-0
6
CONTINUOUS
62
  7
10
1142.096
20
655.803
30
0.0
11
1143.202
21
654.731
31
0.0
0
LINE
5
2b83
8
0-0
6
CONTINUOUS
62
  7
10
1143.202
20
654.731
30
0.0
11
1144.273
21
653.534
31
0.0
0
LINE
5
2b84
8
0-0
6
CONTINUOUS
62
  7
10
1144.273
20
653.534
30
0.0
11
1145.318
21
652.194
31
0.0
0
LINE
5
2b85
8
0-0
6
CONTINUOUS
62
  7
10
1145.318
20
652.194
30
0.0
11
1146.347
21
650.694
31
0.0
0
LINE
5
2b86
8
0-0
6
CONTINUOUS
62
  7
10
1146.347
20
650.694
30
0.0
11
1147.362
21
649.024
31
0.0
0
LINE
5
2b87
8
0-0
6
CONTINUOUS
62
  7
10
1147.362
20
649.024
30
0.0
11
1148.370
21
647.169
31
0.0
0
LINE
5
2b88
8
0-0
6
CONTINUOUS
62
  7
10
1148.370
20
647.169
30
0.0
11
1149.371
21
645.126
31
0.0
0
LINE
5
2b89
8
0-0
6
CONTINUOUS
62
  7
10
1149.371
20
645.126
30
0.0
11
1150.366
21
642.890
31
0.0
0
LINE
5
2b8a
8
0-0
6
CONTINUOUS
62
  7
10
1150.366
20
642.890
30
0.0
11
1151.357
21
640.457
31
0.0
0
LINE
5
2b8b
8
0-0
6
CONTINUOUS
62
  7
10
1151.357
20
640.457
30
0.0
11
1152.341
21
637.831
31
0.0
0
LINE
5
2b8c
8
0-0
6
CONTINUOUS
62
  7
10
1152.341
20
637.831
30
0.0
11
1153.316
21
635.010
31
0.0
0
LINE
5
2b8d
8
0-0
6
CONTINUOUS
62
  7
10
1153.316
20
635.010
30
0.0
11
1154.169
21
632.338
31
0.0
0
LINE
5
2b8e
8
0-0
6
CONTINUOUS
62
  7
10
1169.781
20
635.650
30
0.0
11
1169.630
21
636.309
31
0.0
0
LINE
5
2b8f
8
0-0
6
CONTINUOUS
62
  7
10
1169.630
20
636.309
30
0.0
11
1169.022
21
638.787
31
0.0
0
LINE
5
2b90
8
0-0
6
CONTINUOUS
62
  7
10
1169.022
20
638.787
30
0.0
11
1168.399
21
641.160
31
0.0
0
LINE
5
2b91
8
0-0
6
CONTINUOUS
62
  7
10
1168.399
20
641.160
30
0.0
11
1167.762
21
643.424
31
0.0
0
LINE
5
2b92
8
0-0
6
CONTINUOUS
62
  7
10
1167.762
20
643.424
30
0.0
11
1167.109
21
645.584
31
0.0
0
LINE
5
2b93
8
0-0
6
CONTINUOUS
62
  7
10
1167.109
20
645.584
30
0.0
11
1166.439
21
647.638
31
0.0
0
LINE
5
2b94
8
0-0
6
CONTINUOUS
62
  7
10
1166.439
20
647.638
30
0.0
11
1165.748
21
649.592
31
0.0
0
LINE
5
2b95
8
0-0
6
CONTINUOUS
62
  7
10
1165.748
20
649.592
30
0.0
11
1165.032
21
651.447
31
0.0
0
LINE
5
2b96
8
0-0
6
CONTINUOUS
62
  7
10
1165.032
20
651.447
30
0.0
11
1164.288
21
653.207
31
0.0
0
LINE
5
2b97
8
0-0
6
CONTINUOUS
62
  7
10
1164.288
20
653.207
30
0.0
11
1163.511
21
654.871
31
0.0
0
LINE
5
2b98
8
0-0
6
CONTINUOUS
62
  7
10
1163.511
20
654.871
30
0.0
11
1162.695
21
656.446
31
0.0
0
LINE
5
2b99
8
0-0
6
CONTINUOUS
62
  7
10
1162.695
20
656.446
30
0.0
11
1161.834
21
657.937
31
0.0
0
LINE
5
2b9a
8
0-0
6
CONTINUOUS
62
  7
10
1161.834
20
657.937
30
0.0
11
1160.921
21
659.349
31
0.0
0
LINE
5
2b9b
8
0-0
6
CONTINUOUS
62
  7
10
1160.921
20
659.349
30
0.0
11
1159.948
21
660.690
31
0.0
0
LINE
5
2b9c
8
0-0
6
CONTINUOUS
62
  7
10
1159.948
20
660.690
30
0.0
11
1158.903
21
661.967
31
0.0
0
LINE
5
2b9d
8
0-0
6
CONTINUOUS
62
  7
10
1158.903
20
661.967
30
0.0
11
1157.778
21
663.189
31
0.0
0
LINE
5
2b9e
8
0-0
6
CONTINUOUS
62
  7
10
1157.778
20
663.189
30
0.0
11
1156.561
21
664.361
31
0.0
0
LINE
5
2b9f
8
0-0
6
CONTINUOUS
62
  7
10
1156.561
20
664.361
30
0.0
11
1155.238
21
665.491
31
0.0
0
LINE
5
2ba0
8
0-0
6
CONTINUOUS
62
  7
10
1155.238
20
665.491
30
0.0
11
1153.800
21
666.581
31
0.0
0
LINE
5
2ba1
8
0-0
6
CONTINUOUS
62
  7
10
1153.800
20
666.581
30
0.0
11
1152.235
21
667.635
31
0.0
0
LINE
5
2ba2
8
0-0
6
CONTINUOUS
62
  7
10
1152.235
20
667.635
30
0.0
11
1150.534
21
668.655
31
0.0
0
LINE
5
2ba3
8
0-0
6
CONTINUOUS
62
  7
10
1150.534
20
668.655
30
0.0
11
1148.689
21
669.640
31
0.0
0
LINE
5
2ba4
8
0-0
6
CONTINUOUS
62
  7
10
1148.689
20
669.640
30
0.0
11
1146.700
21
670.589
31
0.0
0
LINE
5
2ba5
8
0-0
6
CONTINUOUS
62
  7
10
1146.700
20
670.589
30
0.0
11
1144.559
21
671.501
31
0.0
0
LINE
5
2ba6
8
0-0
6
CONTINUOUS
62
  7
10
1144.559
20
671.501
30
0.0
11
1142.265
21
672.375
31
0.0
0
LINE
5
2ba7
8
0-0
6
CONTINUOUS
62
  7
10
1142.265
20
672.375
30
0.0
11
1139.821
21
673.208
31
0.0
0
LINE
5
2ba8
8
0-0
6
CONTINUOUS
62
  7
10
1139.821
20
673.208
30
0.0
11
1137.230
21
673.999
31
0.0
0
LINE
5
2ba9
8
0-0
6
CONTINUOUS
62
  7
10
1137.230
20
673.999
30
0.0
11
1134.493
21
674.745
31
0.0
0
LINE
5
2baa
8
0-0
6
CONTINUOUS
62
  7
10
1134.493
20
674.745
30
0.0
11
1131.616
21
675.444
31
0.0
0
LINE
5
2bab
8
0-0
6
CONTINUOUS
62
  7
10
1131.616
20
675.444
30
0.0
11
1128.608
21
676.095
31
0.0
0
LINE
5
2bac
8
0-0
6
CONTINUOUS
62
  7
10
1128.608
20
676.095
30
0.0
11
1125.474
21
676.696
31
0.0
0
LINE
5
2bad
8
0-0
6
CONTINUOUS
62
  7
10
1125.474
20
676.696
30
0.0
11
1122.223
21
677.244
31
0.0
0
LINE
5
2bae
8
0-0
6
CONTINUOUS
62
  7
10
1122.223
20
677.244
30
0.0
11
1118.857
21
677.739
31
0.0
0
LINE
5
2baf
8
0-0
6
CONTINUOUS
62
  7
10
1118.857
20
677.739
30
0.0
11
1115.393
21
678.180
31
0.0
0
LINE
5
2bb0
8
0-0
6
CONTINUOUS
62
  7
10
1115.393
20
678.180
30
0.0
11
1111.831
21
678.567
31
0.0
0
LINE
5
2bb1
8
0-0
6
CONTINUOUS
62
  7
10
1111.831
20
678.567
30
0.0
11
1108.184
21
678.899
31
0.0
0
LINE
5
2bb2
8
0-0
6
CONTINUOUS
62
  7
10
1108.184
20
678.899
30
0.0
11
1104.451
21
679.178
31
0.0
0
LINE
5
2bb3
8
0-0
6
CONTINUOUS
62
  7
10
1104.451
20
679.178
30
0.0
11
1100.646
21
679.406
31
0.0
0
LINE
5
2bb4
8
0-0
6
CONTINUOUS
62
  7
10
1100.646
20
679.406
30
0.0
11
1096.914
21
679.580
31
0.0
0
LINE
5
2bb5
8
0-0
6
CONTINUOUS
62
  7
10
1053.326
20
619.674
30
0.0
11
1053.767
21
621.384
31
0.0
0
LINE
5
2bb6
8
0-0
6
CONTINUOUS
62
  7
10
1053.767
20
621.384
30
0.0
11
1054.287
21
623.278
31
0.0
0
LINE
5
2bb7
8
0-0
6
CONTINUOUS
62
  7
10
1054.287
20
623.278
30
0.0
11
1054.829
21
625.106
31
0.0
0
LINE
5
2bb8
8
0-0
6
CONTINUOUS
62
  7
10
1054.829
20
625.106
30
0.0
11
1055.398
21
626.860
31
0.0
0
LINE
5
2bb9
8
0-0
6
CONTINUOUS
62
  7
10
1055.398
20
626.860
30
0.0
11
1055.998
21
628.535
31
0.0
0
LINE
5
2bba
8
0-0
6
CONTINUOUS
62
  7
10
1055.998
20
628.535
30
0.0
11
1056.635
21
630.133
31
0.0
0
LINE
5
2bbb
8
0-0
6
CONTINUOUS
62
  7
10
1056.635
20
630.133
30
0.0
11
1057.313
21
631.647
31
0.0
0
LINE
5
2bbc
8
0-0
6
CONTINUOUS
62
  7
10
1057.313
20
631.647
30
0.0
11
1058.034
21
633.077
31
0.0
0
LINE
5
2bbd
8
0-0
6
CONTINUOUS
62
  7
10
1058.034
20
633.077
30
0.0
11
1058.805
21
634.425
31
0.0
0
LINE
5
2bbe
8
0-0
6
CONTINUOUS
62
  7
10
1058.805
20
634.425
30
0.0
11
1059.629
21
635.693
31
0.0
0
LINE
5
2bbf
8
0-0
6
CONTINUOUS
62
  7
10
1059.629
20
635.693
30
0.0
11
1060.510
21
636.884
31
0.0
0
LINE
5
2bc0
8
0-0
6
CONTINUOUS
62
  7
10
1060.510
20
636.884
30
0.0
11
1061.453
21
638.002
31
0.0
0
LINE
5
2bc1
8
0-0
6
CONTINUOUS
62
  7
10
1061.453
20
638.002
30
0.0
11
1062.465
21
639.053
31
0.0
0
LINE
5
2bc2
8
0-0
6
CONTINUOUS
62
  7
10
1062.465
20
639.053
30
0.0
11
1063.552
21
640.041
31
0.0
0
LINE
5
2bc3
8
0-0
6
CONTINUOUS
62
  7
10
1063.552
20
640.041
30
0.0
11
1064.720
21
640.970
31
0.0
0
LINE
5
2bc4
8
0-0
6
CONTINUOUS
62
  7
10
1064.720
20
640.970
30
0.0
11
1065.975
21
641.843
31
0.0
0
LINE
5
2bc5
8
0-0
6
CONTINUOUS
62
  7
10
1065.975
20
641.843
30
0.0
11
1067.319
21
642.662
31
0.0
0
LINE
5
2bc6
8
0-0
6
CONTINUOUS
62
  7
10
1067.319
20
642.662
30
0.0
11
1068.755
21
643.428
31
0.0
0
LINE
5
2bc7
8
0-0
6
CONTINUOUS
62
  7
10
1068.755
20
643.428
30
0.0
11
1070.285
21
644.142
31
0.0
0
LINE
5
2bc8
8
0-0
6
CONTINUOUS
62
  7
10
1070.285
20
644.142
30
0.0
11
1071.903
21
644.804
31
0.0
0
LINE
5
2bc9
8
0-0
6
CONTINUOUS
62
  7
10
1071.903
20
644.804
30
0.0
11
1073.605
21
645.414
31
0.0
0
LINE
5
2bca
8
0-0
6
CONTINUOUS
62
  7
10
1073.605
20
645.414
30
0.0
11
1075.389
21
645.973
31
0.0
0
LINE
5
2bcb
8
0-0
6
CONTINUOUS
62
  7
10
1075.389
20
645.973
30
0.0
11
1077.240
21
646.482
31
0.0
0
LINE
5
2bcc
8
0-0
6
CONTINUOUS
62
  7
10
1077.240
20
646.482
30
0.0
11
1079.150
21
646.942
31
0.0
0
LINE
5
2bcd
8
0-0
6
CONTINUOUS
62
  7
10
1079.150
20
646.942
30
0.0
11
1081.109
21
647.356
31
0.0
0
LINE
5
2bce
8
0-0
6
CONTINUOUS
62
  7
10
1081.109
20
647.356
30
0.0
11
1083.107
21
647.725
31
0.0
0
LINE
5
2bcf
8
0-0
6
CONTINUOUS
62
  7
10
1083.107
20
647.725
30
0.0
11
1085.125
21
648.053
31
0.0
0
LINE
5
2bd0
8
0-0
6
CONTINUOUS
62
  7
10
1085.125
20
648.053
30
0.0
11
1087.150
21
648.341
31
0.0
0
LINE
5
2bd1
8
0-0
6
CONTINUOUS
62
  7
10
1087.150
20
648.341
30
0.0
11
1089.169
21
648.593
31
0.0
0
LINE
5
2bd2
8
0-0
6
CONTINUOUS
62
  7
10
1089.169
20
648.593
30
0.0
11
1091.170
21
648.812
31
0.0
0
LINE
5
2bd3
8
0-0
6
CONTINUOUS
62
  7
10
1091.170
20
648.812
30
0.0
11
1093.128
21
649.001
31
0.0
0
LINE
5
2bd4
8
0-0
6
CONTINUOUS
62
  7
10
1093.128
20
649.001
30
0.0
11
1095.031
21
649.162
31
0.0
0
LINE
5
2bd5
8
0-0
6
CONTINUOUS
62
  7
10
1095.031
20
649.162
30
0.0
11
1096.862
21
649.299
31
0.0
0
LINE
5
2bd6
8
0-0
6
CONTINUOUS
62
  7
10
1096.862
20
649.299
30
0.0
11
1096.914
21
649.303
31
0.0
0
LINE
5
2bd7
8
0-0
6
CONTINUOUS
62
  7
10
1140.501
20
619.674
30
0.0
11
1140.061
21
621.384
31
0.0
0
LINE
5
2bd8
8
0-0
6
CONTINUOUS
62
  7
10
1140.061
20
621.384
30
0.0
11
1139.541
21
623.278
31
0.0
0
LINE
5
2bd9
8
0-0
6
CONTINUOUS
62
  7
10
1139.541
20
623.278
30
0.0
11
1138.998
21
625.106
31
0.0
0
LINE
5
2bda
8
0-0
6
CONTINUOUS
62
  7
10
1138.998
20
625.106
30
0.0
11
1138.429
21
626.860
31
0.0
0
LINE
5
2bdb
8
0-0
6
CONTINUOUS
62
  7
10
1138.429
20
626.860
30
0.0
11
1137.830
21
628.535
31
0.0
0
LINE
5
2bdc
8
0-0
6
CONTINUOUS
62
  7
10
1137.830
20
628.535
30
0.0
11
1137.192
21
630.133
31
0.0
0
LINE
5
2bdd
8
0-0
6
CONTINUOUS
62
  7
10
1137.192
20
630.133
30
0.0
11
1136.515
21
631.647
31
0.0
0
LINE
5
2bde
8
0-0
6
CONTINUOUS
62
  7
10
1136.515
20
631.647
30
0.0
11
1135.793
21
633.077
31
0.0
0
LINE
5
2bdf
8
0-0
6
CONTINUOUS
62
  7
10
1135.793
20
633.077
30
0.0
11
1135.022
21
634.425
31
0.0
0
LINE
5
2be0
8
0-0
6
CONTINUOUS
62
  7
10
1135.022
20
634.425
30
0.0
11
1134.199
21
635.693
31
0.0
0
LINE
5
2be1
8
0-0
6
CONTINUOUS
62
  7
10
1134.199
20
635.693
30
0.0
11
1133.318
21
636.884
31
0.0
0
LINE
5
2be2
8
0-0
6
CONTINUOUS
62
  7
10
1133.318
20
636.884
30
0.0
11
1132.374
21
638.002
31
0.0
0
LINE
5
2be3
8
0-0
6
CONTINUOUS
62
  7
10
1132.374
20
638.002
30
0.0
11
1131.362
21
639.053
31
0.0
0
LINE
5
2be4
8
0-0
6
CONTINUOUS
62
  7
10
1131.362
20
639.053
30
0.0
11
1130.275
21
640.041
31
0.0
0
LINE
5
2be5
8
0-0
6
CONTINUOUS
62
  7
10
1130.275
20
640.041
30
0.0
11
1129.107
21
640.970
31
0.0
0
LINE
5
2be6
8
0-0
6
CONTINUOUS
62
  7
10
1129.107
20
640.970
30
0.0
11
1127.853
21
641.843
31
0.0
0
LINE
5
2be7
8
0-0
6
CONTINUOUS
62
  7
10
1127.853
20
641.843
30
0.0
11
1126.508
21
642.662
31
0.0
0
LINE
5
2be8
8
0-0
6
CONTINUOUS
62
  7
10
1126.508
20
642.662
30
0.0
11
1125.072
21
643.428
31
0.0
0
LINE
5
2be9
8
0-0
6
CONTINUOUS
62
  7
10
1125.072
20
643.428
30
0.0
11
1123.542
21
644.142
31
0.0
0
LINE
5
2bea
8
0-0
6
CONTINUOUS
62
  7
10
1123.542
20
644.142
30
0.0
11
1121.925
21
644.804
31
0.0
0
LINE
5
2beb
8
0-0
6
CONTINUOUS
62
  7
10
1121.925
20
644.804
30
0.0
11
1120.222
21
645.414
31
0.0
0
LINE
5
2bec
8
0-0
6
CONTINUOUS
62
  7
10
1120.222
20
645.414
30
0.0
11
1118.439
21
645.973
31
0.0
0
LINE
5
2bed
8
0-0
6
CONTINUOUS
62
  7
10
1118.439
20
645.973
30
0.0
11
1116.588
21
646.482
31
0.0
0
LINE
5
2bee
8
0-0
6
CONTINUOUS
62
  7
10
1116.588
20
646.482
30
0.0
11
1114.678
21
646.942
31
0.0
0
LINE
5
2bef
8
0-0
6
CONTINUOUS
62
  7
10
1114.678
20
646.942
30
0.0
11
1112.718
21
647.356
31
0.0
0
LINE
5
2bf0
8
0-0
6
CONTINUOUS
62
  7
10
1112.718
20
647.356
30
0.0
11
1110.721
21
647.725
31
0.0
0
LINE
5
2bf1
8
0-0
6
CONTINUOUS
62
  7
10
1110.721
20
647.725
30
0.0
11
1108.702
21
648.053
31
0.0
0
LINE
5
2bf2
8
0-0
6
CONTINUOUS
62
  7
10
1108.702
20
648.053
30
0.0
11
1106.677
21
648.341
31
0.0
0
LINE
5
2bf3
8
0-0
6
CONTINUOUS
62
  7
10
1106.677
20
648.341
30
0.0
11
1104.659
21
648.593
31
0.0
0
LINE
5
2bf4
8
0-0
6
CONTINUOUS
62
  7
10
1104.659
20
648.593
30
0.0
11
1102.658
21
648.812
31
0.0
0
LINE
5
2bf5
8
0-0
6
CONTINUOUS
62
  7
10
1102.658
20
648.812
30
0.0
11
1100.699
21
649.001
31
0.0
0
LINE
5
2bf6
8
0-0
6
CONTINUOUS
62
  7
10
1100.699
20
649.001
30
0.0
11
1098.796
21
649.162
31
0.0
0
LINE
5
2bf7
8
0-0
6
CONTINUOUS
62
  7
10
1098.796
20
649.162
30
0.0
11
1096.966
21
649.299
31
0.0
0
LINE
5
2bf8
8
0-0
6
CONTINUOUS
62
  7
10
1096.966
20
649.299
30
0.0
11
1096.914
21
649.303
31
0.0
0
LINE
5
2bf9
8
0-0
6
CONTINUOUS
62
  7
10
1077.736
20
586.238
30
0.0
11
1069.864
21
516.377
31
0.0
0
LINE
5
2bfa
8
0-0
6
CONTINUOUS
62
  7
10
1077.736
20
586.238
30
0.0
11
1077.947
21
587.485
31
0.0
0
LINE
5
2bfb
8
0-0
6
CONTINUOUS
62
  7
10
1077.947
20
587.485
30
0.0
11
1078.185
21
588.752
31
0.0
0
LINE
5
2bfc
8
0-0
6
CONTINUOUS
62
  7
10
1078.185
20
588.752
30
0.0
11
1078.441
21
589.976
31
0.0
0
LINE
5
2bfd
8
0-0
6
CONTINUOUS
62
  7
10
1078.441
20
589.976
30
0.0
11
1078.713
21
591.154
31
0.0
0
LINE
5
2bfe
8
0-0
6
CONTINUOUS
62
  7
10
1078.713
20
591.154
30
0.0
11
1079.004
21
592.294
31
0.0
0
LINE
5
2bff
8
0-0
6
CONTINUOUS
62
  7
10
1079.004
20
592.294
30
0.0
11
1079.312
21
593.389
31
0.0
0
LINE
5
2c00
8
0-0
6
CONTINUOUS
62
  7
10
1079.312
20
593.389
30
0.0
11
1079.638
21
594.447
31
0.0
0
LINE
5
2c01
8
0-0
6
CONTINUOUS
62
  7
10
1079.638
20
594.447
30
0.0
11
1079.985
21
595.469
31
0.0
0
LINE
5
2c02
8
0-0
6
CONTINUOUS
62
  7
10
1079.985
20
595.469
30
0.0
11
1080.348
21
596.446
31
0.0
0
LINE
5
2c03
8
0-0
6
CONTINUOUS
62
  7
10
1080.348
20
596.446
30
0.0
11
1080.728
21
597.380
31
0.0
0
LINE
5
2c04
8
0-0
6
CONTINUOUS
62
  7
10
1080.728
20
597.380
30
0.0
11
1081.126
21
598.269
31
0.0
0
LINE
5
2c05
8
0-0
6
CONTINUOUS
62
  7
10
1081.126
20
598.269
30
0.0
11
1081.539
21
599.112
31
0.0
0
LINE
5
2c06
8
0-0
6
CONTINUOUS
62
  7
10
1081.539
20
599.112
30
0.0
11
1081.968
21
599.907
31
0.0
0
LINE
5
2c07
8
0-0
6
CONTINUOUS
62
  7
10
1081.968
20
599.907
30
0.0
11
1082.409
21
600.649
31
0.0
0
LINE
5
2c08
8
0-0
6
CONTINUOUS
62
  7
10
1082.409
20
600.649
30
0.0
11
1082.863
21
601.340
31
0.0
0
LINE
5
2c09
8
0-0
6
CONTINUOUS
62
  7
10
1082.863
20
601.340
30
0.0
11
1083.329
21
601.981
31
0.0
0
LINE
5
2c0a
8
0-0
6
CONTINUOUS
62
  7
10
1083.329
20
601.981
30
0.0
11
1083.807
21
602.571
31
0.0
0
LINE
5
2c0b
8
0-0
6
CONTINUOUS
62
  7
10
1083.807
20
602.571
30
0.0
11
1084.297
21
603.114
31
0.0
0
LINE
5
2c0c
8
0-0
6
CONTINUOUS
62
  7
10
1084.297
20
603.114
30
0.0
11
1084.802
21
603.611
31
0.0
0
LINE
5
2c0d
8
0-0
6
CONTINUOUS
62
  7
10
1084.802
20
603.611
30
0.0
11
1085.325
21
604.069
31
0.0
0
LINE
5
2c0e
8
0-0
6
CONTINUOUS
62
  7
10
1085.325
20
604.069
30
0.0
11
1085.870
21
604.492
31
0.0
0
LINE
5
2c0f
8
0-0
6
CONTINUOUS
62
  7
10
1085.870
20
604.492
30
0.0
11
1086.444
21
604.883
31
0.0
0
LINE
5
2c10
8
0-0
6
CONTINUOUS
62
  7
10
1086.444
20
604.883
30
0.0
11
1087.057
21
605.250
31
0.0
0
LINE
5
2c11
8
0-0
6
CONTINUOUS
62
  7
10
1087.057
20
605.250
30
0.0
11
1087.712
21
605.593
31
0.0
0
LINE
5
2c12
8
0-0
6
CONTINUOUS
62
  7
10
1087.712
20
605.593
30
0.0
11
1088.418
21
605.916
31
0.0
0
LINE
5
2c13
8
0-0
6
CONTINUOUS
62
  7
10
1088.418
20
605.916
30
0.0
11
1089.181
21
606.219
31
0.0
0
LINE
5
2c14
8
0-0
6
CONTINUOUS
62
  7
10
1089.181
20
606.219
30
0.0
11
1090.008
21
606.505
31
0.0
0
LINE
5
2c15
8
0-0
6
CONTINUOUS
62
  7
10
1090.008
20
606.505
30
0.0
11
1090.902
21
606.771
31
0.0
0
LINE
5
2c16
8
0-0
6
CONTINUOUS
62
  7
10
1090.902
20
606.771
30
0.0
11
1091.865
21
607.019
31
0.0
0
LINE
5
2c17
8
0-0
6
CONTINUOUS
62
  7
10
1091.865
20
607.019
30
0.0
11
1092.899
21
607.247
31
0.0
0
LINE
5
2c18
8
0-0
6
CONTINUOUS
62
  7
10
1092.899
20
607.247
30
0.0
11
1094.002
21
607.452
31
0.0
0
LINE
5
2c19
8
0-0
6
CONTINUOUS
62
  7
10
1094.002
20
607.452
30
0.0
11
1095.175
21
607.632
31
0.0
0
LINE
5
2c1a
8
0-0
6
CONTINUOUS
62
  7
10
1095.175
20
607.632
30
0.0
11
1096.416
21
607.782
31
0.0
0
LINE
5
2c1b
8
0-0
6
CONTINUOUS
62
  7
10
1096.416
20
607.782
30
0.0
11
1096.914
21
607.826
31
0.0
0
LINE
5
2c1c
8
0-0
6
CONTINUOUS
62
  7
10
768.535
20
469.584
30
0.0
11
768.535
21
732.584
31
0.0
0
LINE
5
2c1d
8
0-0
6
CONTINUOUS
62
  7
10
906.373
20
469.584
30
0.0
11
768.535
21
469.584
31
0.0
0
LINE
5
2c1e
8
0-0
6
CONTINUOUS
62
  7
10
906.373
20
732.584
30
0.0
11
768.535
21
732.584
31
0.0
0
CIRCLE
5
2c1f
8
ADD_LINE
6
HIDDEN
62
  3
10
1096.914
20
469.584
30
0.0
40
3.000
0
TEXT
5
2c20
100
AcDbEntity
8
0-0
62
7
100
AcDbText
10
766.035
20
591.709
30
0.0
40
9.750
41
0.800
50
90.000
1
263
100
AcDbText
0
POINT
5
2c21
8
0-0
62
  7
10
768.535
20
469.584
30
0.0
0
POINT
5
2c22
8
0-0
62
  7
10
768.535
20
732.584
30
0.0
0
ENDSEC
0
EOF
