0
SECTION
2
HEADER
  9
$EXTMIN
10
0
20
0
30
0
  9
$EXTMAX
10
1318.757
20
1092.406
30
0
  9
$LTSCALE
40
5.000
  9
$DIMSCALE
40
5.000
  9
$PDMODE
70
0
  9
$PDSIZE
40
40
0
ENDSEC
0
SECTION
2
TABLES
0
TABLE
2
LTYPE
70
9
0
LTYPE
5
1f4
2
CONTINUOUS
70
0
3
実線
72
65
73
0
40
0.0
0
LTYPE
5
1f5
2
DOT
70
0
3
--  --  --  --  --  --  --  --     
72
65
73
2
40
5.000
49
1.000
49
-4.000
0
LTYPE
5
1f6
2
DASHED
70
0
3
----    ----    ----    ----    
72
65
73
2
40
5.000
49
2.000
49
-3.000
0
LTYPE
5
1f7
2
DASHED2
70
0
3
------  ------  ------  ------ 
72
65
73
2
40
10.000
49
4.000
49
-6.000
0
LTYPE
5
1f8
2
CENTER
70
0
3
----- - ----- - ----- - ----- - 
72
65
73
4
40
9.000
49
6.000
49
-1.000
49
1.000
49
-1.000
0
LTYPE
5
1f9
2
CENTER2
70
0
3
----------  --  ----------  -- 
72
65
73
4
40
18.000
49
12.000
49
-2.000
49
2.000
49
-2.000
0
LTYPE
5
1fa
2
PHANTOM
70
0
3
--- - - --- - - --- - - --- - -
72
65
73
6
40
10.000
49
5.000
49
-1.000
49
1.000
49
-1.000
49
1.000
49
-1.000
0
LTYPE
5
1fb
2
PHANTOM2
70
0
3
--------  -  -  --------  -  -
72
65
73
6
40
16.000
49
6.000
49
-2.000
49
2.000
49
-2.000
49
2.000
49
-2.000
0
LTYPE
5
1fc
2
HIDDEN
70
0
3
-   -   -   -   -   -   -   -   
72
65
73
2
40
2.500
49
0.500
49
-2.000
0
ENDTAB
0
TABLE
2
STYLE
70
1
0
STYLE
5
1fd
100
AcDbSymbolTableRecord
100
AcDbTextStyleTableRecord
2
STANDARD
70
0
40
0.0
41
1.0
50
0.0
71
0
42
0.0
3
txt.shx
4
extfont.shx
0
STYLE
5
1fe
100
AcDbSymbolTableRecord
100
AcDbTextStyleTableRecord
2
TATEGAKI
70
4
40
0.0
41
1.0
50
0.0
71
0
42
0.0
3
txt.shx
4
extfont.shx
0
STYLE
5
1ff
100
AcDbSymbolTableRecord
100
AcDbTextStyleTableRecord
2
MT
70
0
40
0.0
41
1.0
50
0.0
71
0
42
0.0
3
MS Mincho
4

0
STYLE
5
200
100
AcDbSymbolTableRecord
100
AcDbTextStyleTableRecord
2
TMT
70
4
40
0.0
41
1.0
50
0.0
71
0
42
0.0
3
@MS Mincho
4

0
ENDTAB
0
TABLE
2
LAYER
5
2c23
100
AcDbSymbolTable
70
10
0
LAYER
5
2c24
100
AcDbSymbolTableRecord
100
AcDbLayerTableRecord
2
0
70
64
62
  7
  6
CONTINUOUS
0
LAYER
5
2c25
100
AcDbSymbolTableRecord
100
AcDbLayerTableRecord
2
0-0
70
64
62
  7
  6
CONTINUOUS
0
LAYER
5
2c26
100
AcDbSymbolTableRecord
100
AcDbLayerTableRecord
2
ADD_LINE
70
64
62
  -7
  6
CONTINUOUS
0
ENDTAB
0
ENDSEC
0
SECTION
2
ENTITIES
0
LINE
5
2c27
8
0-0
6
CONTINUOUS
62
  7
10
767.667
20
675.135
30
0.0
11
768.555
21
678.009
31
0.0
0
LINE
5
2c28
8
0-0
6
CONTINUOUS
62
  7
10
768.555
20
678.009
30
0.0
11
770.146
21
682.934
31
0.0
0
LINE
5
2c29
8
0-0
6
CONTINUOUS
62
  7
10
770.146
20
682.934
30
0.0
11
771.906
21
687.777
31
0.0
0
LINE
5
2c2a
8
0-0
6
CONTINUOUS
62
  7
10
771.906
20
687.777
30
0.0
11
773.943
21
692.486
31
0.0
0
LINE
5
2c2b
8
0-0
6
CONTINUOUS
62
  7
10
773.943
20
692.486
30
0.0
11
775.293
21
695.135
31
0.0
0
LINE
5
2c2c
8
0-0
6
CONTINUOUS
62
  7
10
775.293
20
695.135
30
0.0
11
775.685
21
695.844
31
0.0
0
LINE
5
2c2d
8
0-0
6
CONTINUOUS
62
  7
10
775.685
20
695.844
30
0.0
11
776.384
21
697.055
31
0.0
0
LINE
5
2c2e
8
0-0
6
CONTINUOUS
62
  7
10
776.384
20
697.055
30
0.0
11
777.107
21
698.255
31
0.0
0
LINE
5
2c2f
8
0-0
6
CONTINUOUS
62
  7
10
777.107
20
698.255
30
0.0
11
777.848
21
699.447
31
0.0
0
LINE
5
2c30
8
0-0
6
CONTINUOUS
62
  7
10
777.848
20
699.447
30
0.0
11
778.283
21
700.135
31
0.0
0
LINE
5
2c31
8
0-0
6
CONTINUOUS
62
  7
10
778.283
20
700.135
30
0.0
11
778.743
21
700.855
31
0.0
0
LINE
5
2c32
8
0-0
6
CONTINUOUS
62
  7
10
778.743
20
700.855
30
0.0
11
779.550
21
702.087
31
0.0
0
LINE
5
2c33
8
0-0
6
CONTINUOUS
62
  7
10
779.550
20
702.087
30
0.0
11
780.385
21
703.296
31
0.0
0
LINE
5
2c34
8
0-0
6
CONTINUOUS
62
  7
10
780.385
20
703.296
30
0.0
11
781.261
21
704.473
31
0.0
0
LINE
5
2c35
8
0-0
6
CONTINUOUS
62
  7
10
781.261
20
704.473
30
0.0
11
781.793
21
705.135
31
0.0
0
LINE
5
2c36
8
0-0
6
CONTINUOUS
62
  7
10
781.793
20
705.135
30
0.0
11
782.432
21
705.881
31
0.0
0
LINE
5
2c37
8
0-0
6
CONTINUOUS
62
  7
10
782.432
20
705.881
30
0.0
11
783.589
21
707.122
31
0.0
0
LINE
5
2c38
8
0-0
6
CONTINUOUS
62
  7
10
783.589
20
707.122
30
0.0
11
784.802
21
708.314
31
0.0
0
LINE
5
2c39
8
0-0
6
CONTINUOUS
62
  7
10
784.802
20
708.314
30
0.0
11
786.054
21
709.473
31
0.0
0
LINE
5
2c3a
8
0-0
6
CONTINUOUS
62
  7
10
786.054
20
709.473
30
0.0
11
786.793
21
710.135
31
0.0
0
LINE
5
2c3b
8
0-0
6
CONTINUOUS
62
  7
10
786.793
20
710.135
30
0.0
11
788.614
21
711.724
31
0.0
0
LINE
5
2c3c
8
0-0
6
CONTINUOUS
62
  7
10
788.614
20
711.724
30
0.0
11
791.838
21
714.365
31
0.0
0
LINE
5
2c3d
8
0-0
6
CONTINUOUS
62
  7
10
791.838
20
714.365
30
0.0
11
795.189
21
716.817
31
0.0
0
LINE
5
2c3e
8
0-0
6
CONTINUOUS
62
  7
10
795.189
20
716.817
30
0.0
11
798.687
21
719.010
31
0.0
0
LINE
5
2c3f
8
0-0
6
CONTINUOUS
62
  7
10
798.687
20
719.010
30
0.0
11
800.793
21
720.135
31
0.0
0
LINE
5
2c40
8
0-0
6
CONTINUOUS
62
  7
10
800.793
20
720.135
30
0.0
11
802.670
21
721.014
31
0.0
0
LINE
5
2c41
8
0-0
6
CONTINUOUS
62
  7
10
802.670
20
721.014
30
0.0
11
805.995
21
722.347
31
0.0
0
LINE
5
2c42
8
0-0
6
CONTINUOUS
62
  7
10
805.995
20
722.347
30
0.0
11
809.403
21
723.503
31
0.0
0
LINE
5
2c43
8
0-0
6
CONTINUOUS
62
  7
10
809.403
20
723.503
30
0.0
11
812.858
21
724.551
31
0.0
0
LINE
5
2c44
8
0-0
6
CONTINUOUS
62
  7
10
812.858
20
724.551
30
0.0
11
814.871
21
725.135
31
0.0
0
LINE
5
2c45
8
0-0
6
CONTINUOUS
62
  7
10
814.871
20
725.135
30
0.0
11
817.506
21
725.894
31
0.0
0
LINE
5
2c46
8
0-0
6
CONTINUOUS
62
  7
10
817.506
20
725.894
30
0.0
11
822.045
21
727.179
31
0.0
0
LINE
5
2c47
8
0-0
6
CONTINUOUS
62
  7
10
822.045
20
727.179
30
0.0
11
826.587
21
728.404
31
0.0
0
LINE
5
2c48
8
0-0
6
CONTINUOUS
62
  7
10
826.587
20
728.404
30
0.0
11
831.141
21
729.535
31
0.0
0
LINE
5
2c49
8
0-0
6
CONTINUOUS
62
  7
10
831.141
20
729.535
30
0.0
11
833.793
21
730.135
31
0.0
0
LINE
5
2c4a
8
0-0
6
CONTINUOUS
62
  7
10
833.793
20
730.135
30
0.0
11
840.779
21
731.482
31
0.0
0
LINE
5
2c4b
8
0-0
6
CONTINUOUS
62
  7
10
840.779
20
731.482
30
0.0
11
852.949
21
733.145
31
0.0
0
LINE
5
2c4c
8
0-0
6
CONTINUOUS
62
  7
10
852.949
20
733.145
30
0.0
11
865.241
21
734.182
31
0.0
0
LINE
5
2c4d
8
0-0
6
CONTINUOUS
62
  7
10
865.241
20
734.182
30
0.0
11
877.606
21
734.836
31
0.0
0
LINE
5
2c4e
8
0-0
6
CONTINUOUS
62
  7
10
877.606
20
734.836
30
0.0
11
891.892
21
735.135
31
0.0
0
LINE
5
2c4f
8
ADD_LINE
6
HIDDEN
62
  3
10
891.892
20
530.135
30
0.0
11
891.892
21
456.122
31
0.0
0
LINE
5
2c50
8
0-0
6
CONTINUOUS
62
  7
10
891.892
20
607.135
30
0.0
11
891.246
21
607.047
31
0.0
0
LINE
5
2c51
8
0-0
6
CONTINUOUS
62
  7
10
891.246
20
607.047
30
0.0
11
890.626
21
606.922
31
0.0
0
LINE
5
2c52
8
0-0
6
CONTINUOUS
62
  7
10
890.626
20
606.922
30
0.0
11
890.026
21
606.755
31
0.0
0
LINE
5
2c53
8
0-0
6
CONTINUOUS
62
  7
10
890.026
20
606.755
30
0.0
11
889.443
21
606.540
31
0.0
0
LINE
5
2c54
8
0-0
6
CONTINUOUS
62
  7
10
889.443
20
606.540
30
0.0
11
888.873
21
606.275
31
0.0
0
LINE
5
2c55
8
0-0
6
CONTINUOUS
62
  7
10
888.873
20
606.275
30
0.0
11
888.314
21
605.955
31
0.0
0
LINE
5
2c56
8
0-0
6
CONTINUOUS
62
  7
10
888.314
20
605.955
30
0.0
11
887.764
21
605.578
31
0.0
0
LINE
5
2c57
8
0-0
6
CONTINUOUS
62
  7
10
887.764
20
605.578
30
0.0
11
887.221
21
605.143
31
0.0
0
LINE
5
2c58
8
0-0
6
CONTINUOUS
62
  7
10
887.221
20
605.143
30
0.0
11
886.683
21
604.646
31
0.0
0
LINE
5
2c59
8
0-0
6
CONTINUOUS
62
  7
10
886.683
20
604.646
30
0.0
11
886.151
21
604.088
31
0.0
0
LINE
5
2c5a
8
0-0
6
CONTINUOUS
62
  7
10
886.151
20
604.088
30
0.0
11
885.622
21
603.466
31
0.0
0
LINE
5
2c5b
8
0-0
6
CONTINUOUS
62
  7
10
885.622
20
603.466
30
0.0
11
885.097
21
602.780
31
0.0
0
LINE
5
2c5c
8
0-0
6
CONTINUOUS
62
  7
10
885.097
20
602.780
30
0.0
11
884.574
21
602.030
31
0.0
0
LINE
5
2c5d
8
0-0
6
CONTINUOUS
62
  7
10
884.574
20
602.030
30
0.0
11
884.053
21
601.216
31
0.0
0
LINE
5
2c5e
8
0-0
6
CONTINUOUS
62
  7
10
884.053
20
601.216
30
0.0
11
883.534
21
600.336
31
0.0
0
LINE
5
2c5f
8
0-0
6
CONTINUOUS
62
  7
10
883.534
20
600.336
30
0.0
11
883.015
21
599.393
31
0.0
0
LINE
5
2c60
8
0-0
6
CONTINUOUS
62
  7
10
883.015
20
599.393
30
0.0
11
882.497
21
598.384
31
0.0
0
LINE
5
2c61
8
0-0
6
CONTINUOUS
62
  7
10
882.497
20
598.384
30
0.0
11
881.979
21
597.311
31
0.0
0
LINE
5
2c62
8
0-0
6
CONTINUOUS
62
  7
10
881.979
20
597.311
30
0.0
11
881.462
21
596.175
31
0.0
0
LINE
5
2c63
8
0-0
6
CONTINUOUS
62
  7
10
881.462
20
596.175
30
0.0
11
880.945
21
594.975
31
0.0
0
LINE
5
2c64
8
0-0
6
CONTINUOUS
62
  7
10
880.945
20
594.975
30
0.0
11
880.428
21
593.713
31
0.0
0
LINE
5
2c65
8
0-0
6
CONTINUOUS
62
  7
10
880.428
20
593.713
30
0.0
11
879.912
21
592.389
31
0.0
0
LINE
5
2c66
8
0-0
6
CONTINUOUS
62
  7
10
879.912
20
592.389
30
0.0
11
879.396
21
591.005
31
0.0
0
LINE
5
2c67
8
0-0
6
CONTINUOUS
62
  7
10
879.396
20
591.005
30
0.0
11
878.882
21
589.562
31
0.0
0
LINE
5
2c68
8
0-0
6
CONTINUOUS
62
  7
10
878.882
20
589.562
30
0.0
11
878.370
21
588.063
31
0.0
0
LINE
5
2c69
8
0-0
6
CONTINUOUS
62
  7
10
878.370
20
588.063
30
0.0
11
877.860
21
586.509
31
0.0
0
LINE
5
2c6a
8
0-0
6
CONTINUOUS
62
  7
10
877.860
20
586.509
30
0.0
11
877.354
21
584.904
31
0.0
0
LINE
5
2c6b
8
0-0
6
CONTINUOUS
62
  7
10
877.354
20
584.904
30
0.0
11
876.852
21
583.250
31
0.0
0
LINE
5
2c6c
8
0-0
6
CONTINUOUS
62
  7
10
876.852
20
583.250
30
0.0
11
876.355
21
581.550
31
0.0
0
LINE
5
2c6d
8
0-0
6
CONTINUOUS
62
  7
10
876.355
20
581.550
30
0.0
11
875.865
21
579.809
31
0.0
0
LINE
5
2c6e
8
0-0
6
CONTINUOUS
62
  7
10
875.865
20
579.809
30
0.0
11
875.383
21
578.030
31
0.0
0
LINE
5
2c6f
8
0-0
6
CONTINUOUS
62
  7
10
875.383
20
578.030
30
0.0
11
874.910
21
576.218
31
0.0
0
LINE
5
2c70
8
0-0
6
CONTINUOUS
62
  7
10
874.910
20
576.218
30
0.0
11
874.446
21
574.377
31
0.0
0
LINE
5
2c71
8
0-0
6
CONTINUOUS
62
  7
10
874.446
20
574.377
30
0.0
11
873.994
21
572.511
31
0.0
0
LINE
5
2c72
8
0-0
6
CONTINUOUS
62
  7
10
873.994
20
572.511
30
0.0
11
873.554
21
570.626
31
0.0
0
LINE
5
2c73
8
0-0
6
CONTINUOUS
62
  7
10
873.554
20
570.626
30
0.0
11
873.126
21
568.723
31
0.0
0
LINE
5
2c74
8
0-0
6
CONTINUOUS
62
  7
10
873.126
20
568.723
30
0.0
11
872.712
21
566.808
31
0.0
0
LINE
5
2c75
8
0-0
6
CONTINUOUS
62
  7
10
872.712
20
566.808
30
0.0
11
872.311
21
564.882
31
0.0
0
LINE
5
2c76
8
0-0
6
CONTINUOUS
62
  7
10
872.311
20
564.882
30
0.0
11
871.924
21
562.946
31
0.0
0
LINE
5
2c77
8
0-0
6
CONTINUOUS
62
  7
10
871.924
20
562.946
30
0.0
11
871.550
21
560.998
31
0.0
0
LINE
5
2c78
8
0-0
6
CONTINUOUS
62
  7
10
871.550
20
560.998
30
0.0
11
871.188
21
559.037
31
0.0
0
LINE
5
2c79
8
0-0
6
CONTINUOUS
62
  7
10
871.188
20
559.037
30
0.0
11
870.836
21
557.054
31
0.0
0
LINE
5
2c7a
8
0-0
6
CONTINUOUS
62
  7
10
870.836
20
557.054
30
0.0
11
870.492
21
555.041
31
0.0
0
LINE
5
2c7b
8
0-0
6
CONTINUOUS
62
  7
10
870.492
20
555.041
30
0.0
11
870.152
21
552.982
31
0.0
0
LINE
5
2c7c
8
0-0
6
CONTINUOUS
62
  7
10
870.152
20
552.982
30
0.0
11
869.812
21
550.858
31
0.0
0
LINE
5
2c7d
8
0-0
6
CONTINUOUS
62
  7
10
869.812
20
550.858
30
0.0
11
869.467
21
548.643
31
0.0
0
LINE
5
2c7e
8
0-0
6
CONTINUOUS
62
  7
10
869.467
20
548.643
30
0.0
11
869.108
21
546.300
31
0.0
0
LINE
5
2c7f
8
0-0
6
CONTINUOUS
62
  7
10
869.108
20
546.300
30
0.0
11
868.728
21
543.787
31
0.0
0
LINE
5
2c80
8
0-0
6
CONTINUOUS
62
  7
10
868.728
20
543.787
30
0.0
11
868.316
21
541.048
31
0.0
0
LINE
5
2c81
8
0-0
6
CONTINUOUS
62
  7
10
784.382
20
671.645
30
0.0
11
784.766
21
672.889
31
0.0
0
LINE
5
2c82
8
0-0
6
CONTINUOUS
62
  7
10
784.766
20
672.889
30
0.0
11
786.228
21
677.415
31
0.0
0
LINE
5
2c83
8
0-0
6
CONTINUOUS
62
  7
10
786.228
20
677.415
30
0.0
11
787.710
21
681.494
31
0.0
0
LINE
5
2c84
8
0-0
6
CONTINUOUS
62
  7
10
787.710
20
681.494
30
0.0
11
789.333
21
685.244
31
0.0
0
LINE
5
2c85
8
0-0
6
CONTINUOUS
62
  7
10
789.333
20
685.244
30
0.0
11
790.308
21
687.158
31
0.0
0
LINE
5
2c86
8
0-0
6
CONTINUOUS
62
  7
10
790.308
20
687.158
30
0.0
11
790.485
21
687.478
31
0.0
0
LINE
5
2c87
8
0-0
6
CONTINUOUS
62
  7
10
790.485
20
687.478
30
0.0
11
791.030
21
688.422
31
0.0
0
LINE
5
2c88
8
0-0
6
CONTINUOUS
62
  7
10
791.030
20
688.422
30
0.0
11
791.608
21
689.382
31
0.0
0
LINE
5
2c89
8
0-0
6
CONTINUOUS
62
  7
10
791.608
20
689.382
30
0.0
11
792.253
21
690.419
31
0.0
0
LINE
5
2c8a
8
0-0
6
CONTINUOUS
62
  7
10
792.253
20
690.419
30
0.0
11
792.629
21
691.014
31
0.0
0
LINE
5
2c8b
8
0-0
6
CONTINUOUS
62
  7
10
792.629
20
691.014
30
0.0
11
793.015
21
691.619
31
0.0
0
LINE
5
2c8c
8
0-0
6
CONTINUOUS
62
  7
10
793.015
20
691.619
30
0.0
11
793.655
21
692.595
31
0.0
0
LINE
5
2c8d
8
0-0
6
CONTINUOUS
62
  7
10
793.655
20
692.595
30
0.0
11
794.201
21
693.386
31
0.0
0
LINE
5
2c8e
8
0-0
6
CONTINUOUS
62
  7
10
794.201
20
693.386
30
0.0
11
794.712
21
694.072
31
0.0
0
LINE
5
2c8f
8
0-0
6
CONTINUOUS
62
  7
10
794.712
20
694.072
30
0.0
11
794.882
21
694.283
31
0.0
0
LINE
5
2c90
8
0-0
6
CONTINUOUS
62
  7
10
794.882
20
694.283
30
0.0
11
795.108
21
694.548
31
0.0
0
LINE
5
2c91
8
0-0
6
CONTINUOUS
62
  7
10
795.108
20
694.548
30
0.0
11
795.771
21
695.258
31
0.0
0
LINE
5
2c92
8
0-0
6
CONTINUOUS
62
  7
10
795.771
20
695.258
30
0.0
11
796.539
21
696.013
31
0.0
0
LINE
5
2c93
8
0-0
6
CONTINUOUS
62
  7
10
796.539
20
696.013
30
0.0
11
797.498
21
696.901
31
0.0
0
LINE
5
2c94
8
0-0
6
CONTINUOUS
62
  7
10
797.498
20
696.901
30
0.0
11
798.057
21
697.402
31
0.0
0
LINE
5
2c95
8
0-0
6
CONTINUOUS
62
  7
10
798.057
20
697.402
30
0.0
11
799.591
21
698.741
31
0.0
0
LINE
5
2c96
8
0-0
6
CONTINUOUS
62
  7
10
799.591
20
698.741
30
0.0
11
802.252
21
700.920
31
0.0
0
LINE
5
2c97
8
0-0
6
CONTINUOUS
62
  7
10
802.252
20
700.920
30
0.0
11
804.736
21
702.738
31
0.0
0
LINE
5
2c98
8
0-0
6
CONTINUOUS
62
  7
10
804.736
20
702.738
30
0.0
11
807.217
21
704.293
31
0.0
0
LINE
5
2c99
8
0-0
6
CONTINUOUS
62
  7
10
807.217
20
704.293
30
0.0
11
808.410
21
704.930
31
0.0
0
LINE
5
2c9a
8
0-0
6
CONTINUOUS
62
  7
10
808.410
20
704.930
30
0.0
11
809.443
21
705.414
31
0.0
0
LINE
5
2c9b
8
0-0
6
CONTINUOUS
62
  7
10
809.443
20
705.414
30
0.0
11
811.892
21
706.396
31
0.0
0
LINE
5
2c9c
8
0-0
6
CONTINUOUS
62
  7
10
811.892
20
706.396
30
0.0
11
814.602
21
707.316
31
0.0
0
LINE
5
2c9d
8
0-0
6
CONTINUOUS
62
  7
10
814.602
20
707.316
30
0.0
11
817.693
21
708.253
31
0.0
0
LINE
5
2c9e
8
0-0
6
CONTINUOUS
62
  7
10
817.693
20
708.253
30
0.0
11
819.597
21
708.805
31
0.0
0
LINE
5
2c9f
8
0-0
6
CONTINUOUS
62
  7
10
819.597
20
708.805
30
0.0
11
822.173
21
709.548
31
0.0
0
LINE
5
2ca0
8
0-0
6
CONTINUOUS
62
  7
10
822.173
20
709.548
30
0.0
11
826.574
21
710.793
31
0.0
0
LINE
5
2ca1
8
0-0
6
CONTINUOUS
62
  7
10
826.574
20
710.793
30
0.0
11
830.849
21
711.946
31
0.0
0
LINE
5
2ca2
8
0-0
6
CONTINUOUS
62
  7
10
830.849
20
711.946
30
0.0
11
835.067
21
712.994
31
0.0
0
LINE
5
2ca3
8
0-0
6
CONTINUOUS
62
  7
10
835.067
20
712.994
30
0.0
11
837.278
21
713.494
31
0.0
0
LINE
5
2ca4
8
0-0
6
CONTINUOUS
62
  7
10
837.278
20
713.494
30
0.0
11
843.540
21
714.701
31
0.0
0
LINE
5
2ca5
8
0-0
6
CONTINUOUS
62
  7
10
843.540
20
714.701
30
0.0
11
854.817
21
716.242
31
0.0
0
LINE
5
2ca6
8
0-0
6
CONTINUOUS
62
  7
10
854.817
20
716.242
30
0.0
11
866.404
21
717.220
31
0.0
0
LINE
5
2ca7
8
0-0
6
CONTINUOUS
62
  7
10
866.404
20
717.220
30
0.0
11
878.233
21
717.845
31
0.0
0
LINE
5
2ca8
8
0-0
6
CONTINUOUS
62
  7
10
878.233
20
717.845
30
0.0
11
891.892
21
718.131
31
0.0
0
LINE
5
2ca9
8
0-0
6
CONTINUOUS
62
  7
10
792.247
20
670.003
30
0.0
11
792.394
21
670.477
31
0.0
0
LINE
5
2caa
8
0-0
6
CONTINUOUS
62
  7
10
792.394
20
670.477
30
0.0
11
793.796
21
674.819
31
0.0
0
LINE
5
2cab
8
0-0
6
CONTINUOUS
62
  7
10
793.796
20
674.819
30
0.0
11
795.148
21
678.537
31
0.0
0
LINE
5
2cac
8
0-0
6
CONTINUOUS
62
  7
10
795.148
20
678.537
30
0.0
11
796.575
21
681.837
31
0.0
0
LINE
5
2cad
8
0-0
6
CONTINUOUS
62
  7
10
796.575
20
681.837
30
0.0
11
797.373
21
683.402
31
0.0
0
LINE
5
2cae
8
0-0
6
CONTINUOUS
62
  7
10
797.373
20
683.402
30
0.0
11
797.452
21
683.544
31
0.0
0
LINE
5
2caf
8
0-0
6
CONTINUOUS
62
  7
10
797.452
20
683.544
30
0.0
11
797.920
21
684.355
31
0.0
0
LINE
5
2cb0
8
0-0
6
CONTINUOUS
62
  7
10
797.920
20
684.355
30
0.0
11
798.435
21
685.211
31
0.0
0
LINE
5
2cb1
8
0-0
6
CONTINUOUS
62
  7
10
798.435
20
685.211
30
0.0
11
799.027
21
686.164
31
0.0
0
LINE
5
2cb2
8
0-0
6
CONTINUOUS
62
  7
10
799.027
20
686.164
30
0.0
11
799.380
21
686.722
31
0.0
0
LINE
5
2cb3
8
0-0
6
CONTINUOUS
62
  7
10
799.380
20
686.722
30
0.0
11
799.735
21
687.278
31
0.0
0
LINE
5
2cb4
8
0-0
6
CONTINUOUS
62
  7
10
799.735
20
687.278
30
0.0
11
800.292
21
688.128
31
0.0
0
LINE
5
2cb5
8
0-0
6
CONTINUOUS
62
  7
10
800.292
20
688.128
30
0.0
11
800.702
21
688.721
31
0.0
0
LINE
5
2cb6
8
0-0
6
CONTINUOUS
62
  7
10
800.702
20
688.721
30
0.0
11
801.042
21
689.177
31
0.0
0
LINE
5
2cb7
8
0-0
6
CONTINUOUS
62
  7
10
801.042
20
689.177
30
0.0
11
801.074
21
689.214
31
0.0
0
LINE
5
2cb8
8
0-0
6
CONTINUOUS
62
  7
10
801.074
20
689.214
30
0.0
11
801.504
21
689.675
31
0.0
0
LINE
5
2cb9
8
0-0
6
CONTINUOUS
62
  7
10
801.504
20
689.675
30
0.0
11
802.062
21
690.224
31
0.0
0
LINE
5
2cba
8
0-0
6
CONTINUOUS
62
  7
10
802.062
20
690.224
30
0.0
11
802.886
21
690.987
31
0.0
0
LINE
5
2cbb
8
0-0
6
CONTINUOUS
62
  7
10
802.886
20
690.987
30
0.0
11
803.355
21
691.407
31
0.0
0
LINE
5
2cbc
8
0-0
6
CONTINUOUS
62
  7
10
803.355
20
691.407
30
0.0
11
804.758
21
692.632
31
0.0
0
LINE
5
2cbd
8
0-0
6
CONTINUOUS
62
  7
10
804.758
20
692.632
30
0.0
11
807.152
21
694.592
31
0.0
0
LINE
5
2cbe
8
0-0
6
CONTINUOUS
62
  7
10
807.152
20
694.592
30
0.0
11
809.229
21
696.113
31
0.0
0
LINE
5
2cbf
8
0-0
6
CONTINUOUS
62
  7
10
809.229
20
696.113
30
0.0
11
811.230
21
697.367
31
0.0
0
LINE
5
2cc0
8
0-0
6
CONTINUOUS
62
  7
10
811.230
20
697.367
30
0.0
11
811.994
21
697.775
31
0.0
0
LINE
5
2cc1
8
0-0
6
CONTINUOUS
62
  7
10
811.994
20
697.775
30
0.0
11
812.631
21
698.074
31
0.0
0
LINE
5
2cc2
8
0-0
6
CONTINUOUS
62
  7
10
812.631
20
698.074
30
0.0
11
814.668
21
698.890
31
0.0
0
LINE
5
2cc3
8
0-0
6
CONTINUOUS
62
  7
10
814.668
20
698.890
30
0.0
11
817.049
21
699.698
31
0.0
0
LINE
5
2cc4
8
0-0
6
CONTINUOUS
62
  7
10
817.049
20
699.698
30
0.0
11
819.965
21
700.582
31
0.0
0
LINE
5
2cc5
8
0-0
6
CONTINUOUS
62
  7
10
819.965
20
700.582
30
0.0
11
821.826
21
701.122
31
0.0
0
LINE
5
2cc6
8
0-0
6
CONTINUOUS
62
  7
10
821.826
20
701.122
30
0.0
11
824.366
21
701.854
31
0.0
0
LINE
5
2cc7
8
0-0
6
CONTINUOUS
62
  7
10
824.366
20
701.854
30
0.0
11
828.705
21
703.082
31
0.0
0
LINE
5
2cc8
8
0-0
6
CONTINUOUS
62
  7
10
828.705
20
703.082
30
0.0
11
832.857
21
704.202
31
0.0
0
LINE
5
2cc9
8
0-0
6
CONTINUOUS
62
  7
10
832.857
20
704.202
30
0.0
11
836.911
21
705.209
31
0.0
0
LINE
5
2cca
8
0-0
6
CONTINUOUS
62
  7
10
836.911
20
705.209
30
0.0
11
838.920
21
705.663
31
0.0
0
LINE
5
2ccb
8
0-0
6
CONTINUOUS
62
  7
10
838.920
20
705.663
30
0.0
11
844.840
21
706.805
31
0.0
0
LINE
5
2ccc
8
0-0
6
CONTINUOUS
62
  7
10
844.840
20
706.805
30
0.0
11
855.693
21
708.288
31
0.0
0
LINE
5
2ccd
8
0-0
6
CONTINUOUS
62
  7
10
855.693
20
708.288
30
0.0
11
866.953
21
709.238
31
0.0
0
LINE
5
2cce
8
0-0
6
CONTINUOUS
62
  7
10
866.953
20
709.238
30
0.0
11
878.529
21
709.850
31
0.0
0
LINE
5
2ccf
8
0-0
6
CONTINUOUS
62
  7
10
878.529
20
709.850
30
0.0
11
891.892
21
710.130
31
0.0
0
LINE
5
2cd0
8
0-0
6
CONTINUOUS
62
  7
10
891.892
20
624.371
30
0.0
11
889.362
21
624.015
31
0.0
0
LINE
5
2cd1
8
0-0
6
CONTINUOUS
62
  7
10
889.362
20
624.015
30
0.0
11
886.971
21
623.581
31
0.0
0
LINE
5
2cd2
8
0-0
6
CONTINUOUS
62
  7
10
886.971
20
623.581
30
0.0
11
884.724
21
623.074
31
0.0
0
LINE
5
2cd3
8
0-0
6
CONTINUOUS
62
  7
10
884.724
20
623.074
30
0.0
11
882.624
21
622.500
31
0.0
0
LINE
5
2cd4
8
0-0
6
CONTINUOUS
62
  7
10
882.624
20
622.500
30
0.0
11
880.669
21
621.864
31
0.0
0
LINE
5
2cd5
8
0-0
6
CONTINUOUS
62
  7
10
880.669
20
621.864
30
0.0
11
878.858
21
621.168
31
0.0
0
LINE
5
2cd6
8
0-0
6
CONTINUOUS
62
  7
10
878.858
20
621.168
30
0.0
11
877.185
21
620.413
31
0.0
0
LINE
5
2cd7
8
0-0
6
CONTINUOUS
62
  7
10
877.185
20
620.413
30
0.0
11
875.644
21
619.598
31
0.0
0
LINE
5
2cd8
8
0-0
6
CONTINUOUS
62
  7
10
875.644
20
619.598
30
0.0
11
874.228
21
618.724
31
0.0
0
LINE
5
2cd9
8
0-0
6
CONTINUOUS
62
  7
10
874.228
20
618.724
30
0.0
11
872.929
21
617.788
31
0.0
0
LINE
5
2cda
8
0-0
6
CONTINUOUS
62
  7
10
872.929
20
617.788
30
0.0
11
871.737
21
616.789
31
0.0
0
LINE
5
2cdb
8
0-0
6
CONTINUOUS
62
  7
10
871.737
20
616.789
30
0.0
11
870.643
21
615.724
31
0.0
0
LINE
5
2cdc
8
0-0
6
CONTINUOUS
62
  7
10
870.643
20
615.724
30
0.0
11
869.639
21
614.592
31
0.0
0
LINE
5
2cdd
8
0-0
6
CONTINUOUS
62
  7
10
869.639
20
614.592
30
0.0
11
868.713
21
613.390
31
0.0
0
LINE
5
2cde
8
0-0
6
CONTINUOUS
62
  7
10
868.713
20
613.390
30
0.0
11
867.858
21
612.118
31
0.0
0
LINE
5
2cdf
8
0-0
6
CONTINUOUS
62
  7
10
867.858
20
612.118
30
0.0
11
867.063
21
610.776
31
0.0
0
LINE
5
2ce0
8
0-0
6
CONTINUOUS
62
  7
10
867.063
20
610.776
30
0.0
11
866.322
21
609.365
31
0.0
0
LINE
5
2ce1
8
0-0
6
CONTINUOUS
62
  7
10
866.322
20
609.365
30
0.0
11
865.627
21
607.887
31
0.0
0
LINE
5
2ce2
8
0-0
6
CONTINUOUS
62
  7
10
865.627
20
607.887
30
0.0
11
864.971
21
606.347
31
0.0
0
LINE
5
2ce3
8
0-0
6
CONTINUOUS
62
  7
10
864.971
20
606.347
30
0.0
11
864.348
21
604.749
31
0.0
0
LINE
5
2ce4
8
0-0
6
CONTINUOUS
62
  7
10
864.348
20
604.749
30
0.0
11
863.754
21
603.100
31
0.0
0
LINE
5
2ce5
8
0-0
6
CONTINUOUS
62
  7
10
863.754
20
603.100
30
0.0
11
863.185
21
601.409
31
0.0
0
LINE
5
2ce6
8
0-0
6
CONTINUOUS
62
  7
10
863.185
20
601.409
30
0.0
11
862.638
21
599.683
31
0.0
0
LINE
5
2ce7
8
0-0
6
CONTINUOUS
62
  7
10
862.638
20
599.683
30
0.0
11
862.110
21
597.933
31
0.0
0
LINE
5
2ce8
8
0-0
6
CONTINUOUS
62
  7
10
862.110
20
597.933
30
0.0
11
861.600
21
596.168
31
0.0
0
LINE
5
2ce9
8
0-0
6
CONTINUOUS
62
  7
10
861.600
20
596.168
30
0.0
11
861.107
21
594.398
31
0.0
0
LINE
5
2cea
8
0-0
6
CONTINUOUS
62
  7
10
861.107
20
594.398
30
0.0
11
860.630
21
592.629
31
0.0
0
LINE
5
2ceb
8
0-0
6
CONTINUOUS
62
  7
10
860.630
20
592.629
30
0.0
11
860.169
21
590.868
31
0.0
0
LINE
5
2cec
8
0-0
6
CONTINUOUS
62
  7
10
860.169
20
590.868
30
0.0
11
859.722
21
589.117
31
0.0
0
LINE
5
2ced
8
0-0
6
CONTINUOUS
62
  7
10
859.722
20
589.117
30
0.0
11
859.288
21
587.375
31
0.0
0
LINE
5
2cee
8
0-0
6
CONTINUOUS
62
  7
10
859.288
20
587.375
30
0.0
11
858.864
21
585.632
31
0.0
0
LINE
5
2cef
8
0-0
6
CONTINUOUS
62
  7
10
858.864
20
585.632
30
0.0
11
858.446
21
583.873
31
0.0
0
LINE
5
2cf0
8
0-0
6
CONTINUOUS
62
  7
10
858.446
20
583.873
30
0.0
11
858.028
21
582.072
31
0.0
0
LINE
5
2cf1
8
0-0
6
CONTINUOUS
62
  7
10
858.028
20
582.072
30
0.0
11
857.602
21
580.194
31
0.0
0
LINE
5
2cf2
8
0-0
6
CONTINUOUS
62
  7
10
891.892
20
641.135
30
0.0
11
888.114
21
640.769
31
0.0
0
LINE
5
2cf3
8
0-0
6
CONTINUOUS
62
  7
10
888.114
20
640.769
30
0.0
11
884.717
21
640.428
31
0.0
0
LINE
5
2cf4
8
0-0
6
CONTINUOUS
62
  7
10
884.717
20
640.428
30
0.0
11
881.653
21
640.101
31
0.0
0
LINE
5
2cf5
8
0-0
6
CONTINUOUS
62
  7
10
881.653
20
640.101
30
0.0
11
878.878
21
639.777
31
0.0
0
LINE
5
2cf6
8
0-0
6
CONTINUOUS
62
  7
10
878.878
20
639.777
30
0.0
11
876.353
21
639.445
31
0.0
0
LINE
5
2cf7
8
0-0
6
CONTINUOUS
62
  7
10
876.353
20
639.445
30
0.0
11
874.045
21
639.097
31
0.0
0
LINE
5
2cf8
8
0-0
6
CONTINUOUS
62
  7
10
874.045
20
639.097
30
0.0
11
871.925
21
638.725
31
0.0
0
LINE
5
2cf9
8
0-0
6
CONTINUOUS
62
  7
10
871.925
20
638.725
30
0.0
11
869.968
21
638.323
31
0.0
0
LINE
5
2cfa
8
0-0
6
CONTINUOUS
62
  7
10
869.968
20
638.323
30
0.0
11
868.151
21
637.885
31
0.0
0
LINE
5
2cfb
8
0-0
6
CONTINUOUS
62
  7
10
868.151
20
637.885
30
0.0
11
866.458
21
637.408
31
0.0
0
LINE
5
2cfc
8
0-0
6
CONTINUOUS
62
  7
10
866.458
20
637.408
30
0.0
11
864.873
21
636.888
31
0.0
0
LINE
5
2cfd
8
0-0
6
CONTINUOUS
62
  7
10
864.873
20
636.888
30
0.0
11
863.382
21
636.325
31
0.0
0
LINE
5
2cfe
8
0-0
6
CONTINUOUS
62
  7
10
863.382
20
636.325
30
0.0
11
861.977
21
635.716
31
0.0
0
LINE
5
2cff
8
0-0
6
CONTINUOUS
62
  7
10
861.977
20
635.716
30
0.0
11
860.649
21
635.063
31
0.0
0
LINE
5
2d00
8
0-0
6
CONTINUOUS
62
  7
10
860.649
20
635.063
30
0.0
11
859.390
21
634.366
31
0.0
0
LINE
5
2d01
8
0-0
6
CONTINUOUS
62
  7
10
859.390
20
634.366
30
0.0
11
858.197
21
633.625
31
0.0
0
LINE
5
2d02
8
0-0
6
CONTINUOUS
62
  7
10
858.197
20
633.625
30
0.0
11
857.065
21
632.842
31
0.0
0
LINE
5
2d03
8
0-0
6
CONTINUOUS
62
  7
10
857.065
20
632.842
30
0.0
11
855.991
21
632.017
31
0.0
0
LINE
5
2d04
8
0-0
6
CONTINUOUS
62
  7
10
855.991
20
632.017
30
0.0
11
854.972
21
631.153
31
0.0
0
LINE
5
2d05
8
0-0
6
CONTINUOUS
62
  7
10
854.972
20
631.153
30
0.0
11
854.006
21
630.247
31
0.0
0
LINE
5
2d06
8
0-0
6
CONTINUOUS
62
  7
10
854.006
20
630.247
30
0.0
11
853.090
21
629.300
31
0.0
0
LINE
5
2d07
8
0-0
6
CONTINUOUS
62
  7
10
853.090
20
629.300
30
0.0
11
852.224
21
628.308
31
0.0
0
LINE
5
2d08
8
0-0
6
CONTINUOUS
62
  7
10
852.224
20
628.308
30
0.0
11
851.403
21
627.266
31
0.0
0
LINE
5
2d09
8
0-0
6
CONTINUOUS
62
  7
10
851.403
20
627.266
30
0.0
11
850.624
21
626.167
31
0.0
0
LINE
5
2d0a
8
0-0
6
CONTINUOUS
62
  7
10
850.624
20
626.167
30
0.0
11
849.884
21
625.000
31
0.0
0
LINE
5
2d0b
8
0-0
6
CONTINUOUS
62
  7
10
849.884
20
625.000
30
0.0
11
849.177
21
623.753
31
0.0
0
LINE
5
2d0c
8
0-0
6
CONTINUOUS
62
  7
10
849.177
20
623.753
30
0.0
11
848.497
21
622.408
31
0.0
0
LINE
5
2d0d
8
0-0
6
CONTINUOUS
62
  7
10
848.497
20
622.408
30
0.0
11
847.837
21
620.941
31
0.0
0
LINE
5
2d0e
8
0-0
6
CONTINUOUS
62
  7
10
847.837
20
620.941
30
0.0
11
847.188
21
619.326
31
0.0
0
LINE
5
2d0f
8
ADD_LINE
6
HIDDEN
62
  3
10
891.892
20
1092.406
30
0.0
11
891.892
21
530.135
31
0.0
0
LINE
5
2d10
8
0-0
6
CONTINUOUS
62
  7
10
833.622
20
626.369
30
0.0
11
834.154
21
628.420
31
0.0
0
LINE
5
2d11
8
0-0
6
CONTINUOUS
62
  7
10
834.154
20
628.420
30
0.0
11
834.686
21
630.399
31
0.0
0
LINE
5
2d12
8
0-0
6
CONTINUOUS
62
  7
10
834.686
20
630.399
30
0.0
11
835.229
21
632.304
31
0.0
0
LINE
5
2d13
8
0-0
6
CONTINUOUS
62
  7
10
835.229
20
632.304
30
0.0
11
835.790
21
634.135
31
0.0
0
LINE
5
2d14
8
0-0
6
CONTINUOUS
62
  7
10
835.790
20
634.135
30
0.0
11
836.378
21
635.890
31
0.0
0
LINE
5
2d15
8
0-0
6
CONTINUOUS
62
  7
10
836.378
20
635.890
30
0.0
11
837.001
21
637.568
31
0.0
0
LINE
5
2d16
8
0-0
6
CONTINUOUS
62
  7
10
837.001
20
637.568
30
0.0
11
837.666
21
639.168
31
0.0
0
LINE
5
2d17
8
0-0
6
CONTINUOUS
62
  7
10
837.666
20
639.168
30
0.0
11
838.378
21
640.690
31
0.0
0
LINE
5
2d18
8
0-0
6
CONTINUOUS
62
  7
10
838.378
20
640.690
30
0.0
11
839.144
21
642.134
31
0.0
0
LINE
5
2d19
8
0-0
6
CONTINUOUS
62
  7
10
839.144
20
642.134
30
0.0
11
839.969
21
643.500
31
0.0
0
LINE
5
2d1a
8
0-0
6
CONTINUOUS
62
  7
10
839.969
20
643.500
30
0.0
11
840.859
21
644.789
31
0.0
0
LINE
5
2d1b
8
0-0
6
CONTINUOUS
62
  7
10
840.859
20
644.789
30
0.0
11
841.816
21
646.002
31
0.0
0
LINE
5
2d1c
8
0-0
6
CONTINUOUS
62
  7
10
841.816
20
646.002
30
0.0
11
842.846
21
647.141
31
0.0
0
LINE
5
2d1d
8
0-0
6
CONTINUOUS
62
  7
10
842.846
20
647.141
30
0.0
11
843.953
21
648.207
31
0.0
0
LINE
5
2d1e
8
0-0
6
CONTINUOUS
62
  7
10
843.953
20
648.207
30
0.0
11
845.140
21
649.204
31
0.0
0
LINE
5
2d1f
8
0-0
6
CONTINUOUS
62
  7
10
845.140
20
649.204
30
0.0
11
846.411
21
650.134
31
0.0
0
LINE
5
2d20
8
0-0
6
CONTINUOUS
62
  7
10
846.411
20
650.134
30
0.0
11
847.768
21
651.000
31
0.0
0
LINE
5
2d21
8
0-0
6
CONTINUOUS
62
  7
10
847.768
20
651.000
30
0.0
11
849.214
21
651.805
31
0.0
0
LINE
5
2d22
8
0-0
6
CONTINUOUS
62
  7
10
849.214
20
651.805
30
0.0
11
850.752
21
652.553
31
0.0
0
LINE
5
2d23
8
0-0
6
CONTINUOUS
62
  7
10
850.752
20
652.553
30
0.0
11
852.383
21
653.248
31
0.0
0
LINE
5
2d24
8
0-0
6
CONTINUOUS
62
  7
10
852.383
20
653.248
30
0.0
11
854.108
21
653.892
31
0.0
0
LINE
5
2d25
8
0-0
6
CONTINUOUS
62
  7
10
854.108
20
653.892
30
0.0
11
855.928
21
654.489
31
0.0
0
LINE
5
2d26
8
0-0
6
CONTINUOUS
62
  7
10
855.928
20
654.489
30
0.0
11
857.842
21
655.043
31
0.0
0
LINE
5
2d27
8
0-0
6
CONTINUOUS
62
  7
10
857.842
20
655.043
30
0.0
11
859.849
21
655.558
31
0.0
0
LINE
5
2d28
8
0-0
6
CONTINUOUS
62
  7
10
859.849
20
655.558
30
0.0
11
861.945
21
656.036
31
0.0
0
LINE
5
2d29
8
0-0
6
CONTINUOUS
62
  7
10
861.945
20
656.036
30
0.0
11
864.126
21
656.480
31
0.0
0
LINE
5
2d2a
8
0-0
6
CONTINUOUS
62
  7
10
864.126
20
656.480
30
0.0
11
866.386
21
656.894
31
0.0
0
LINE
5
2d2b
8
0-0
6
CONTINUOUS
62
  7
10
866.386
20
656.894
30
0.0
11
868.714
21
657.280
31
0.0
0
LINE
5
2d2c
8
0-0
6
CONTINUOUS
62
  7
10
868.714
20
657.280
30
0.0
11
871.102
21
657.642
31
0.0
0
LINE
5
2d2d
8
0-0
6
CONTINUOUS
62
  7
10
871.102
20
657.642
30
0.0
11
873.534
21
657.981
31
0.0
0
LINE
5
2d2e
8
0-0
6
CONTINUOUS
62
  7
10
873.534
20
657.981
30
0.0
11
875.995
21
658.301
31
0.0
0
LINE
5
2d2f
8
0-0
6
CONTINUOUS
62
  7
10
875.995
20
658.301
30
0.0
11
878.462
21
658.603
31
0.0
0
LINE
5
2d30
8
0-0
6
CONTINUOUS
62
  7
10
878.462
20
658.603
30
0.0
11
880.913
21
658.890
31
0.0
0
LINE
5
2d31
8
0-0
6
CONTINUOUS
62
  7
10
880.913
20
658.890
30
0.0
11
883.319
21
659.164
31
0.0
0
LINE
5
2d32
8
0-0
6
CONTINUOUS
62
  7
10
883.319
20
659.164
30
0.0
11
885.648
21
659.427
31
0.0
0
LINE
5
2d33
8
0-0
6
CONTINUOUS
62
  7
10
885.648
20
659.427
30
0.0
11
887.862
21
659.682
31
0.0
0
LINE
5
2d34
8
0-0
6
CONTINUOUS
62
  7
10
887.862
20
659.682
30
0.0
11
889.918
21
659.929
31
0.0
0
LINE
5
2d35
8
0-0
6
CONTINUOUS
62
  7
10
889.918
20
659.929
30
0.0
11
891.770
21
660.173
31
0.0
0
LINE
5
2d36
8
0-0
6
CONTINUOUS
62
  7
10
891.770
20
660.173
30
0.0
11
891.892
21
660.191
31
0.0
0
LINE
5
2d37
8
0-0
6
CONTINUOUS
62
  7
10
819.505
20
643.979
30
0.0
11
820.073
21
646.272
31
0.0
0
LINE
5
2d38
8
0-0
6
CONTINUOUS
62
  7
10
820.073
20
646.272
30
0.0
11
820.697
21
648.476
31
0.0
0
LINE
5
2d39
8
0-0
6
CONTINUOUS
62
  7
10
820.697
20
648.476
30
0.0
11
821.386
21
650.589
31
0.0
0
LINE
5
2d3a
8
0-0
6
CONTINUOUS
62
  7
10
821.386
20
650.589
30
0.0
11
822.151
21
652.610
31
0.0
0
LINE
5
2d3b
8
0-0
6
CONTINUOUS
62
  7
10
822.151
20
652.610
30
0.0
11
823.000
21
654.537
31
0.0
0
LINE
5
2d3c
8
0-0
6
CONTINUOUS
62
  7
10
823.000
20
654.537
30
0.0
11
823.946
21
656.372
31
0.0
0
LINE
5
2d3d
8
0-0
6
CONTINUOUS
62
  7
10
823.946
20
656.372
30
0.0
11
824.997
21
658.116
31
0.0
0
LINE
5
2d3e
8
0-0
6
CONTINUOUS
62
  7
10
824.997
20
658.116
30
0.0
11
826.165
21
659.770
31
0.0
0
LINE
5
2d3f
8
0-0
6
CONTINUOUS
62
  7
10
826.165
20
659.770
30
0.0
11
827.461
21
661.337
31
0.0
0
LINE
5
2d40
8
0-0
6
CONTINUOUS
62
  7
10
827.461
20
661.337
30
0.0
11
828.896
21
662.819
31
0.0
0
LINE
5
2d41
8
0-0
6
CONTINUOUS
62
  7
10
828.896
20
662.819
30
0.0
11
830.480
21
664.219
31
0.0
0
LINE
5
2d42
8
0-0
6
CONTINUOUS
62
  7
10
830.480
20
664.219
30
0.0
11
832.221
21
665.540
31
0.0
0
LINE
5
2d43
8
0-0
6
CONTINUOUS
62
  7
10
832.221
20
665.540
30
0.0
11
834.128
21
666.785
31
0.0
0
LINE
5
2d44
8
0-0
6
CONTINUOUS
62
  7
10
834.128
20
666.785
30
0.0
11
836.206
21
667.958
31
0.0
0
LINE
5
2d45
8
0-0
6
CONTINUOUS
62
  7
10
836.206
20
667.958
30
0.0
11
838.458
21
669.059
31
0.0
0
LINE
5
2d46
8
0-0
6
CONTINUOUS
62
  7
10
838.458
20
669.059
30
0.0
11
840.887
21
670.092
31
0.0
0
LINE
5
2d47
8
0-0
6
CONTINUOUS
62
  7
10
840.887
20
670.092
30
0.0
11
843.489
21
671.059
31
0.0
0
LINE
5
2d48
8
0-0
6
CONTINUOUS
62
  7
10
843.489
20
671.059
30
0.0
11
846.262
21
671.961
31
0.0
0
LINE
5
2d49
8
0-0
6
CONTINUOUS
62
  7
10
846.262
20
671.961
30
0.0
11
849.196
21
672.799
31
0.0
0
LINE
5
2d4a
8
0-0
6
CONTINUOUS
62
  7
10
849.196
20
672.799
30
0.0
11
852.280
21
673.574
31
0.0
0
LINE
5
2d4b
8
0-0
6
CONTINUOUS
62
  7
10
852.280
20
673.574
30
0.0
11
855.500
21
674.286
31
0.0
0
LINE
5
2d4c
8
0-0
6
CONTINUOUS
62
  7
10
855.500
20
674.286
30
0.0
11
858.838
21
674.935
31
0.0
0
LINE
5
2d4d
8
0-0
6
CONTINUOUS
62
  7
10
858.838
20
674.935
30
0.0
11
862.273
21
675.520
31
0.0
0
LINE
5
2d4e
8
0-0
6
CONTINUOUS
62
  7
10
862.273
20
675.520
30
0.0
11
865.783
21
676.043
31
0.0
0
LINE
5
2d4f
8
0-0
6
CONTINUOUS
62
  7
10
865.783
20
676.043
30
0.0
11
869.343
21
676.501
31
0.0
0
LINE
5
2d50
8
0-0
6
CONTINUOUS
62
  7
10
869.343
20
676.501
30
0.0
11
872.927
21
676.894
31
0.0
0
LINE
5
2d51
8
0-0
6
CONTINUOUS
62
  7
10
872.927
20
676.894
30
0.0
11
876.508
21
677.224
31
0.0
0
LINE
5
2d52
8
0-0
6
CONTINUOUS
62
  7
10
876.508
20
677.224
30
0.0
11
880.063
21
677.491
31
0.0
0
LINE
5
2d53
8
0-0
6
CONTINUOUS
62
  7
10
880.063
20
677.491
30
0.0
11
883.570
21
677.697
31
0.0
0
LINE
5
2d54
8
0-0
6
CONTINUOUS
62
  7
10
883.570
20
677.697
30
0.0
11
887.009
21
677.846
31
0.0
0
LINE
5
2d55
8
0-0
6
CONTINUOUS
62
  7
10
887.009
20
677.846
30
0.0
11
890.371
21
677.944
31
0.0
0
LINE
5
2d56
8
0-0
6
CONTINUOUS
62
  7
10
890.371
20
677.944
30
0.0
11
891.502
21
677.963
31
0.0
0
LINE
5
2d57
8
0-0
6
CONTINUOUS
62
  7
10
891.502
20
677.963
30
0.0
11
891.892
21
677.963
31
0.0
0
LINE
5
2d58
8
0-0
6
CONTINUOUS
62
  7
10
806.302
20
660.771
30
0.0
11
806.610
21
661.967
31
0.0
0
LINE
5
2d59
8
0-0
6
CONTINUOUS
62
  7
10
806.610
20
661.967
30
0.0
11
806.937
21
663.161
31
0.0
0
LINE
5
2d5a
8
0-0
6
CONTINUOUS
62
  7
10
806.937
20
663.161
30
0.0
11
807.292
21
664.351
31
0.0
0
LINE
5
2d5b
8
0-0
6
CONTINUOUS
62
  7
10
807.292
20
664.351
30
0.0
11
807.683
21
665.537
31
0.0
0
LINE
5
2d5c
8
0-0
6
CONTINUOUS
62
  7
10
807.683
20
665.537
30
0.0
11
808.118
21
666.719
31
0.0
0
LINE
5
2d5d
8
0-0
6
CONTINUOUS
62
  7
10
808.118
20
666.719
30
0.0
11
808.606
21
667.895
31
0.0
0
LINE
5
2d5e
8
0-0
6
CONTINUOUS
62
  7
10
808.606
20
667.895
30
0.0
11
809.156
21
669.066
31
0.0
0
LINE
5
2d5f
8
0-0
6
CONTINUOUS
62
  7
10
809.156
20
669.066
30
0.0
11
809.776
21
670.231
31
0.0
0
LINE
5
2d60
8
0-0
6
CONTINUOUS
62
  7
10
809.776
20
670.231
30
0.0
11
810.474
21
671.389
31
0.0
0
LINE
5
2d61
8
0-0
6
CONTINUOUS
62
  7
10
810.474
20
671.389
30
0.0
11
811.257
21
672.539
31
0.0
0
LINE
5
2d62
8
0-0
6
CONTINUOUS
62
  7
10
811.257
20
672.539
30
0.0
11
812.130
21
673.679
31
0.0
0
LINE
5
2d63
8
0-0
6
CONTINUOUS
62
  7
10
812.130
20
673.679
30
0.0
11
813.101
21
674.808
31
0.0
0
LINE
5
2d64
8
0-0
6
CONTINUOUS
62
  7
10
813.101
20
674.808
30
0.0
11
814.173
21
675.922
31
0.0
0
LINE
5
2d65
8
0-0
6
CONTINUOUS
62
  7
10
814.173
20
675.922
30
0.0
11
815.351
21
677.021
31
0.0
0
LINE
5
2d66
8
0-0
6
CONTINUOUS
62
  7
10
815.351
20
677.021
30
0.0
11
816.640
21
678.102
31
0.0
0
LINE
5
2d67
8
0-0
6
CONTINUOUS
62
  7
10
816.640
20
678.102
30
0.0
11
818.042
21
679.163
31
0.0
0
LINE
5
2d68
8
0-0
6
CONTINUOUS
62
  7
10
818.042
20
679.163
30
0.0
11
819.560
21
680.201
31
0.0
0
LINE
5
2d69
8
0-0
6
CONTINUOUS
62
  7
10
819.560
20
680.201
30
0.0
11
821.197
21
681.215
31
0.0
0
LINE
5
2d6a
8
0-0
6
CONTINUOUS
62
  7
10
821.197
20
681.215
30
0.0
11
822.955
21
682.202
31
0.0
0
LINE
5
2d6b
8
0-0
6
CONTINUOUS
62
  7
10
822.955
20
682.202
30
0.0
11
824.836
21
683.161
31
0.0
0
LINE
5
2d6c
8
0-0
6
CONTINUOUS
62
  7
10
824.836
20
683.161
30
0.0
11
826.840
21
684.090
31
0.0
0
LINE
5
2d6d
8
0-0
6
CONTINUOUS
62
  7
10
826.840
20
684.090
30
0.0
11
828.968
21
684.987
31
0.0
0
LINE
5
2d6e
8
0-0
6
CONTINUOUS
62
  7
10
828.968
20
684.987
30
0.0
11
831.219
21
685.851
31
0.0
0
LINE
5
2d6f
8
0-0
6
CONTINUOUS
62
  7
10
831.219
20
685.851
30
0.0
11
833.591
21
686.680
31
0.0
0
LINE
5
2d70
8
0-0
6
CONTINUOUS
62
  7
10
833.591
20
686.680
30
0.0
11
836.083
21
687.475
31
0.0
0
LINE
5
2d71
8
0-0
6
CONTINUOUS
62
  7
10
836.083
20
687.475
30
0.0
11
838.689
21
688.234
31
0.0
0
LINE
5
2d72
8
0-0
6
CONTINUOUS
62
  7
10
838.689
20
688.234
30
0.0
11
841.404
21
688.956
31
0.0
0
LINE
5
2d73
8
0-0
6
CONTINUOUS
62
  7
10
841.404
20
688.956
30
0.0
11
844.222
21
689.640
31
0.0
0
LINE
5
2d74
8
0-0
6
CONTINUOUS
62
  7
10
844.222
20
689.640
30
0.0
11
847.133
21
690.286
31
0.0
0
LINE
5
2d75
8
0-0
6
CONTINUOUS
62
  7
10
847.133
20
690.286
30
0.0
11
850.128
21
690.894
31
0.0
0
LINE
5
2d76
8
0-0
6
CONTINUOUS
62
  7
10
850.128
20
690.894
30
0.0
11
853.193
21
691.463
31
0.0
0
LINE
5
2d77
8
0-0
6
CONTINUOUS
62
  7
10
853.193
20
691.463
30
0.0
11
856.315
21
691.993
31
0.0
0
LINE
5
2d78
8
0-0
6
CONTINUOUS
62
  7
10
856.315
20
691.993
30
0.0
11
859.479
21
692.484
31
0.0
0
LINE
5
2d79
8
0-0
6
CONTINUOUS
62
  7
10
859.479
20
692.484
30
0.0
11
862.668
21
692.935
31
0.0
0
LINE
5
2d7a
8
0-0
6
CONTINUOUS
62
  7
10
862.668
20
692.935
30
0.0
11
865.867
21
693.348
31
0.0
0
LINE
5
2d7b
8
0-0
6
CONTINUOUS
62
  7
10
865.867
20
693.348
30
0.0
11
869.057
21
693.723
31
0.0
0
LINE
5
2d7c
8
0-0
6
CONTINUOUS
62
  7
10
869.057
20
693.723
30
0.0
11
872.224
21
694.060
31
0.0
0
LINE
5
2d7d
8
0-0
6
CONTINUOUS
62
  7
10
872.224
20
694.060
30
0.0
11
875.354
21
694.362
31
0.0
0
LINE
5
2d7e
8
0-0
6
CONTINUOUS
62
  7
10
875.354
20
694.362
30
0.0
11
878.439
21
694.630
31
0.0
0
LINE
5
2d7f
8
0-0
6
CONTINUOUS
62
  7
10
878.439
20
694.630
30
0.0
11
881.475
21
694.868
31
0.0
0
LINE
5
2d80
8
0-0
6
CONTINUOUS
62
  7
10
881.475
20
694.868
30
0.0
11
884.466
21
695.079
31
0.0
0
LINE
5
2d81
8
0-0
6
CONTINUOUS
62
  7
10
884.466
20
695.079
30
0.0
11
887.427
21
695.268
31
0.0
0
LINE
5
2d82
8
0-0
6
CONTINUOUS
62
  7
10
887.427
20
695.268
30
0.0
11
890.387
21
695.441
31
0.0
0
LINE
5
2d83
8
0-0
6
CONTINUOUS
62
  7
10
890.387
20
695.441
30
0.0
11
891.892
21
695.524
31
0.0
0
LINE
5
2d84
8
0-0
6
CONTINUOUS
62
  7
10
847.188
20
619.326
30
0.0
11
847.138
21
619.183
31
0.0
0
LINE
5
2d85
8
0-0
6
CONTINUOUS
62
  7
10
847.138
20
619.183
30
0.0
11
847.093
21
619.045
31
0.0
0
LINE
5
2d86
8
0-0
6
CONTINUOUS
62
  7
10
847.093
20
619.045
30
0.0
11
847.052
21
618.909
31
0.0
0
LINE
5
2d87
8
0-0
6
CONTINUOUS
62
  7
10
847.052
20
618.909
30
0.0
11
847.013
21
618.772
31
0.0
0
LINE
5
2d88
8
0-0
6
CONTINUOUS
62
  7
10
847.013
20
618.772
30
0.0
11
846.977
21
618.634
31
0.0
0
LINE
5
2d89
8
0-0
6
CONTINUOUS
62
  7
10
846.977
20
618.634
30
0.0
11
846.942
21
618.489
31
0.0
0
LINE
5
2d8a
8
0-0
6
CONTINUOUS
62
  7
10
846.942
20
618.489
30
0.0
11
846.909
21
618.334
31
0.0
0
LINE
5
2d8b
8
0-0
6
CONTINUOUS
62
  7
10
846.909
20
618.334
30
0.0
11
846.876
21
618.164
31
0.0
0
LINE
5
2d8c
8
0-0
6
CONTINUOUS
62
  7
10
846.876
20
618.164
30
0.0
11
846.843
21
617.975
31
0.0
0
LINE
5
2d8d
8
0-0
6
CONTINUOUS
62
  7
10
846.843
20
617.975
30
0.0
11
846.808
21
617.760
31
0.0
0
LINE
5
2d8e
8
0-0
6
CONTINUOUS
62
  7
10
846.808
20
617.760
30
0.0
11
846.771
21
617.512
31
0.0
0
LINE
5
2d8f
8
0-0
6
CONTINUOUS
62
  7
10
846.771
20
617.512
30
0.0
11
846.731
21
617.226
31
0.0
0
LINE
5
2d90
8
0-0
6
CONTINUOUS
62
  7
10
846.731
20
617.226
30
0.0
11
846.685
21
616.892
31
0.0
0
LINE
5
2d91
8
0-0
6
CONTINUOUS
62
  7
10
846.685
20
616.892
30
0.0
11
846.635
21
616.502
31
0.0
0
LINE
5
2d92
8
0-0
6
CONTINUOUS
62
  7
10
846.635
20
616.502
30
0.0
11
846.577
21
616.048
31
0.0
0
LINE
5
2d93
8
0-0
6
CONTINUOUS
62
  7
10
846.577
20
616.048
30
0.0
11
846.510
21
615.520
31
0.0
0
LINE
5
2d94
8
0-0
6
CONTINUOUS
62
  7
10
846.510
20
615.520
30
0.0
11
846.434
21
614.907
31
0.0
0
LINE
5
2d95
8
0-0
6
CONTINUOUS
62
  7
10
846.434
20
614.907
30
0.0
11
846.347
21
614.199
31
0.0
0
LINE
5
2d96
8
0-0
6
CONTINUOUS
62
  7
10
846.347
20
614.199
30
0.0
11
846.247
21
613.384
31
0.0
0
LINE
5
2d97
8
0-0
6
CONTINUOUS
62
  7
10
767.667
20
675.135
30
0.0
11
751.892
21
535.135
31
0.0
0
LINE
5
2d98
8
0-0
6
CONTINUOUS
62
  7
10
784.382
20
671.645
30
0.0
11
769.000
21
535.135
31
0.0
0
LINE
5
2d99
8
0-0
6
CONTINUOUS
62
  7
10
792.247
20
670.003
30
0.0
11
777.050
21
535.135
31
0.0
0
LINE
5
2d9a
8
0-0
6
CONTINUOUS
62
  7
10
806.302
20
660.771
30
0.0
11
792.145
21
535.135
31
0.0
0
LINE
5
2d9b
8
0-0
6
CONTINUOUS
62
  7
10
819.505
20
643.979
30
0.0
11
807.240
21
535.135
31
0.0
0
LINE
5
2d9c
8
0-0
6
CONTINUOUS
62
  7
10
851.827
20
617.460
30
0.0
11
851.216
21
612.824
31
0.0
0
LINE
5
2d9d
8
0-0
6
CONTINUOUS
62
  7
10
824.437
20
643.093
30
0.0
11
824.906
21
644.990
31
0.0
0
LINE
5
2d9e
8
0-0
6
CONTINUOUS
62
  7
10
824.906
20
644.990
30
0.0
11
825.481
21
647.018
31
0.0
0
LINE
5
2d9f
8
0-0
6
CONTINUOUS
62
  7
10
825.481
20
647.018
30
0.0
11
826.104
21
648.928
31
0.0
0
LINE
5
2da0
8
0-0
6
CONTINUOUS
62
  7
10
826.104
20
648.928
30
0.0
11
826.780
21
650.716
31
0.0
0
LINE
5
2da1
8
0-0
6
CONTINUOUS
62
  7
10
826.780
20
650.716
30
0.0
11
827.515
21
652.382
31
0.0
0
LINE
5
2da2
8
0-0
6
CONTINUOUS
62
  7
10
827.515
20
652.382
30
0.0
11
828.314
21
653.934
31
0.0
0
LINE
5
2da3
8
0-0
6
CONTINUOUS
62
  7
10
828.314
20
653.934
30
0.0
11
829.185
21
655.379
31
0.0
0
LINE
5
2da4
8
0-0
6
CONTINUOUS
62
  7
10
829.185
20
655.379
30
0.0
11
830.139
21
656.730
31
0.0
0
LINE
5
2da5
8
0-0
6
CONTINUOUS
62
  7
10
830.139
20
656.730
30
0.0
11
831.189
21
657.999
31
0.0
0
LINE
5
2da6
8
0-0
6
CONTINUOUS
62
  7
10
831.189
20
657.999
30
0.0
11
832.354
21
659.201
31
0.0
0
LINE
5
2da7
8
0-0
6
CONTINUOUS
62
  7
10
832.354
20
659.201
30
0.0
11
833.652
21
660.349
31
0.0
0
LINE
5
2da8
8
0-0
6
CONTINUOUS
62
  7
10
833.652
20
660.349
30
0.0
11
835.103
21
661.450
31
0.0
0
LINE
5
2da9
8
0-0
6
CONTINUOUS
62
  7
10
835.103
20
661.450
30
0.0
11
836.727
21
662.511
31
0.0
0
LINE
5
2daa
8
0-0
6
CONTINUOUS
62
  7
10
836.727
20
662.511
30
0.0
11
838.534
21
663.530
31
0.0
0
LINE
5
2dab
8
0-0
6
CONTINUOUS
62
  7
10
838.534
20
663.530
30
0.0
11
840.537
21
664.510
31
0.0
0
LINE
5
2dac
8
0-0
6
CONTINUOUS
62
  7
10
840.537
20
664.510
30
0.0
11
842.737
21
665.446
31
0.0
0
LINE
5
2dad
8
0-0
6
CONTINUOUS
62
  7
10
842.737
20
665.446
30
0.0
11
845.134
21
666.336
31
0.0
0
LINE
5
2dae
8
0-0
6
CONTINUOUS
62
  7
10
845.134
20
666.336
30
0.0
11
847.722
21
667.178
31
0.0
0
LINE
5
2daf
8
0-0
6
CONTINUOUS
62
  7
10
847.722
20
667.178
30
0.0
11
850.492
21
667.969
31
0.0
0
LINE
5
2db0
8
0-0
6
CONTINUOUS
62
  7
10
850.492
20
667.969
30
0.0
11
853.428
21
668.707
31
0.0
0
LINE
5
2db1
8
0-0
6
CONTINUOUS
62
  7
10
853.428
20
668.707
30
0.0
11
856.516
21
669.390
31
0.0
0
LINE
5
2db2
8
0-0
6
CONTINUOUS
62
  7
10
856.516
20
669.390
30
0.0
11
859.736
21
670.016
31
0.0
0
LINE
5
2db3
8
0-0
6
CONTINUOUS
62
  7
10
859.736
20
670.016
30
0.0
11
863.062
21
670.583
31
0.0
0
LINE
5
2db4
8
0-0
6
CONTINUOUS
62
  7
10
863.062
20
670.583
30
0.0
11
866.471
21
671.090
31
0.0
0
LINE
5
2db5
8
0-0
6
CONTINUOUS
62
  7
10
866.471
20
671.090
30
0.0
11
869.935
21
671.536
31
0.0
0
LINE
5
2db6
8
0-0
6
CONTINUOUS
62
  7
10
869.935
20
671.536
30
0.0
11
873.430
21
671.920
31
0.0
0
LINE
5
2db7
8
0-0
6
CONTINUOUS
62
  7
10
873.430
20
671.920
30
0.0
11
876.923
21
672.241
31
0.0
0
LINE
5
2db8
8
0-0
6
CONTINUOUS
62
  7
10
876.923
20
672.241
30
0.0
11
880.399
21
672.502
31
0.0
0
LINE
5
2db9
8
0-0
6
CONTINUOUS
62
  7
10
880.399
20
672.502
30
0.0
11
883.824
21
672.704
31
0.0
0
LINE
5
2dba
8
0-0
6
CONTINUOUS
62
  7
10
883.824
20
672.704
30
0.0
11
887.189
21
672.850
31
0.0
0
LINE
5
2dbb
8
0-0
6
CONTINUOUS
62
  7
10
887.189
20
672.850
30
0.0
11
890.485
21
672.945
31
0.0
0
LINE
5
2dbc
8
0-0
6
CONTINUOUS
62
  7
10
890.485
20
672.945
30
0.0
11
891.585
21
672.964
31
0.0
0
LINE
5
2dbd
8
0-0
6
CONTINUOUS
62
  7
10
824.437
20
643.093
30
0.0
11
812.272
21
535.135
31
0.0
0
LINE
5
2dbe
8
0-0
6
CONTINUOUS
62
  7
10
838.551
20
625.457
30
0.0
11
828.373
21
535.135
31
0.0
0
LINE
5
2dbf
8
0-0
6
CONTINUOUS
62
  7
10
833.622
20
626.369
30
0.0
11
823.341
21
535.135
31
0.0
0
LINE
5
2dc0
8
0-0
6
CONTINUOUS
62
  7
10
846.247
20
613.384
30
0.0
11
837.430
21
535.135
31
0.0
0
LINE
5
2dc1
8
0-0
6
CONTINUOUS
62
  7
10
851.216
20
612.824
30
0.0
11
842.461
21
535.135
31
0.0
0
LINE
5
2dc2
8
0-0
6
CONTINUOUS
62
  7
10
857.602
20
580.194
30
0.0
11
852.525
21
535.135
31
0.0
0
LINE
5
2dc3
8
0-0
6
CONTINUOUS
62
  7
10
862.540
20
579.358
30
0.0
11
857.556
21
535.135
31
0.0
0
LINE
5
2dc4
8
0-0
6
CONTINUOUS
62
  7
10
891.561
20
603.030
30
0.0
11
891.257
21
602.945
31
0.0
0
LINE
5
2dc5
8
0-0
6
CONTINUOUS
62
  7
10
891.257
20
602.945
30
0.0
11
890.980
21
602.843
31
0.0
0
LINE
5
2dc6
8
0-0
6
CONTINUOUS
62
  7
10
890.980
20
602.843
30
0.0
11
890.713
21
602.719
31
0.0
0
LINE
5
2dc7
8
0-0
6
CONTINUOUS
62
  7
10
890.713
20
602.719
30
0.0
11
890.440
21
602.563
31
0.0
0
LINE
5
2dc8
8
0-0
6
CONTINUOUS
62
  7
10
890.440
20
602.563
30
0.0
11
890.148
21
602.363
31
0.0
0
LINE
5
2dc9
8
0-0
6
CONTINUOUS
62
  7
10
890.148
20
602.363
30
0.0
11
889.833
21
602.111
31
0.0
0
LINE
5
2dca
8
0-0
6
CONTINUOUS
62
  7
10
889.833
20
602.111
30
0.0
11
889.491
21
601.795
31
0.0
0
LINE
5
2dcb
8
0-0
6
CONTINUOUS
62
  7
10
889.491
20
601.795
30
0.0
11
889.125
21
601.410
31
0.0
0
LINE
5
2dcc
8
0-0
6
CONTINUOUS
62
  7
10
889.125
20
601.410
30
0.0
11
888.735
21
600.952
31
0.0
0
LINE
5
2dcd
8
0-0
6
CONTINUOUS
62
  7
10
888.735
20
600.952
30
0.0
11
888.327
21
600.419
31
0.0
0
LINE
5
2dce
8
0-0
6
CONTINUOUS
62
  7
10
888.327
20
600.419
30
0.0
11
887.901
21
599.808
31
0.0
0
LINE
5
2dcf
8
0-0
6
CONTINUOUS
62
  7
10
887.901
20
599.808
30
0.0
11
887.460
21
599.119
31
0.0
0
LINE
5
2dd0
8
0-0
6
CONTINUOUS
62
  7
10
887.460
20
599.119
30
0.0
11
887.008
21
598.354
31
0.0
0
LINE
5
2dd1
8
0-0
6
CONTINUOUS
62
  7
10
887.008
20
598.354
30
0.0
11
886.548
21
597.516
31
0.0
0
LINE
5
2dd2
8
0-0
6
CONTINUOUS
62
  7
10
886.548
20
597.516
30
0.0
11
886.078
21
596.602
31
0.0
0
LINE
5
2dd3
8
0-0
6
CONTINUOUS
62
  7
10
886.078
20
596.602
30
0.0
11
885.601
21
595.613
31
0.0
0
LINE
5
2dd4
8
0-0
6
CONTINUOUS
62
  7
10
885.601
20
595.613
30
0.0
11
885.120
21
594.555
31
0.0
0
LINE
5
2dd5
8
0-0
6
CONTINUOUS
62
  7
10
885.120
20
594.555
30
0.0
11
884.633
21
593.425
31
0.0
0
LINE
5
2dd6
8
0-0
6
CONTINUOUS
62
  7
10
884.633
20
593.425
30
0.0
11
884.143
21
592.230
31
0.0
0
LINE
5
2dd7
8
0-0
6
CONTINUOUS
62
  7
10
884.143
20
592.230
30
0.0
11
883.649
21
590.963
31
0.0
0
LINE
5
2dd8
8
0-0
6
CONTINUOUS
62
  7
10
883.649
20
590.963
30
0.0
11
883.154
21
589.633
31
0.0
0
LINE
5
2dd9
8
0-0
6
CONTINUOUS
62
  7
10
883.154
20
589.633
30
0.0
11
882.658
21
588.244
31
0.0
0
LINE
5
2dda
8
0-0
6
CONTINUOUS
62
  7
10
882.658
20
588.244
30
0.0
11
882.163
21
586.795
31
0.0
0
LINE
5
2ddb
8
0-0
6
CONTINUOUS
62
  7
10
882.163
20
586.795
30
0.0
11
881.668
21
585.286
31
0.0
0
LINE
5
2ddc
8
0-0
6
CONTINUOUS
62
  7
10
881.668
20
585.286
30
0.0
11
881.174
21
583.719
31
0.0
0
LINE
5
2ddd
8
0-0
6
CONTINUOUS
62
  7
10
881.174
20
583.719
30
0.0
11
880.686
21
582.110
31
0.0
0
LINE
5
2dde
8
0-0
6
CONTINUOUS
62
  7
10
880.686
20
582.110
30
0.0
11
880.199
21
580.444
31
0.0
0
LINE
5
2ddf
8
0-0
6
CONTINUOUS
62
  7
10
880.199
20
580.444
30
0.0
11
879.721
21
578.744
31
0.0
0
LINE
5
2de0
8
0-0
6
CONTINUOUS
62
  7
10
879.721
20
578.744
30
0.0
11
879.249
21
577.003
31
0.0
0
LINE
5
2de1
8
0-0
6
CONTINUOUS
62
  7
10
879.249
20
577.003
30
0.0
11
878.785
21
575.227
31
0.0
0
LINE
5
2de2
8
0-0
6
CONTINUOUS
62
  7
10
878.785
20
575.227
30
0.0
11
878.330
21
573.418
31
0.0
0
LINE
5
2de3
8
0-0
6
CONTINUOUS
62
  7
10
878.330
20
573.418
30
0.0
11
877.885
21
571.583
31
0.0
0
LINE
5
2de4
8
0-0
6
CONTINUOUS
62
  7
10
877.885
20
571.583
30
0.0
11
877.453
21
569.734
31
0.0
0
LINE
5
2de5
8
0-0
6
CONTINUOUS
62
  7
10
877.453
20
569.734
30
0.0
11
877.032
21
567.862
31
0.0
0
LINE
5
2de6
8
0-0
6
CONTINUOUS
62
  7
10
877.032
20
567.862
30
0.0
11
876.625
21
565.978
31
0.0
0
LINE
5
2de7
8
0-0
6
CONTINUOUS
62
  7
10
876.625
20
565.978
30
0.0
11
876.231
21
564.083
31
0.0
0
LINE
5
2de8
8
0-0
6
CONTINUOUS
62
  7
10
876.231
20
564.083
30
0.0
11
875.849
21
562.176
31
0.0
0
LINE
5
2de9
8
0-0
6
CONTINUOUS
62
  7
10
875.849
20
562.176
30
0.0
11
875.480
21
560.254
31
0.0
0
LINE
5
2dea
8
0-0
6
CONTINUOUS
62
  7
10
875.480
20
560.254
30
0.0
11
875.125
21
558.330
31
0.0
0
LINE
5
2deb
8
0-0
6
CONTINUOUS
62
  7
10
875.125
20
558.330
30
0.0
11
874.775
21
556.360
31
0.0
0
LINE
5
2dec
8
0-0
6
CONTINUOUS
62
  7
10
874.775
20
556.360
30
0.0
11
874.437
21
554.383
31
0.0
0
LINE
5
2ded
8
0-0
6
CONTINUOUS
62
  7
10
874.437
20
554.383
30
0.0
11
874.099
21
552.334
31
0.0
0
LINE
5
2dee
8
0-0
6
CONTINUOUS
62
  7
10
874.099
20
552.334
30
0.0
11
873.764
21
550.242
31
0.0
0
LINE
5
2def
8
0-0
6
CONTINUOUS
62
  7
10
873.764
20
550.242
30
0.0
11
873.418
21
548.022
31
0.0
0
LINE
5
2df0
8
0-0
6
CONTINUOUS
62
  7
10
873.418
20
548.022
30
0.0
11
873.068
21
545.729
31
0.0
0
LINE
5
2df1
8
0-0
6
CONTINUOUS
62
  7
10
873.068
20
545.729
30
0.0
11
872.670
21
543.100
31
0.0
0
LINE
5
2df2
8
0-0
6
CONTINUOUS
62
  7
10
872.670
20
543.100
30
0.0
11
872.271
21
540.453
31
0.0
0
LINE
5
2df3
8
0-0
6
CONTINUOUS
62
  7
10
891.561
20
603.030
30
0.0
11
891.588
21
603.036
31
0.0
0
LINE
5
2df4
8
0-0
6
CONTINUOUS
62
  7
10
891.588
20
603.036
30
0.0
11
891.613
21
603.041
31
0.0
0
LINE
5
2df5
8
0-0
6
CONTINUOUS
62
  7
10
891.613
20
603.041
30
0.0
11
891.637
21
603.045
31
0.0
0
LINE
5
2df6
8
0-0
6
CONTINUOUS
62
  7
10
891.637
20
603.045
30
0.0
11
891.659
21
603.049
31
0.0
0
LINE
5
2df7
8
0-0
6
CONTINUOUS
62
  7
10
891.659
20
603.049
30
0.0
11
891.680
21
603.052
31
0.0
0
LINE
5
2df8
8
0-0
6
CONTINUOUS
62
  7
10
891.680
20
603.052
30
0.0
11
891.700
21
603.056
31
0.0
0
LINE
5
2df9
8
0-0
6
CONTINUOUS
62
  7
10
891.700
20
603.056
30
0.0
11
891.719
21
603.058
31
0.0
0
LINE
5
2dfa
8
0-0
6
CONTINUOUS
62
  7
10
891.719
20
603.058
30
0.0
11
891.738
21
603.061
31
0.0
0
LINE
5
2dfb
8
0-0
6
CONTINUOUS
62
  7
10
891.738
20
603.061
30
0.0
11
891.755
21
603.063
31
0.0
0
LINE
5
2dfc
8
0-0
6
CONTINUOUS
62
  7
10
891.755
20
603.063
30
0.0
11
891.773
21
603.065
31
0.0
0
LINE
5
2dfd
8
0-0
6
CONTINUOUS
62
  7
10
891.773
20
603.065
30
0.0
11
891.790
21
603.067
31
0.0
0
LINE
5
2dfe
8
0-0
6
CONTINUOUS
62
  7
10
891.790
20
603.067
30
0.0
11
891.806
21
603.068
31
0.0
0
LINE
5
2dff
8
0-0
6
CONTINUOUS
62
  7
10
891.806
20
603.068
30
0.0
11
891.823
21
603.069
31
0.0
0
LINE
5
2e00
8
0-0
6
CONTINUOUS
62
  7
10
891.823
20
603.069
30
0.0
11
891.839
21
603.070
31
0.0
0
LINE
5
2e01
8
0-0
6
CONTINUOUS
62
  7
10
891.839
20
603.070
30
0.0
11
891.854
21
603.071
31
0.0
0
LINE
5
2e02
8
0-0
6
CONTINUOUS
62
  7
10
891.854
20
603.071
30
0.0
11
891.869
21
603.071
31
0.0
0
LINE
5
2e03
8
0-0
6
CONTINUOUS
62
  7
10
891.869
20
603.071
30
0.0
11
891.884
21
603.072
31
0.0
0
LINE
5
2e04
8
0-0
6
CONTINUOUS
62
  7
10
891.884
20
603.072
30
0.0
11
891.892
21
603.072
31
0.0
0
LINE
5
2e05
8
0-0
6
CONTINUOUS
62
  7
10
838.551
20
625.457
30
0.0
11
838.989
21
627.147
31
0.0
0
LINE
5
2e06
8
0-0
6
CONTINUOUS
62
  7
10
838.989
20
627.147
30
0.0
11
839.505
21
629.063
31
0.0
0
LINE
5
2e07
8
0-0
6
CONTINUOUS
62
  7
10
839.505
20
629.063
30
0.0
11
840.024
21
630.886
31
0.0
0
LINE
5
2e08
8
0-0
6
CONTINUOUS
62
  7
10
840.024
20
630.886
30
0.0
11
840.552
21
632.607
31
0.0
0
LINE
5
2e09
8
0-0
6
CONTINUOUS
62
  7
10
840.552
20
632.607
30
0.0
11
841.093
21
634.223
31
0.0
0
LINE
5
2e0a
8
0-0
6
CONTINUOUS
62
  7
10
841.093
20
634.223
30
0.0
11
841.656
21
635.739
31
0.0
0
LINE
5
2e0b
8
0-0
6
CONTINUOUS
62
  7
10
841.656
20
635.739
30
0.0
11
842.242
21
637.150
31
0.0
0
LINE
5
2e0c
8
0-0
6
CONTINUOUS
62
  7
10
842.242
20
637.150
30
0.0
11
842.854
21
638.457
31
0.0
0
LINE
5
2e0d
8
0-0
6
CONTINUOUS
62
  7
10
842.854
20
638.457
30
0.0
11
843.496
21
639.668
31
0.0
0
LINE
5
2e0e
8
0-0
6
CONTINUOUS
62
  7
10
843.496
20
639.668
30
0.0
11
844.171
21
640.786
31
0.0
0
LINE
5
2e0f
8
0-0
6
CONTINUOUS
62
  7
10
844.171
20
640.786
30
0.0
11
844.883
21
641.817
31
0.0
0
LINE
5
2e10
8
0-0
6
CONTINUOUS
62
  7
10
844.883
20
641.817
30
0.0
11
845.637
21
642.772
31
0.0
0
LINE
5
2e11
8
0-0
6
CONTINUOUS
62
  7
10
845.637
20
642.772
30
0.0
11
846.439
21
643.659
31
0.0
0
LINE
5
2e12
8
0-0
6
CONTINUOUS
62
  7
10
846.439
20
643.659
30
0.0
11
847.299
21
644.488
31
0.0
0
LINE
5
2e13
8
0-0
6
CONTINUOUS
62
  7
10
847.299
20
644.488
30
0.0
11
848.229
21
645.268
31
0.0
0
LINE
5
2e14
8
0-0
6
CONTINUOUS
62
  7
10
848.229
20
645.268
30
0.0
11
849.235
21
646.005
31
0.0
0
LINE
5
2e15
8
0-0
6
CONTINUOUS
62
  7
10
849.235
20
646.005
30
0.0
11
850.331
21
646.704
31
0.0
0
LINE
5
2e16
8
0-0
6
CONTINUOUS
62
  7
10
850.331
20
646.704
30
0.0
11
851.526
21
647.370
31
0.0
0
LINE
5
2e17
8
0-0
6
CONTINUOUS
62
  7
10
851.526
20
647.370
30
0.0
11
852.826
21
648.002
31
0.0
0
LINE
5
2e18
8
0-0
6
CONTINUOUS
62
  7
10
852.826
20
648.002
30
0.0
11
854.238
21
648.603
31
0.0
0
LINE
5
2e19
8
0-0
6
CONTINUOUS
62
  7
10
854.238
20
648.603
30
0.0
11
855.763
21
649.173
31
0.0
0
LINE
5
2e1a
8
0-0
6
CONTINUOUS
62
  7
10
855.763
20
649.173
30
0.0
11
857.404
21
649.711
31
0.0
0
LINE
5
2e1b
8
0-0
6
CONTINUOUS
62
  7
10
857.404
20
649.711
30
0.0
11
859.158
21
650.219
31
0.0
0
LINE
5
2e1c
8
0-0
6
CONTINUOUS
62
  7
10
859.158
20
650.219
30
0.0
11
861.025
21
650.697
31
0.0
0
LINE
5
2e1d
8
0-0
6
CONTINUOUS
62
  7
10
861.025
20
650.697
30
0.0
11
863.001
21
651.148
31
0.0
0
LINE
5
2e1e
8
0-0
6
CONTINUOUS
62
  7
10
863.001
20
651.148
30
0.0
11
865.076
21
651.571
31
0.0
0
LINE
5
2e1f
8
0-0
6
CONTINUOUS
62
  7
10
865.076
20
651.571
30
0.0
11
867.245
21
651.968
31
0.0
0
LINE
5
2e20
8
0-0
6
CONTINUOUS
62
  7
10
867.245
20
651.968
30
0.0
11
869.496
21
652.342
31
0.0
0
LINE
5
2e21
8
0-0
6
CONTINUOUS
62
  7
10
869.496
20
652.342
30
0.0
11
871.824
21
652.694
31
0.0
0
LINE
5
2e22
8
0-0
6
CONTINUOUS
62
  7
10
871.824
20
652.694
30
0.0
11
874.202
21
653.026
31
0.0
0
LINE
5
2e23
8
0-0
6
CONTINUOUS
62
  7
10
874.202
20
653.026
30
0.0
11
876.624
21
653.341
31
0.0
0
LINE
5
2e24
8
0-0
6
CONTINUOUS
62
  7
10
876.624
20
653.341
30
0.0
11
879.048
21
653.638
31
0.0
0
LINE
5
2e25
8
0-0
6
CONTINUOUS
62
  7
10
879.048
20
653.638
30
0.0
11
881.484
21
653.923
31
0.0
0
LINE
5
2e26
8
0-0
6
CONTINUOUS
62
  7
10
881.484
20
653.923
30
0.0
11
883.908
21
654.199
31
0.0
0
LINE
5
2e27
8
0-0
6
CONTINUOUS
62
  7
10
883.908
20
654.199
30
0.0
11
886.211
21
654.459
31
0.0
0
LINE
5
2e28
8
0-0
6
CONTINUOUS
62
  7
10
886.211
20
654.459
30
0.0
11
888.450
21
654.716
31
0.0
0
LINE
5
2e29
8
0-0
6
CONTINUOUS
62
  7
10
888.450
20
654.716
30
0.0
11
890.540
21
654.968
31
0.0
0
LINE
5
2e2a
8
0-0
6
CONTINUOUS
62
  7
10
890.540
20
654.968
30
0.0
11
891.892
21
655.146
31
0.0
0
LINE
5
2e2b
8
0-0
6
CONTINUOUS
62
  7
10
811.231
20
659.864
30
0.0
11
811.442
21
660.684
31
0.0
0
LINE
5
2e2c
8
0-0
6
CONTINUOUS
62
  7
10
811.442
20
660.684
30
0.0
11
811.744
21
661.783
31
0.0
0
LINE
5
2e2d
8
0-0
6
CONTINUOUS
62
  7
10
811.744
20
661.783
30
0.0
11
812.064
21
662.855
31
0.0
0
LINE
5
2e2e
8
0-0
6
CONTINUOUS
62
  7
10
812.064
20
662.855
30
0.0
11
812.405
21
663.891
31
0.0
0
LINE
5
2e2f
8
0-0
6
CONTINUOUS
62
  7
10
812.405
20
663.891
30
0.0
11
812.775
21
664.896
31
0.0
0
LINE
5
2e30
8
0-0
6
CONTINUOUS
62
  7
10
812.775
20
664.896
30
0.0
11
813.180
21
665.873
31
0.0
0
LINE
5
2e31
8
0-0
6
CONTINUOUS
62
  7
10
813.180
20
665.873
30
0.0
11
813.628
21
666.827
31
0.0
0
LINE
5
2e32
8
0-0
6
CONTINUOUS
62
  7
10
813.628
20
666.827
30
0.0
11
814.127
21
667.765
31
0.0
0
LINE
5
2e33
8
0-0
6
CONTINUOUS
62
  7
10
814.127
20
667.765
30
0.0
11
814.685
21
668.690
31
0.0
0
LINE
5
2e34
8
0-0
6
CONTINUOUS
62
  7
10
814.685
20
668.690
30
0.0
11
815.311
21
669.609
31
0.0
0
LINE
5
2e35
8
0-0
6
CONTINUOUS
62
  7
10
815.311
20
669.609
30
0.0
11
816.013
21
670.525
31
0.0
0
LINE
5
2e36
8
0-0
6
CONTINUOUS
62
  7
10
816.013
20
670.525
30
0.0
11
816.801
21
671.442
31
0.0
0
LINE
5
2e37
8
0-0
6
CONTINUOUS
62
  7
10
816.801
20
671.442
30
0.0
11
817.683
21
672.359
31
0.0
0
LINE
5
2e38
8
0-0
6
CONTINUOUS
62
  7
10
817.683
20
672.359
30
0.0
11
818.665
21
673.275
31
0.0
0
LINE
5
2e39
8
0-0
6
CONTINUOUS
62
  7
10
818.665
20
673.275
30
0.0
11
819.758
21
674.191
31
0.0
0
LINE
5
2e3a
8
0-0
6
CONTINUOUS
62
  7
10
819.758
20
674.191
30
0.0
11
820.963
21
675.104
31
0.0
0
LINE
5
2e3b
8
0-0
6
CONTINUOUS
62
  7
10
820.963
20
675.104
30
0.0
11
822.288
21
676.010
31
0.0
0
LINE
5
2e3c
8
0-0
6
CONTINUOUS
62
  7
10
822.288
20
676.010
30
0.0
11
823.739
21
676.908
31
0.0
0
LINE
5
2e3d
8
0-0
6
CONTINUOUS
62
  7
10
823.739
20
676.908
30
0.0
11
825.315
21
677.793
31
0.0
0
LINE
5
2e3e
8
0-0
6
CONTINUOUS
62
  7
10
825.315
20
677.793
30
0.0
11
827.023
21
678.664
31
0.0
0
LINE
5
2e3f
8
0-0
6
CONTINUOUS
62
  7
10
827.023
20
678.664
30
0.0
11
828.862
21
679.516
31
0.0
0
LINE
5
2e40
8
0-0
6
CONTINUOUS
62
  7
10
828.862
20
679.516
30
0.0
11
830.835
21
680.348
31
0.0
0
LINE
5
2e41
8
0-0
6
CONTINUOUS
62
  7
10
830.835
20
680.348
30
0.0
11
832.941
21
681.156
31
0.0
0
LINE
5
2e42
8
0-0
6
CONTINUOUS
62
  7
10
832.941
20
681.156
30
0.0
11
835.175
21
681.937
31
0.0
0
LINE
5
2e43
8
0-0
6
CONTINUOUS
62
  7
10
835.175
20
681.937
30
0.0
11
837.543
21
682.693
31
0.0
0
LINE
5
2e44
8
0-0
6
CONTINUOUS
62
  7
10
837.543
20
682.693
30
0.0
11
840.029
21
683.416
31
0.0
0
LINE
5
2e45
8
0-0
6
CONTINUOUS
62
  7
10
840.029
20
683.416
30
0.0
11
842.637
21
684.110
31
0.0
0
LINE
5
2e46
8
0-0
6
CONTINUOUS
62
  7
10
842.637
20
684.110
30
0.0
11
845.353
21
684.769
31
0.0
0
LINE
5
2e47
8
0-0
6
CONTINUOUS
62
  7
10
845.353
20
684.769
30
0.0
11
848.173
21
685.395
31
0.0
0
LINE
5
2e48
8
0-0
6
CONTINUOUS
62
  7
10
848.173
20
685.395
30
0.0
11
851.080
21
685.985
31
0.0
0
LINE
5
2e49
8
0-0
6
CONTINUOUS
62
  7
10
851.080
20
685.985
30
0.0
11
854.069
21
686.540
31
0.0
0
LINE
5
2e4a
8
0-0
6
CONTINUOUS
62
  7
10
854.069
20
686.540
30
0.0
11
857.116
21
687.058
31
0.0
0
LINE
5
2e4b
8
0-0
6
CONTINUOUS
62
  7
10
857.116
20
687.058
30
0.0
11
860.211
21
687.537
31
0.0
0
LINE
5
2e4c
8
0-0
6
CONTINUOUS
62
  7
10
860.211
20
687.537
30
0.0
11
863.340
21
687.980
31
0.0
0
LINE
5
2e4d
8
0-0
6
CONTINUOUS
62
  7
10
863.340
20
687.980
30
0.0
11
866.481
21
688.386
31
0.0
0
LINE
5
2e4e
8
0-0
6
CONTINUOUS
62
  7
10
866.481
20
688.386
30
0.0
11
869.611
21
688.753
31
0.0
0
LINE
5
2e4f
8
0-0
6
CONTINUOUS
62
  7
10
869.611
20
688.753
30
0.0
11
872.727
21
689.085
31
0.0
0
LINE
5
2e50
8
0-0
6
CONTINUOUS
62
  7
10
872.727
20
689.085
30
0.0
11
875.812
21
689.383
31
0.0
0
LINE
5
2e51
8
0-0
6
CONTINUOUS
62
  7
10
875.812
20
689.383
30
0.0
11
878.853
21
689.647
31
0.0
0
LINE
5
2e52
8
0-0
6
CONTINUOUS
62
  7
10
878.853
20
689.647
30
0.0
11
881.847
21
689.882
31
0.0
0
LINE
5
2e53
8
0-0
6
CONTINUOUS
62
  7
10
881.847
20
689.882
30
0.0
11
884.804
21
690.090
31
0.0
0
LINE
5
2e54
8
0-0
6
CONTINUOUS
62
  7
10
884.804
20
690.090
30
0.0
11
887.734
21
690.278
31
0.0
0
LINE
5
2e55
8
0-0
6
CONTINUOUS
62
  7
10
887.734
20
690.278
30
0.0
11
890.670
21
690.449
31
0.0
0
LINE
5
2e56
8
0-0
6
CONTINUOUS
62
  7
10
890.670
20
690.449
30
0.0
11
891.892
21
690.516
31
0.0
0
LINE
5
2e57
8
0-0
6
CONTINUOUS
62
  7
10
891.892
20
619.322
30
0.0
11
890.156
21
619.078
31
0.0
0
LINE
5
2e58
8
0-0
6
CONTINUOUS
62
  7
10
890.156
20
619.078
30
0.0
11
887.969
21
618.680
31
0.0
0
LINE
5
2e59
8
0-0
6
CONTINUOUS
62
  7
10
887.969
20
618.680
30
0.0
11
885.934
21
618.221
31
0.0
0
LINE
5
2e5a
8
0-0
6
CONTINUOUS
62
  7
10
885.934
20
618.221
30
0.0
11
884.056
21
617.708
31
0.0
0
LINE
5
2e5b
8
0-0
6
CONTINUOUS
62
  7
10
884.056
20
617.708
30
0.0
11
882.341
21
617.150
31
0.0
0
LINE
5
2e5c
8
0-0
6
CONTINUOUS
62
  7
10
882.341
20
617.150
30
0.0
11
880.785
21
616.552
31
0.0
0
LINE
5
2e5d
8
0-0
6
CONTINUOUS
62
  7
10
880.785
20
616.552
30
0.0
11
879.384
21
615.920
31
0.0
0
LINE
5
2e5e
8
0-0
6
CONTINUOUS
62
  7
10
879.384
20
615.920
30
0.0
11
878.128
21
615.256
31
0.0
0
LINE
5
2e5f
8
0-0
6
CONTINUOUS
62
  7
10
878.128
20
615.256
30
0.0
11
877.006
21
614.563
31
0.0
0
LINE
5
2e60
8
0-0
6
CONTINUOUS
62
  7
10
877.006
20
614.563
30
0.0
11
876.000
21
613.838
31
0.0
0
LINE
5
2e61
8
0-0
6
CONTINUOUS
62
  7
10
876.000
20
613.838
30
0.0
11
875.092
21
613.077
31
0.0
0
LINE
5
2e62
8
0-0
6
CONTINUOUS
62
  7
10
875.092
20
613.077
30
0.0
11
874.263
21
612.270
31
0.0
0
LINE
5
2e63
8
0-0
6
CONTINUOUS
62
  7
10
874.263
20
612.270
30
0.0
11
873.494
21
611.403
31
0.0
0
LINE
5
2e64
8
0-0
6
CONTINUOUS
62
  7
10
873.494
20
611.403
30
0.0
11
872.772
21
610.466
31
0.0
0
LINE
5
2e65
8
0-0
6
CONTINUOUS
62
  7
10
872.772
20
610.466
30
0.0
11
872.087
21
609.448
31
0.0
0
LINE
5
2e66
8
0-0
6
CONTINUOUS
62
  7
10
872.087
20
609.448
30
0.0
11
871.431
21
608.339
31
0.0
0
LINE
5
2e67
8
0-0
6
CONTINUOUS
62
  7
10
871.431
20
608.339
30
0.0
11
870.800
21
607.137
31
0.0
0
LINE
5
2e68
8
0-0
6
CONTINUOUS
62
  7
10
870.800
20
607.137
30
0.0
11
870.190
21
605.842
31
0.0
0
LINE
5
2e69
8
0-0
6
CONTINUOUS
62
  7
10
870.190
20
605.842
30
0.0
11
869.601
21
604.459
31
0.0
0
LINE
5
2e6a
8
0-0
6
CONTINUOUS
62
  7
10
869.601
20
604.459
30
0.0
11
869.031
21
602.995
31
0.0
0
LINE
5
2e6b
8
0-0
6
CONTINUOUS
62
  7
10
869.031
20
602.995
30
0.0
11
868.476
21
601.455
31
0.0
0
LINE
5
2e6c
8
0-0
6
CONTINUOUS
62
  7
10
868.476
20
601.455
30
0.0
11
867.937
21
599.854
31
0.0
0
LINE
5
2e6d
8
0-0
6
CONTINUOUS
62
  7
10
867.937
20
599.854
30
0.0
11
867.415
21
598.206
31
0.0
0
LINE
5
2e6e
8
0-0
6
CONTINUOUS
62
  7
10
867.415
20
598.206
30
0.0
11
866.906
21
596.520
31
0.0
0
LINE
5
2e6f
8
0-0
6
CONTINUOUS
62
  7
10
866.906
20
596.520
30
0.0
11
866.409
21
594.800
31
0.0
0
LINE
5
2e70
8
0-0
6
CONTINUOUS
62
  7
10
866.409
20
594.800
30
0.0
11
865.931
21
593.081
31
0.0
0
LINE
5
2e71
8
0-0
6
CONTINUOUS
62
  7
10
865.931
20
593.081
30
0.0
11
865.461
21
591.339
31
0.0
0
LINE
5
2e72
8
0-0
6
CONTINUOUS
62
  7
10
865.461
20
591.339
30
0.0
11
865.010
21
589.616
31
0.0
0
LINE
5
2e73
8
0-0
6
CONTINUOUS
62
  7
10
865.010
20
589.616
30
0.0
11
864.572
21
587.902
31
0.0
0
LINE
5
2e74
8
0-0
6
CONTINUOUS
62
  7
10
864.572
20
587.902
30
0.0
11
864.142
21
586.176
31
0.0
0
LINE
5
2e75
8
0-0
6
CONTINUOUS
62
  7
10
864.142
20
586.176
30
0.0
11
863.724
21
584.457
31
0.0
0
LINE
5
2e76
8
0-0
6
CONTINUOUS
62
  7
10
863.724
20
584.457
30
0.0
11
863.315
21
582.734
31
0.0
0
LINE
5
2e77
8
0-0
6
CONTINUOUS
62
  7
10
863.315
20
582.734
30
0.0
11
862.901
21
580.954
31
0.0
0
LINE
5
2e78
8
0-0
6
CONTINUOUS
62
  7
10
862.901
20
580.954
30
0.0
11
862.540
21
579.358
31
0.0
0
LINE
5
2e79
8
0-0
6
CONTINUOUS
62
  7
10
891.892
20
636.112
30
0.0
11
888.611
21
635.794
31
0.0
0
LINE
5
2e7a
8
0-0
6
CONTINUOUS
62
  7
10
888.611
20
635.794
30
0.0
11
885.232
21
635.455
31
0.0
0
LINE
5
2e7b
8
0-0
6
CONTINUOUS
62
  7
10
885.232
20
635.455
30
0.0
11
882.207
21
635.132
31
0.0
0
LINE
5
2e7c
8
0-0
6
CONTINUOUS
62
  7
10
882.207
20
635.132
30
0.0
11
879.494
21
634.815
31
0.0
0
LINE
5
2e7d
8
0-0
6
CONTINUOUS
62
  7
10
879.494
20
634.815
30
0.0
11
877.054
21
634.494
31
0.0
0
LINE
5
2e7e
8
0-0
6
CONTINUOUS
62
  7
10
877.054
20
634.494
30
0.0
11
874.851
21
634.162
31
0.0
0
LINE
5
2e7f
8
0-0
6
CONTINUOUS
62
  7
10
874.851
20
634.162
30
0.0
11
872.861
21
633.813
31
0.0
0
LINE
5
2e80
8
0-0
6
CONTINUOUS
62
  7
10
872.861
20
633.813
30
0.0
11
871.056
21
633.442
31
0.0
0
LINE
5
2e81
8
0-0
6
CONTINUOUS
62
  7
10
871.056
20
633.442
30
0.0
11
869.415
21
633.047
31
0.0
0
LINE
5
2e82
8
0-0
6
CONTINUOUS
62
  7
10
869.415
20
633.047
30
0.0
11
867.915
21
632.624
31
0.0
0
LINE
5
2e83
8
0-0
6
CONTINUOUS
62
  7
10
867.915
20
632.624
30
0.0
11
866.536
21
632.172
31
0.0
0
LINE
5
2e84
8
0-0
6
CONTINUOUS
62
  7
10
866.536
20
632.172
30
0.0
11
865.262
21
631.690
31
0.0
0
LINE
5
2e85
8
0-0
6
CONTINUOUS
62
  7
10
865.262
20
631.690
30
0.0
11
864.074
21
631.176
31
0.0
0
LINE
5
2e86
8
0-0
6
CONTINUOUS
62
  7
10
864.074
20
631.176
30
0.0
11
862.965
21
630.631
31
0.0
0
LINE
5
2e87
8
0-0
6
CONTINUOUS
62
  7
10
862.965
20
630.631
30
0.0
11
861.923
21
630.053
31
0.0
0
LINE
5
2e88
8
0-0
6
CONTINUOUS
62
  7
10
861.923
20
630.053
30
0.0
11
860.939
21
629.442
31
0.0
0
LINE
5
2e89
8
0-0
6
CONTINUOUS
62
  7
10
860.939
20
629.442
30
0.0
11
860.011
21
628.800
31
0.0
0
LINE
5
2e8a
8
0-0
6
CONTINUOUS
62
  7
10
860.011
20
628.800
30
0.0
11
859.131
21
628.125
31
0.0
0
LINE
5
2e8b
8
0-0
6
CONTINUOUS
62
  7
10
859.131
20
628.125
30
0.0
11
858.301
21
627.420
31
0.0
0
LINE
5
2e8c
8
0-0
6
CONTINUOUS
62
  7
10
858.301
20
627.420
30
0.0
11
857.515
21
626.684
31
0.0
0
LINE
5
2e8d
8
0-0
6
CONTINUOUS
62
  7
10
857.515
20
626.684
30
0.0
11
856.774
21
625.917
31
0.0
0
LINE
5
2e8e
8
0-0
6
CONTINUOUS
62
  7
10
856.774
20
625.917
30
0.0
11
856.073
21
625.114
31
0.0
0
LINE
5
2e8f
8
0-0
6
CONTINUOUS
62
  7
10
856.073
20
625.114
30
0.0
11
855.409
21
624.272
31
0.0
0
LINE
5
2e90
8
0-0
6
CONTINUOUS
62
  7
10
855.409
20
624.272
30
0.0
11
854.778
21
623.380
31
0.0
0
LINE
5
2e91
8
0-0
6
CONTINUOUS
62
  7
10
854.778
20
623.380
30
0.0
11
854.173
21
622.427
31
0.0
0
LINE
5
2e92
8
0-0
6
CONTINUOUS
62
  7
10
854.173
20
622.427
30
0.0
11
853.586
21
621.392
31
0.0
0
LINE
5
2e93
8
0-0
6
CONTINUOUS
62
  7
10
853.586
20
621.392
30
0.0
11
853.011
21
620.254
31
0.0
0
LINE
5
2e94
8
0-0
6
CONTINUOUS
62
  7
10
853.011
20
620.254
30
0.0
11
852.439
21
618.982
31
0.0
0
LINE
5
2e95
8
0-0
6
CONTINUOUS
62
  7
10
852.439
20
618.982
30
0.0
11
851.827
21
617.460
31
0.0
0
LINE
5
2e96
8
0-0
6
CONTINUOUS
62
  7
10
811.231
20
659.864
30
0.0
11
797.177
21
535.135
31
0.0
0
LINE
5
2e97
8
0-0
6
CONTINUOUS
62
  7
10
868.316
20
541.048
30
0.0
11
867.649
21
535.135
31
0.0
0
LINE
5
2e98
8
0-0
6
CONTINUOUS
62
  7
10
872.271
20
540.453
30
0.0
11
871.672
21
535.135
31
0.0
0
LINE
5
2e99
8
0-0
6
CONTINUOUS
62
  7
10
1016.116
20
675.135
30
0.0
11
1015.229
21
678.009
31
0.0
0
LINE
5
2e9a
8
0-0
6
CONTINUOUS
62
  7
10
1015.229
20
678.009
30
0.0
11
1013.638
21
682.934
31
0.0
0
LINE
5
2e9b
8
0-0
6
CONTINUOUS
62
  7
10
1013.638
20
682.934
30
0.0
11
1011.878
21
687.777
31
0.0
0
LINE
5
2e9c
8
0-0
6
CONTINUOUS
62
  7
10
1011.878
20
687.777
30
0.0
11
1009.841
21
692.486
31
0.0
0
LINE
5
2e9d
8
0-0
6
CONTINUOUS
62
  7
10
1009.841
20
692.486
30
0.0
11
1008.491
21
695.135
31
0.0
0
LINE
5
2e9e
8
0-0
6
CONTINUOUS
62
  7
10
1008.491
20
695.135
30
0.0
11
1008.099
21
695.844
31
0.0
0
LINE
5
2e9f
8
0-0
6
CONTINUOUS
62
  7
10
1008.099
20
695.844
30
0.0
11
1007.399
21
697.055
31
0.0
0
LINE
5
2ea0
8
0-0
6
CONTINUOUS
62
  7
10
1007.399
20
697.055
30
0.0
11
1006.677
21
698.255
31
0.0
0
LINE
5
2ea1
8
0-0
6
CONTINUOUS
62
  7
10
1006.677
20
698.255
30
0.0
11
1005.936
21
699.447
31
0.0
0
LINE
5
2ea2
8
0-0
6
CONTINUOUS
62
  7
10
1005.936
20
699.447
30
0.0
11
1005.501
21
700.135
31
0.0
0
LINE
5
2ea3
8
0-0
6
CONTINUOUS
62
  7
10
1005.501
20
700.135
30
0.0
11
1005.041
21
700.855
31
0.0
0
LINE
5
2ea4
8
0-0
6
CONTINUOUS
62
  7
10
1005.041
20
700.855
30
0.0
11
1004.234
21
702.087
31
0.0
0
LINE
5
2ea5
8
0-0
6
CONTINUOUS
62
  7
10
1004.234
20
702.087
30
0.0
11
1003.398
21
703.296
31
0.0
0
LINE
5
2ea6
8
0-0
6
CONTINUOUS
62
  7
10
1003.398
20
703.296
30
0.0
11
1002.522
21
704.473
31
0.0
0
LINE
5
2ea7
8
0-0
6
CONTINUOUS
62
  7
10
1002.522
20
704.473
30
0.0
11
1001.991
21
705.135
31
0.0
0
LINE
5
2ea8
8
0-0
6
CONTINUOUS
62
  7
10
1001.991
20
705.135
30
0.0
11
1001.351
21
705.881
31
0.0
0
LINE
5
2ea9
8
0-0
6
CONTINUOUS
62
  7
10
1001.351
20
705.881
30
0.0
11
1000.195
21
707.122
31
0.0
0
LINE
5
2eaa
8
0-0
6
CONTINUOUS
62
  7
10
1000.195
20
707.122
30
0.0
11
998.982
21
708.314
31
0.0
0
LINE
5
2eab
8
0-0
6
CONTINUOUS
62
  7
10
998.982
20
708.314
30
0.0
11
997.730
21
709.473
31
0.0
0
LINE
5
2eac
8
0-0
6
CONTINUOUS
62
  7
10
997.730
20
709.473
30
0.0
11
996.991
21
710.135
31
0.0
0
LINE
5
2ead
8
0-0
6
CONTINUOUS
62
  7
10
996.991
20
710.135
30
0.0
11
995.170
21
711.724
31
0.0
0
LINE
5
2eae
8
0-0
6
CONTINUOUS
62
  7
10
995.170
20
711.724
30
0.0
11
991.946
21
714.365
31
0.0
0
LINE
5
2eaf
8
0-0
6
CONTINUOUS
62
  7
10
991.946
20
714.365
30
0.0
11
988.595
21
716.817
31
0.0
0
LINE
5
2eb0
8
0-0
6
CONTINUOUS
62
  7
10
988.595
20
716.817
30
0.0
11
985.097
21
719.010
31
0.0
0
LINE
5
2eb1
8
0-0
6
CONTINUOUS
62
  7
10
985.097
20
719.010
30
0.0
11
982.991
21
720.135
31
0.0
0
LINE
5
2eb2
8
0-0
6
CONTINUOUS
62
  7
10
982.991
20
720.135
30
0.0
11
981.114
21
721.014
31
0.0
0
LINE
5
2eb3
8
0-0
6
CONTINUOUS
62
  7
10
981.114
20
721.014
30
0.0
11
977.789
21
722.347
31
0.0
0
LINE
5
2eb4
8
0-0
6
CONTINUOUS
62
  7
10
977.789
20
722.347
30
0.0
11
974.381
21
723.503
31
0.0
0
LINE
5
2eb5
8
0-0
6
CONTINUOUS
62
  7
10
974.381
20
723.503
30
0.0
11
970.925
21
724.551
31
0.0
0
LINE
5
2eb6
8
0-0
6
CONTINUOUS
62
  7
10
970.925
20
724.551
30
0.0
11
968.913
21
725.135
31
0.0
0
LINE
5
2eb7
8
0-0
6
CONTINUOUS
62
  7
10
968.913
20
725.135
30
0.0
11
966.278
21
725.894
31
0.0
0
LINE
5
2eb8
8
0-0
6
CONTINUOUS
62
  7
10
966.278
20
725.894
30
0.0
11
961.739
21
727.179
31
0.0
0
LINE
5
2eb9
8
0-0
6
CONTINUOUS
62
  7
10
961.739
20
727.179
30
0.0
11
957.197
21
728.404
31
0.0
0
LINE
5
2eba
8
0-0
6
CONTINUOUS
62
  7
10
957.197
20
728.404
30
0.0
11
952.642
21
729.535
31
0.0
0
LINE
5
2ebb
8
0-0
6
CONTINUOUS
62
  7
10
952.642
20
729.535
30
0.0
11
949.991
21
730.135
31
0.0
0
LINE
5
2ebc
8
0-0
6
CONTINUOUS
62
  7
10
949.991
20
730.135
30
0.0
11
943.005
21
731.482
31
0.0
0
LINE
5
2ebd
8
0-0
6
CONTINUOUS
62
  7
10
943.005
20
731.482
30
0.0
11
930.834
21
733.145
31
0.0
0
LINE
5
2ebe
8
0-0
6
CONTINUOUS
62
  7
10
930.834
20
733.145
30
0.0
11
918.543
21
734.182
31
0.0
0
LINE
5
2ebf
8
0-0
6
CONTINUOUS
62
  7
10
918.543
20
734.182
30
0.0
11
906.178
21
734.836
31
0.0
0
LINE
5
2ec0
8
0-0
6
CONTINUOUS
62
  7
10
906.178
20
734.836
30
0.0
11
891.892
21
735.135
31
0.0
0
LINE
5
2ec1
8
0-0
6
CONTINUOUS
62
  7
10
891.892
20
607.135
30
0.0
11
892.538
21
607.047
31
0.0
0
LINE
5
2ec2
8
0-0
6
CONTINUOUS
62
  7
10
892.538
20
607.047
30
0.0
11
893.158
21
606.922
31
0.0
0
LINE
5
2ec3
8
0-0
6
CONTINUOUS
62
  7
10
893.158
20
606.922
30
0.0
11
893.758
21
606.755
31
0.0
0
LINE
5
2ec4
8
0-0
6
CONTINUOUS
62
  7
10
893.758
20
606.755
30
0.0
11
894.341
21
606.540
31
0.0
0
LINE
5
2ec5
8
0-0
6
CONTINUOUS
62
  7
10
894.341
20
606.540
30
0.0
11
894.911
21
606.275
31
0.0
0
LINE
5
2ec6
8
0-0
6
CONTINUOUS
62
  7
10
894.911
20
606.275
30
0.0
11
895.470
21
605.955
31
0.0
0
LINE
5
2ec7
8
0-0
6
CONTINUOUS
62
  7
10
895.470
20
605.955
30
0.0
11
896.020
21
605.578
31
0.0
0
LINE
5
2ec8
8
0-0
6
CONTINUOUS
62
  7
10
896.020
20
605.578
30
0.0
11
896.563
21
605.143
31
0.0
0
LINE
5
2ec9
8
0-0
6
CONTINUOUS
62
  7
10
896.563
20
605.143
30
0.0
11
897.100
21
604.646
31
0.0
0
LINE
5
2eca
8
0-0
6
CONTINUOUS
62
  7
10
897.100
20
604.646
30
0.0
11
897.633
21
604.088
31
0.0
0
LINE
5
2ecb
8
0-0
6
CONTINUOUS
62
  7
10
897.633
20
604.088
30
0.0
11
898.161
21
603.466
31
0.0
0
LINE
5
2ecc
8
0-0
6
CONTINUOUS
62
  7
10
898.161
20
603.466
30
0.0
11
898.687
21
602.780
31
0.0
0
LINE
5
2ecd
8
0-0
6
CONTINUOUS
62
  7
10
898.687
20
602.780
30
0.0
11
899.210
21
602.030
31
0.0
0
LINE
5
2ece
8
0-0
6
CONTINUOUS
62
  7
10
899.210
20
602.030
30
0.0
11
899.731
21
601.216
31
0.0
0
LINE
5
2ecf
8
0-0
6
CONTINUOUS
62
  7
10
899.731
20
601.216
30
0.0
11
900.250
21
600.336
31
0.0
0
LINE
5
2ed0
8
0-0
6
CONTINUOUS
62
  7
10
900.250
20
600.336
30
0.0
11
900.769
21
599.393
31
0.0
0
LINE
5
2ed1
8
0-0
6
CONTINUOUS
62
  7
10
900.769
20
599.393
30
0.0
11
901.287
21
598.384
31
0.0
0
LINE
5
2ed2
8
0-0
6
CONTINUOUS
62
  7
10
901.287
20
598.384
30
0.0
11
901.805
21
597.311
31
0.0
0
LINE
5
2ed3
8
0-0
6
CONTINUOUS
62
  7
10
901.805
20
597.311
30
0.0
11
902.322
21
596.175
31
0.0
0
LINE
5
2ed4
8
0-0
6
CONTINUOUS
62
  7
10
902.322
20
596.175
30
0.0
11
902.839
21
594.975
31
0.0
0
LINE
5
2ed5
8
0-0
6
CONTINUOUS
62
  7
10
902.839
20
594.975
30
0.0
11
903.356
21
593.713
31
0.0
0
LINE
5
2ed6
8
0-0
6
CONTINUOUS
62
  7
10
903.356
20
593.713
30
0.0
11
903.872
21
592.389
31
0.0
0
LINE
5
2ed7
8
0-0
6
CONTINUOUS
62
  7
10
903.872
20
592.389
30
0.0
11
904.388
21
591.005
31
0.0
0
LINE
5
2ed8
8
0-0
6
CONTINUOUS
62
  7
10
904.388
20
591.005
30
0.0
11
904.902
21
589.562
31
0.0
0
LINE
5
2ed9
8
0-0
6
CONTINUOUS
62
  7
10
904.902
20
589.562
30
0.0
11
905.414
21
588.063
31
0.0
0
LINE
5
2eda
8
0-0
6
CONTINUOUS
62
  7
10
905.414
20
588.063
30
0.0
11
905.924
21
586.509
31
0.0
0
LINE
5
2edb
8
0-0
6
CONTINUOUS
62
  7
10
905.924
20
586.509
30
0.0
11
906.430
21
584.904
31
0.0
0
LINE
5
2edc
8
0-0
6
CONTINUOUS
62
  7
10
906.430
20
584.904
30
0.0
11
906.932
21
583.250
31
0.0
0
LINE
5
2edd
8
0-0
6
CONTINUOUS
62
  7
10
906.932
20
583.250
30
0.0
11
907.429
21
581.550
31
0.0
0
LINE
5
2ede
8
0-0
6
CONTINUOUS
62
  7
10
907.429
20
581.550
30
0.0
11
907.919
21
579.809
31
0.0
0
LINE
5
2edf
8
0-0
6
CONTINUOUS
62
  7
10
907.919
20
579.809
30
0.0
11
908.401
21
578.030
31
0.0
0
LINE
5
2ee0
8
0-0
6
CONTINUOUS
62
  7
10
908.401
20
578.030
30
0.0
11
908.874
21
576.218
31
0.0
0
LINE
5
2ee1
8
0-0
6
CONTINUOUS
62
  7
10
908.874
20
576.218
30
0.0
11
909.338
21
574.377
31
0.0
0
LINE
5
2ee2
8
0-0
6
CONTINUOUS
62
  7
10
909.338
20
574.377
30
0.0
11
909.790
21
572.511
31
0.0
0
LINE
5
2ee3
8
0-0
6
CONTINUOUS
62
  7
10
909.790
20
572.511
30
0.0
11
910.230
21
570.626
31
0.0
0
LINE
5
2ee4
8
0-0
6
CONTINUOUS
62
  7
10
910.230
20
570.626
30
0.0
11
910.658
21
568.723
31
0.0
0
LINE
5
2ee5
8
0-0
6
CONTINUOUS
62
  7
10
910.658
20
568.723
30
0.0
11
911.072
21
566.808
31
0.0
0
LINE
5
2ee6
8
0-0
6
CONTINUOUS
62
  7
10
911.072
20
566.808
30
0.0
11
911.473
21
564.882
31
0.0
0
LINE
5
2ee7
8
0-0
6
CONTINUOUS
62
  7
10
911.473
20
564.882
30
0.0
11
911.860
21
562.946
31
0.0
0
LINE
5
2ee8
8
0-0
6
CONTINUOUS
62
  7
10
911.860
20
562.946
30
0.0
11
912.234
21
560.998
31
0.0
0
LINE
5
2ee9
8
0-0
6
CONTINUOUS
62
  7
10
912.234
20
560.998
30
0.0
11
912.596
21
559.037
31
0.0
0
LINE
5
2eea
8
0-0
6
CONTINUOUS
62
  7
10
912.596
20
559.037
30
0.0
11
912.948
21
557.054
31
0.0
0
LINE
5
2eeb
8
0-0
6
CONTINUOUS
62
  7
10
912.948
20
557.054
30
0.0
11
913.292
21
555.041
31
0.0
0
LINE
5
2eec
8
0-0
6
CONTINUOUS
62
  7
10
913.292
20
555.041
30
0.0
11
913.632
21
552.982
31
0.0
0
LINE
5
2eed
8
0-0
6
CONTINUOUS
62
  7
10
913.632
20
552.982
30
0.0
11
913.972
21
550.858
31
0.0
0
LINE
5
2eee
8
0-0
6
CONTINUOUS
62
  7
10
913.972
20
550.858
30
0.0
11
914.317
21
548.643
31
0.0
0
LINE
5
2eef
8
0-0
6
CONTINUOUS
62
  7
10
914.317
20
548.643
30
0.0
11
914.675
21
546.300
31
0.0
0
LINE
5
2ef0
8
0-0
6
CONTINUOUS
62
  7
10
914.675
20
546.300
30
0.0
11
915.056
21
543.787
31
0.0
0
LINE
5
2ef1
8
0-0
6
CONTINUOUS
62
  7
10
915.056
20
543.787
30
0.0
11
915.468
21
541.048
31
0.0
0
LINE
5
2ef2
8
0-0
6
CONTINUOUS
62
  7
10
999.402
20
671.645
30
0.0
11
999.018
21
672.889
31
0.0
0
LINE
5
2ef3
8
0-0
6
CONTINUOUS
62
  7
10
999.018
20
672.889
30
0.0
11
997.556
21
677.415
31
0.0
0
LINE
5
2ef4
8
0-0
6
CONTINUOUS
62
  7
10
997.556
20
677.415
30
0.0
11
996.073
21
681.494
31
0.0
0
LINE
5
2ef5
8
0-0
6
CONTINUOUS
62
  7
10
996.073
20
681.494
30
0.0
11
994.451
21
685.244
31
0.0
0
LINE
5
2ef6
8
0-0
6
CONTINUOUS
62
  7
10
994.451
20
685.244
30
0.0
11
993.476
21
687.158
31
0.0
0
LINE
5
2ef7
8
0-0
6
CONTINUOUS
62
  7
10
993.476
20
687.158
30
0.0
11
993.299
21
687.478
31
0.0
0
LINE
5
2ef8
8
0-0
6
CONTINUOUS
62
  7
10
993.299
20
687.478
30
0.0
11
992.754
21
688.422
31
0.0
0
LINE
5
2ef9
8
0-0
6
CONTINUOUS
62
  7
10
992.754
20
688.422
30
0.0
11
992.176
21
689.382
31
0.0
0
LINE
5
2efa
8
0-0
6
CONTINUOUS
62
  7
10
992.176
20
689.382
30
0.0
11
991.531
21
690.419
31
0.0
0
LINE
5
2efb
8
0-0
6
CONTINUOUS
62
  7
10
991.531
20
690.419
30
0.0
11
991.155
21
691.014
31
0.0
0
LINE
5
2efc
8
0-0
6
CONTINUOUS
62
  7
10
991.155
20
691.014
30
0.0
11
990.768
21
691.619
31
0.0
0
LINE
5
2efd
8
0-0
6
CONTINUOUS
62
  7
10
990.768
20
691.619
30
0.0
11
990.129
21
692.595
31
0.0
0
LINE
5
2efe
8
0-0
6
CONTINUOUS
62
  7
10
990.129
20
692.595
30
0.0
11
989.583
21
693.386
31
0.0
0
LINE
5
2eff
8
0-0
6
CONTINUOUS
62
  7
10
989.583
20
693.386
30
0.0
11
989.072
21
694.072
31
0.0
0
LINE
5
2f00
8
0-0
6
CONTINUOUS
62
  7
10
989.072
20
694.072
30
0.0
11
988.902
21
694.283
31
0.0
0
LINE
5
2f01
8
0-0
6
CONTINUOUS
62
  7
10
988.902
20
694.283
30
0.0
11
988.676
21
694.548
31
0.0
0
LINE
5
2f02
8
0-0
6
CONTINUOUS
62
  7
10
988.676
20
694.548
30
0.0
11
988.013
21
695.258
31
0.0
0
LINE
5
2f03
8
0-0
6
CONTINUOUS
62
  7
10
988.013
20
695.258
30
0.0
11
987.245
21
696.013
31
0.0
0
LINE
5
2f04
8
0-0
6
CONTINUOUS
62
  7
10
987.245
20
696.013
30
0.0
11
986.286
21
696.901
31
0.0
0
LINE
5
2f05
8
0-0
6
CONTINUOUS
62
  7
10
986.286
20
696.901
30
0.0
11
985.727
21
697.402
31
0.0
0
LINE
5
2f06
8
0-0
6
CONTINUOUS
62
  7
10
985.727
20
697.402
30
0.0
11
984.193
21
698.741
31
0.0
0
LINE
5
2f07
8
0-0
6
CONTINUOUS
62
  7
10
984.193
20
698.741
30
0.0
11
981.532
21
700.920
31
0.0
0
LINE
5
2f08
8
0-0
6
CONTINUOUS
62
  7
10
981.532
20
700.920
30
0.0
11
979.048
21
702.738
31
0.0
0
LINE
5
2f09
8
0-0
6
CONTINUOUS
62
  7
10
979.048
20
702.738
30
0.0
11
976.567
21
704.293
31
0.0
0
LINE
5
2f0a
8
0-0
6
CONTINUOUS
62
  7
10
976.567
20
704.293
30
0.0
11
975.374
21
704.930
31
0.0
0
LINE
5
2f0b
8
0-0
6
CONTINUOUS
62
  7
10
975.374
20
704.930
30
0.0
11
974.341
21
705.414
31
0.0
0
LINE
5
2f0c
8
0-0
6
CONTINUOUS
62
  7
10
974.341
20
705.414
30
0.0
11
971.892
21
706.396
31
0.0
0
LINE
5
2f0d
8
0-0
6
CONTINUOUS
62
  7
10
971.892
20
706.396
30
0.0
11
969.182
21
707.316
31
0.0
0
LINE
5
2f0e
8
0-0
6
CONTINUOUS
62
  7
10
969.182
20
707.316
30
0.0
11
966.091
21
708.253
31
0.0
0
LINE
5
2f0f
8
0-0
6
CONTINUOUS
62
  7
10
966.091
20
708.253
30
0.0
11
964.187
21
708.805
31
0.0
0
LINE
5
2f10
8
0-0
6
CONTINUOUS
62
  7
10
964.187
20
708.805
30
0.0
11
961.611
21
709.548
31
0.0
0
LINE
5
2f11
8
0-0
6
CONTINUOUS
62
  7
10
961.611
20
709.548
30
0.0
11
957.210
21
710.793
31
0.0
0
LINE
5
2f12
8
0-0
6
CONTINUOUS
62
  7
10
957.210
20
710.793
30
0.0
11
952.935
21
711.946
31
0.0
0
LINE
5
2f13
8
0-0
6
CONTINUOUS
62
  7
10
952.935
20
711.946
30
0.0
11
948.717
21
712.994
31
0.0
0
LINE
5
2f14
8
0-0
6
CONTINUOUS
62
  7
10
948.717
20
712.994
30
0.0
11
946.506
21
713.494
31
0.0
0
LINE
5
2f15
8
0-0
6
CONTINUOUS
62
  7
10
946.506
20
713.494
30
0.0
11
940.244
21
714.701
31
0.0
0
LINE
5
2f16
8
0-0
6
CONTINUOUS
62
  7
10
940.244
20
714.701
30
0.0
11
928.967
21
716.242
31
0.0
0
LINE
5
2f17
8
0-0
6
CONTINUOUS
62
  7
10
928.967
20
716.242
30
0.0
11
917.380
21
717.220
31
0.0
0
LINE
5
2f18
8
0-0
6
CONTINUOUS
62
  7
10
917.380
20
717.220
30
0.0
11
905.551
21
717.845
31
0.0
0
LINE
5
2f19
8
0-0
6
CONTINUOUS
62
  7
10
905.551
20
717.845
30
0.0
11
891.892
21
718.131
31
0.0
0
LINE
5
2f1a
8
0-0
6
CONTINUOUS
62
  7
10
991.537
20
670.003
30
0.0
11
991.390
21
670.477
31
0.0
0
LINE
5
2f1b
8
0-0
6
CONTINUOUS
62
  7
10
991.390
20
670.477
30
0.0
11
989.987
21
674.819
31
0.0
0
LINE
5
2f1c
8
0-0
6
CONTINUOUS
62
  7
10
989.987
20
674.819
30
0.0
11
988.636
21
678.537
31
0.0
0
LINE
5
2f1d
8
0-0
6
CONTINUOUS
62
  7
10
988.636
20
678.537
30
0.0
11
987.209
21
681.837
31
0.0
0
LINE
5
2f1e
8
0-0
6
CONTINUOUS
62
  7
10
987.209
20
681.837
30
0.0
11
986.411
21
683.402
31
0.0
0
LINE
5
2f1f
8
0-0
6
CONTINUOUS
62
  7
10
986.411
20
683.402
30
0.0
11
986.332
21
683.544
31
0.0
0
LINE
5
2f20
8
0-0
6
CONTINUOUS
62
  7
10
986.332
20
683.544
30
0.0
11
985.864
21
684.355
31
0.0
0
LINE
5
2f21
8
0-0
6
CONTINUOUS
62
  7
10
985.864
20
684.355
30
0.0
11
985.349
21
685.211
31
0.0
0
LINE
5
2f22
8
0-0
6
CONTINUOUS
62
  7
10
985.349
20
685.211
30
0.0
11
984.757
21
686.164
31
0.0
0
LINE
5
2f23
8
0-0
6
CONTINUOUS
62
  7
10
984.757
20
686.164
30
0.0
11
984.404
21
686.722
31
0.0
0
LINE
5
2f24
8
0-0
6
CONTINUOUS
62
  7
10
984.404
20
686.722
30
0.0
11
984.049
21
687.278
31
0.0
0
LINE
5
2f25
8
0-0
6
CONTINUOUS
62
  7
10
984.049
20
687.278
30
0.0
11
983.491
21
688.128
31
0.0
0
LINE
5
2f26
8
0-0
6
CONTINUOUS
62
  7
10
983.491
20
688.128
30
0.0
11
983.082
21
688.721
31
0.0
0
LINE
5
2f27
8
0-0
6
CONTINUOUS
62
  7
10
983.082
20
688.721
30
0.0
11
982.742
21
689.177
31
0.0
0
LINE
5
2f28
8
0-0
6
CONTINUOUS
62
  7
10
982.742
20
689.177
30
0.0
11
982.710
21
689.214
31
0.0
0
LINE
5
2f29
8
0-0
6
CONTINUOUS
62
  7
10
982.710
20
689.214
30
0.0
11
982.280
21
689.675
31
0.0
0
LINE
5
2f2a
8
0-0
6
CONTINUOUS
62
  7
10
982.280
20
689.675
30
0.0
11
981.722
21
690.224
31
0.0
0
LINE
5
2f2b
8
0-0
6
CONTINUOUS
62
  7
10
981.722
20
690.224
30
0.0
11
980.898
21
690.987
31
0.0
0
LINE
5
2f2c
8
0-0
6
CONTINUOUS
62
  7
10
980.898
20
690.987
30
0.0
11
980.429
21
691.407
31
0.0
0
LINE
5
2f2d
8
0-0
6
CONTINUOUS
62
  7
10
980.429
20
691.407
30
0.0
11
979.026
21
692.632
31
0.0
0
LINE
5
2f2e
8
0-0
6
CONTINUOUS
62
  7
10
979.026
20
692.632
30
0.0
11
976.632
21
694.592
31
0.0
0
LINE
5
2f2f
8
0-0
6
CONTINUOUS
62
  7
10
976.632
20
694.592
30
0.0
11
974.555
21
696.113
31
0.0
0
LINE
5
2f30
8
0-0
6
CONTINUOUS
62
  7
10
974.555
20
696.113
30
0.0
11
972.554
21
697.367
31
0.0
0
LINE
5
2f31
8
0-0
6
CONTINUOUS
62
  7
10
972.554
20
697.367
30
0.0
11
971.790
21
697.775
31
0.0
0
LINE
5
2f32
8
0-0
6
CONTINUOUS
62
  7
10
971.790
20
697.775
30
0.0
11
971.153
21
698.074
31
0.0
0
LINE
5
2f33
8
0-0
6
CONTINUOUS
62
  7
10
971.153
20
698.074
30
0.0
11
969.116
21
698.890
31
0.0
0
LINE
5
2f34
8
0-0
6
CONTINUOUS
62
  7
10
969.116
20
698.890
30
0.0
11
966.735
21
699.698
31
0.0
0
LINE
5
2f35
8
0-0
6
CONTINUOUS
62
  7
10
966.735
20
699.698
30
0.0
11
963.819
21
700.582
31
0.0
0
LINE
5
2f36
8
0-0
6
CONTINUOUS
62
  7
10
963.819
20
700.582
30
0.0
11
961.958
21
701.122
31
0.0
0
LINE
5
2f37
8
0-0
6
CONTINUOUS
62
  7
10
961.958
20
701.122
30
0.0
11
959.418
21
701.854
31
0.0
0
LINE
5
2f38
8
0-0
6
CONTINUOUS
62
  7
10
959.418
20
701.854
30
0.0
11
955.079
21
703.082
31
0.0
0
LINE
5
2f39
8
0-0
6
CONTINUOUS
62
  7
10
955.079
20
703.082
30
0.0
11
950.927
21
704.202
31
0.0
0
LINE
5
2f3a
8
0-0
6
CONTINUOUS
62
  7
10
950.927
20
704.202
30
0.0
11
946.872
21
705.209
31
0.0
0
LINE
5
2f3b
8
0-0
6
CONTINUOUS
62
  7
10
946.872
20
705.209
30
0.0
11
944.864
21
705.663
31
0.0
0
LINE
5
2f3c
8
0-0
6
CONTINUOUS
62
  7
10
944.864
20
705.663
30
0.0
11
938.944
21
706.805
31
0.0
0
LINE
5
2f3d
8
0-0
6
CONTINUOUS
62
  7
10
938.944
20
706.805
30
0.0
11
928.090
21
708.288
31
0.0
0
LINE
5
2f3e
8
0-0
6
CONTINUOUS
62
  7
10
928.090
20
708.288
30
0.0
11
916.831
21
709.238
31
0.0
0
LINE
5
2f3f
8
0-0
6
CONTINUOUS
62
  7
10
916.831
20
709.238
30
0.0
11
905.255
21
709.850
31
0.0
0
LINE
5
2f40
8
0-0
6
CONTINUOUS
62
  7
10
905.255
20
709.850
30
0.0
11
891.892
21
710.130
31
0.0
0
LINE
5
2f41
8
0-0
6
CONTINUOUS
62
  7
10
891.892
20
624.371
30
0.0
11
894.422
21
624.015
31
0.0
0
LINE
5
2f42
8
0-0
6
CONTINUOUS
62
  7
10
894.422
20
624.015
30
0.0
11
896.813
21
623.581
31
0.0
0
LINE
5
2f43
8
0-0
6
CONTINUOUS
62
  7
10
896.813
20
623.581
30
0.0
11
899.060
21
623.074
31
0.0
0
LINE
5
2f44
8
0-0
6
CONTINUOUS
62
  7
10
899.060
20
623.074
30
0.0
11
901.160
21
622.500
31
0.0
0
LINE
5
2f45
8
0-0
6
CONTINUOUS
62
  7
10
901.160
20
622.500
30
0.0
11
903.115
21
621.864
31
0.0
0
LINE
5
2f46
8
0-0
6
CONTINUOUS
62
  7
10
903.115
20
621.864
30
0.0
11
904.926
21
621.168
31
0.0
0
LINE
5
2f47
8
0-0
6
CONTINUOUS
62
  7
10
904.926
20
621.168
30
0.0
11
906.599
21
620.413
31
0.0
0
LINE
5
2f48
8
0-0
6
CONTINUOUS
62
  7
10
906.599
20
620.413
30
0.0
11
908.140
21
619.598
31
0.0
0
LINE
5
2f49
8
0-0
6
CONTINUOUS
62
  7
10
908.140
20
619.598
30
0.0
11
909.556
21
618.724
31
0.0
0
LINE
5
2f4a
8
0-0
6
CONTINUOUS
62
  7
10
909.556
20
618.724
30
0.0
11
910.855
21
617.788
31
0.0
0
LINE
5
2f4b
8
0-0
6
CONTINUOUS
62
  7
10
910.855
20
617.788
30
0.0
11
912.047
21
616.789
31
0.0
0
LINE
5
2f4c
8
0-0
6
CONTINUOUS
62
  7
10
912.047
20
616.789
30
0.0
11
913.140
21
615.724
31
0.0
0
LINE
5
2f4d
8
0-0
6
CONTINUOUS
62
  7
10
913.140
20
615.724
30
0.0
11
914.145
21
614.592
31
0.0
0
LINE
5
2f4e
8
0-0
6
CONTINUOUS
62
  7
10
914.145
20
614.592
30
0.0
11
915.071
21
613.390
31
0.0
0
LINE
5
2f4f
8
0-0
6
CONTINUOUS
62
  7
10
915.071
20
613.390
30
0.0
11
915.926
21
612.118
31
0.0
0
LINE
5
2f50
8
0-0
6
CONTINUOUS
62
  7
10
915.926
20
612.118
30
0.0
11
916.721
21
610.776
31
0.0
0
LINE
5
2f51
8
0-0
6
CONTINUOUS
62
  7
10
916.721
20
610.776
30
0.0
11
917.462
21
609.365
31
0.0
0
LINE
5
2f52
8
0-0
6
CONTINUOUS
62
  7
10
917.462
20
609.365
30
0.0
11
918.157
21
607.887
31
0.0
0
LINE
5
2f53
8
0-0
6
CONTINUOUS
62
  7
10
918.157
20
607.887
30
0.0
11
918.813
21
606.347
31
0.0
0
LINE
5
2f54
8
0-0
6
CONTINUOUS
62
  7
10
918.813
20
606.347
30
0.0
11
919.436
21
604.749
31
0.0
0
LINE
5
2f55
8
0-0
6
CONTINUOUS
62
  7
10
919.436
20
604.749
30
0.0
11
920.030
21
603.100
31
0.0
0
LINE
5
2f56
8
0-0
6
CONTINUOUS
62
  7
10
920.030
20
603.100
30
0.0
11
920.599
21
601.409
31
0.0
0
LINE
5
2f57
8
0-0
6
CONTINUOUS
62
  7
10
920.599
20
601.409
30
0.0
11
921.146
21
599.683
31
0.0
0
LINE
5
2f58
8
0-0
6
CONTINUOUS
62
  7
10
921.146
20
599.683
30
0.0
11
921.674
21
597.933
31
0.0
0
LINE
5
2f59
8
0-0
6
CONTINUOUS
62
  7
10
921.674
20
597.933
30
0.0
11
922.184
21
596.168
31
0.0
0
LINE
5
2f5a
8
0-0
6
CONTINUOUS
62
  7
10
922.184
20
596.168
30
0.0
11
922.677
21
594.398
31
0.0
0
LINE
5
2f5b
8
0-0
6
CONTINUOUS
62
  7
10
922.677
20
594.398
30
0.0
11
923.153
21
592.629
31
0.0
0
LINE
5
2f5c
8
0-0
6
CONTINUOUS
62
  7
10
923.153
20
592.629
30
0.0
11
923.615
21
590.868
31
0.0
0
LINE
5
2f5d
8
0-0
6
CONTINUOUS
62
  7
10
923.615
20
590.868
30
0.0
11
924.062
21
589.117
31
0.0
0
LINE
5
2f5e
8
0-0
6
CONTINUOUS
62
  7
10
924.062
20
589.117
30
0.0
11
924.496
21
587.375
31
0.0
0
LINE
5
2f5f
8
0-0
6
CONTINUOUS
62
  7
10
924.496
20
587.375
30
0.0
11
924.920
21
585.632
31
0.0
0
LINE
5
2f60
8
0-0
6
CONTINUOUS
62
  7
10
924.920
20
585.632
30
0.0
11
925.338
21
583.873
31
0.0
0
LINE
5
2f61
8
0-0
6
CONTINUOUS
62
  7
10
925.338
20
583.873
30
0.0
11
925.756
21
582.072
31
0.0
0
LINE
5
2f62
8
0-0
6
CONTINUOUS
62
  7
10
925.756
20
582.072
30
0.0
11
926.182
21
580.194
31
0.0
0
LINE
5
2f63
8
0-0
6
CONTINUOUS
62
  7
10
891.892
20
641.135
30
0.0
11
895.670
21
640.769
31
0.0
0
LINE
5
2f64
8
0-0
6
CONTINUOUS
62
  7
10
895.670
20
640.769
30
0.0
11
899.066
21
640.428
31
0.0
0
LINE
5
2f65
8
0-0
6
CONTINUOUS
62
  7
10
899.066
20
640.428
30
0.0
11
902.131
21
640.101
31
0.0
0
LINE
5
2f66
8
0-0
6
CONTINUOUS
62
  7
10
902.131
20
640.101
30
0.0
11
904.906
21
639.777
31
0.0
0
LINE
5
2f67
8
0-0
6
CONTINUOUS
62
  7
10
904.906
20
639.777
30
0.0
11
907.431
21
639.445
31
0.0
0
LINE
5
2f68
8
0-0
6
CONTINUOUS
62
  7
10
907.431
20
639.445
30
0.0
11
909.738
21
639.097
31
0.0
0
LINE
5
2f69
8
0-0
6
CONTINUOUS
62
  7
10
909.738
20
639.097
30
0.0
11
911.859
21
638.725
31
0.0
0
LINE
5
2f6a
8
0-0
6
CONTINUOUS
62
  7
10
911.859
20
638.725
30
0.0
11
913.816
21
638.323
31
0.0
0
LINE
5
2f6b
8
0-0
6
CONTINUOUS
62
  7
10
913.816
20
638.323
30
0.0
11
915.632
21
637.885
31
0.0
0
LINE
5
2f6c
8
0-0
6
CONTINUOUS
62
  7
10
915.632
20
637.885
30
0.0
11
917.326
21
637.408
31
0.0
0
LINE
5
2f6d
8
0-0
6
CONTINUOUS
62
  7
10
917.326
20
637.408
30
0.0
11
918.911
21
636.888
31
0.0
0
LINE
5
2f6e
8
0-0
6
CONTINUOUS
62
  7
10
918.911
20
636.888
30
0.0
11
920.402
21
636.325
31
0.0
0
LINE
5
2f6f
8
0-0
6
CONTINUOUS
62
  7
10
920.402
20
636.325
30
0.0
11
921.807
21
635.716
31
0.0
0
LINE
5
2f70
8
0-0
6
CONTINUOUS
62
  7
10
921.807
20
635.716
30
0.0
11
923.135
21
635.063
31
0.0
0
LINE
5
2f71
8
0-0
6
CONTINUOUS
62
  7
10
923.135
20
635.063
30
0.0
11
924.394
21
634.366
31
0.0
0
LINE
5
2f72
8
0-0
6
CONTINUOUS
62
  7
10
924.394
20
634.366
30
0.0
11
925.587
21
633.625
31
0.0
0
LINE
5
2f73
8
0-0
6
CONTINUOUS
62
  7
10
925.587
20
633.625
30
0.0
11
926.719
21
632.842
31
0.0
0
LINE
5
2f74
8
0-0
6
CONTINUOUS
62
  7
10
926.719
20
632.842
30
0.0
11
927.793
21
632.017
31
0.0
0
LINE
5
2f75
8
0-0
6
CONTINUOUS
62
  7
10
927.793
20
632.017
30
0.0
11
928.812
21
631.153
31
0.0
0
LINE
5
2f76
8
0-0
6
CONTINUOUS
62
  7
10
928.812
20
631.153
30
0.0
11
929.778
21
630.247
31
0.0
0
LINE
5
2f77
8
0-0
6
CONTINUOUS
62
  7
10
929.778
20
630.247
30
0.0
11
930.693
21
629.300
31
0.0
0
LINE
5
2f78
8
0-0
6
CONTINUOUS
62
  7
10
930.693
20
629.300
30
0.0
11
931.560
21
628.308
31
0.0
0
LINE
5
2f79
8
0-0
6
CONTINUOUS
62
  7
10
931.560
20
628.308
30
0.0
11
932.381
21
627.266
31
0.0
0
LINE
5
2f7a
8
0-0
6
CONTINUOUS
62
  7
10
932.381
20
627.266
30
0.0
11
933.160
21
626.167
31
0.0
0
LINE
5
2f7b
8
0-0
6
CONTINUOUS
62
  7
10
933.160
20
626.167
30
0.0
11
933.900
21
625.000
31
0.0
0
LINE
5
2f7c
8
0-0
6
CONTINUOUS
62
  7
10
933.900
20
625.000
30
0.0
11
934.607
21
623.753
31
0.0
0
LINE
5
2f7d
8
0-0
6
CONTINUOUS
62
  7
10
934.607
20
623.753
30
0.0
11
935.286
21
622.408
31
0.0
0
LINE
5
2f7e
8
0-0
6
CONTINUOUS
62
  7
10
935.286
20
622.408
30
0.0
11
935.946
21
620.941
31
0.0
0
LINE
5
2f7f
8
0-0
6
CONTINUOUS
62
  7
10
935.946
20
620.941
30
0.0
11
936.596
21
619.326
31
0.0
0
LINE
5
2f80
8
0-0
6
CONTINUOUS
62
  7
10
950.162
20
626.369
30
0.0
11
949.630
21
628.420
31
0.0
0
LINE
5
2f81
8
0-0
6
CONTINUOUS
62
  7
10
949.630
20
628.420
30
0.0
11
949.098
21
630.399
31
0.0
0
LINE
5
2f82
8
0-0
6
CONTINUOUS
62
  7
10
949.098
20
630.399
30
0.0
11
948.555
21
632.304
31
0.0
0
LINE
5
2f83
8
0-0
6
CONTINUOUS
62
  7
10
948.555
20
632.304
30
0.0
11
947.994
21
634.135
31
0.0
0
LINE
5
2f84
8
0-0
6
CONTINUOUS
62
  7
10
947.994
20
634.135
30
0.0
11
947.405
21
635.890
31
0.0
0
LINE
5
2f85
8
0-0
6
CONTINUOUS
62
  7
10
947.405
20
635.890
30
0.0
11
946.783
21
637.568
31
0.0
0
LINE
5
2f86
8
0-0
6
CONTINUOUS
62
  7
10
946.783
20
637.568
30
0.0
11
946.118
21
639.168
31
0.0
0
LINE
5
2f87
8
0-0
6
CONTINUOUS
62
  7
10
946.118
20
639.168
30
0.0
11
945.406
21
640.690
31
0.0
0
LINE
5
2f88
8
0-0
6
CONTINUOUS
62
  7
10
945.406
20
640.690
30
0.0
11
944.640
21
642.134
31
0.0
0
LINE
5
2f89
8
0-0
6
CONTINUOUS
62
  7
10
944.640
20
642.134
30
0.0
11
943.814
21
643.500
31
0.0
0
LINE
5
2f8a
8
0-0
6
CONTINUOUS
62
  7
10
943.814
20
643.500
30
0.0
11
942.925
21
644.789
31
0.0
0
LINE
5
2f8b
8
0-0
6
CONTINUOUS
62
  7
10
942.925
20
644.789
30
0.0
11
941.968
21
646.002
31
0.0
0
LINE
5
2f8c
8
0-0
6
CONTINUOUS
62
  7
10
941.968
20
646.002
30
0.0
11
940.937
21
647.141
31
0.0
0
LINE
5
2f8d
8
0-0
6
CONTINUOUS
62
  7
10
940.937
20
647.141
30
0.0
11
939.831
21
648.207
31
0.0
0
LINE
5
2f8e
8
0-0
6
CONTINUOUS
62
  7
10
939.831
20
648.207
30
0.0
11
938.644
21
649.204
31
0.0
0
LINE
5
2f8f
8
0-0
6
CONTINUOUS
62
  7
10
938.644
20
649.204
30
0.0
11
937.373
21
650.134
31
0.0
0
LINE
5
2f90
8
0-0
6
CONTINUOUS
62
  7
10
937.373
20
650.134
30
0.0
11
936.016
21
651.000
31
0.0
0
LINE
5
2f91
8
0-0
6
CONTINUOUS
62
  7
10
936.016
20
651.000
30
0.0
11
934.570
21
651.805
31
0.0
0
LINE
5
2f92
8
0-0
6
CONTINUOUS
62
  7
10
934.570
20
651.805
30
0.0
11
933.032
21
652.553
31
0.0
0
LINE
5
2f93
8
0-0
6
CONTINUOUS
62
  7
10
933.032
20
652.553
30
0.0
11
931.401
21
653.248
31
0.0
0
LINE
5
2f94
8
0-0
6
CONTINUOUS
62
  7
10
931.401
20
653.248
30
0.0
11
929.676
21
653.892
31
0.0
0
LINE
5
2f95
8
0-0
6
CONTINUOUS
62
  7
10
929.676
20
653.892
30
0.0
11
927.856
21
654.489
31
0.0
0
LINE
5
2f96
8
0-0
6
CONTINUOUS
62
  7
10
927.856
20
654.489
30
0.0
11
925.942
21
655.043
31
0.0
0
LINE
5
2f97
8
0-0
6
CONTINUOUS
62
  7
10
925.942
20
655.043
30
0.0
11
923.935
21
655.558
31
0.0
0
LINE
5
2f98
8
0-0
6
CONTINUOUS
62
  7
10
923.935
20
655.558
30
0.0
11
921.839
21
656.036
31
0.0
0
LINE
5
2f99
8
0-0
6
CONTINUOUS
62
  7
10
921.839
20
656.036
30
0.0
11
919.658
21
656.480
31
0.0
0
LINE
5
2f9a
8
0-0
6
CONTINUOUS
62
  7
10
919.658
20
656.480
30
0.0
11
917.398
21
656.894
31
0.0
0
LINE
5
2f9b
8
0-0
6
CONTINUOUS
62
  7
10
917.398
20
656.894
30
0.0
11
915.069
21
657.280
31
0.0
0
LINE
5
2f9c
8
0-0
6
CONTINUOUS
62
  7
10
915.069
20
657.280
30
0.0
11
912.682
21
657.642
31
0.0
0
LINE
5
2f9d
8
0-0
6
CONTINUOUS
62
  7
10
912.682
20
657.642
30
0.0
11
910.250
21
657.981
31
0.0
0
LINE
5
2f9e
8
0-0
6
CONTINUOUS
62
  7
10
910.250
20
657.981
30
0.0
11
907.789
21
658.301
31
0.0
0
LINE
5
2f9f
8
0-0
6
CONTINUOUS
62
  7
10
907.789
20
658.301
30
0.0
11
905.322
21
658.603
31
0.0
0
LINE
5
2fa0
8
0-0
6
CONTINUOUS
62
  7
10
905.322
20
658.603
30
0.0
11
902.871
21
658.890
31
0.0
0
LINE
5
2fa1
8
0-0
6
CONTINUOUS
62
  7
10
902.871
20
658.890
30
0.0
11
900.465
21
659.164
31
0.0
0
LINE
5
2fa2
8
0-0
6
CONTINUOUS
62
  7
10
900.465
20
659.164
30
0.0
11
898.136
21
659.427
31
0.0
0
LINE
5
2fa3
8
0-0
6
CONTINUOUS
62
  7
10
898.136
20
659.427
30
0.0
11
895.922
21
659.682
31
0.0
0
LINE
5
2fa4
8
0-0
6
CONTINUOUS
62
  7
10
895.922
20
659.682
30
0.0
11
893.865
21
659.929
31
0.0
0
LINE
5
2fa5
8
0-0
6
CONTINUOUS
62
  7
10
893.865
20
659.929
30
0.0
11
892.014
21
660.173
31
0.0
0
LINE
5
2fa6
8
0-0
6
CONTINUOUS
62
  7
10
892.014
20
660.173
30
0.0
11
891.892
21
660.191
31
0.0
0
LINE
5
2fa7
8
0-0
6
CONTINUOUS
62
  7
10
964.279
20
643.979
30
0.0
11
963.711
21
646.272
31
0.0
0
LINE
5
2fa8
8
0-0
6
CONTINUOUS
62
  7
10
963.711
20
646.272
30
0.0
11
963.087
21
648.476
31
0.0
0
LINE
5
2fa9
8
0-0
6
CONTINUOUS
62
  7
10
963.087
20
648.476
30
0.0
11
962.398
21
650.589
31
0.0
0
LINE
5
2faa
8
0-0
6
CONTINUOUS
62
  7
10
962.398
20
650.589
30
0.0
11
961.633
21
652.610
31
0.0
0
LINE
5
2fab
8
0-0
6
CONTINUOUS
62
  7
10
961.633
20
652.610
30
0.0
11
960.783
21
654.537
31
0.0
0
LINE
5
2fac
8
0-0
6
CONTINUOUS
62
  7
10
960.783
20
654.537
30
0.0
11
959.838
21
656.372
31
0.0
0
LINE
5
2fad
8
0-0
6
CONTINUOUS
62
  7
10
959.838
20
656.372
30
0.0
11
958.787
21
658.116
31
0.0
0
LINE
5
2fae
8
0-0
6
CONTINUOUS
62
  7
10
958.787
20
658.116
30
0.0
11
957.619
21
659.770
31
0.0
0
LINE
5
2faf
8
0-0
6
CONTINUOUS
62
  7
10
957.619
20
659.770
30
0.0
11
956.322
21
661.337
31
0.0
0
LINE
5
2fb0
8
0-0
6
CONTINUOUS
62
  7
10
956.322
20
661.337
30
0.0
11
954.887
21
662.819
31
0.0
0
LINE
5
2fb1
8
0-0
6
CONTINUOUS
62
  7
10
954.887
20
662.819
30
0.0
11
953.304
21
664.219
31
0.0
0
LINE
5
2fb2
8
0-0
6
CONTINUOUS
62
  7
10
953.304
20
664.219
30
0.0
11
951.562
21
665.540
31
0.0
0
LINE
5
2fb3
8
0-0
6
CONTINUOUS
62
  7
10
951.562
20
665.540
30
0.0
11
949.656
21
666.785
31
0.0
0
LINE
5
2fb4
8
0-0
6
CONTINUOUS
62
  7
10
949.656
20
666.785
30
0.0
11
947.578
21
667.958
31
0.0
0
LINE
5
2fb5
8
0-0
6
CONTINUOUS
62
  7
10
947.578
20
667.958
30
0.0
11
945.326
21
669.059
31
0.0
0
LINE
5
2fb6
8
0-0
6
CONTINUOUS
62
  7
10
945.326
20
669.059
30
0.0
11
942.897
21
670.092
31
0.0
0
LINE
5
2fb7
8
0-0
6
CONTINUOUS
62
  7
10
942.897
20
670.092
30
0.0
11
940.294
21
671.059
31
0.0
0
LINE
5
2fb8
8
0-0
6
CONTINUOUS
62
  7
10
940.294
20
671.059
30
0.0
11
937.522
21
671.961
31
0.0
0
LINE
5
2fb9
8
0-0
6
CONTINUOUS
62
  7
10
937.522
20
671.961
30
0.0
11
934.588
21
672.799
31
0.0
0
LINE
5
2fba
8
0-0
6
CONTINUOUS
62
  7
10
934.588
20
672.799
30
0.0
11
931.504
21
673.574
31
0.0
0
LINE
5
2fbb
8
0-0
6
CONTINUOUS
62
  7
10
931.504
20
673.574
30
0.0
11
928.284
21
674.286
31
0.0
0
LINE
5
2fbc
8
0-0
6
CONTINUOUS
62
  7
10
928.284
20
674.286
30
0.0
11
924.946
21
674.935
31
0.0
0
LINE
5
2fbd
8
0-0
6
CONTINUOUS
62
  7
10
924.946
20
674.935
30
0.0
11
921.511
21
675.520
31
0.0
0
LINE
5
2fbe
8
0-0
6
CONTINUOUS
62
  7
10
921.511
20
675.520
30
0.0
11
918.000
21
676.043
31
0.0
0
LINE
5
2fbf
8
0-0
6
CONTINUOUS
62
  7
10
918.000
20
676.043
30
0.0
11
914.441
21
676.501
31
0.0
0
LINE
5
2fc0
8
0-0
6
CONTINUOUS
62
  7
10
914.441
20
676.501
30
0.0
11
910.857
21
676.894
31
0.0
0
LINE
5
2fc1
8
0-0
6
CONTINUOUS
62
  7
10
910.857
20
676.894
30
0.0
11
907.276
21
677.224
31
0.0
0
LINE
5
2fc2
8
0-0
6
CONTINUOUS
62
  7
10
907.276
20
677.224
30
0.0
11
903.721
21
677.491
31
0.0
0
LINE
5
2fc3
8
0-0
6
CONTINUOUS
62
  7
10
903.721
20
677.491
30
0.0
11
900.214
21
677.697
31
0.0
0
LINE
5
2fc4
8
0-0
6
CONTINUOUS
62
  7
10
900.214
20
677.697
30
0.0
11
896.775
21
677.846
31
0.0
0
LINE
5
2fc5
8
0-0
6
CONTINUOUS
62
  7
10
896.775
20
677.846
30
0.0
11
893.413
21
677.944
31
0.0
0
LINE
5
2fc6
8
0-0
6
CONTINUOUS
62
  7
10
893.413
20
677.944
30
0.0
11
892.282
21
677.963
31
0.0
0
LINE
5
2fc7
8
0-0
6
CONTINUOUS
62
  7
10
892.282
20
677.963
30
0.0
11
891.892
21
677.963
31
0.0
0
LINE
5
2fc8
8
0-0
6
CONTINUOUS
62
  7
10
977.482
20
660.771
30
0.0
11
977.174
21
661.967
31
0.0
0
LINE
5
2fc9
8
0-0
6
CONTINUOUS
62
  7
10
977.174
20
661.967
30
0.0
11
976.846
21
663.161
31
0.0
0
LINE
5
2fca
8
0-0
6
CONTINUOUS
62
  7
10
976.846
20
663.161
30
0.0
11
976.492
21
664.351
31
0.0
0
LINE
5
2fcb
8
0-0
6
CONTINUOUS
62
  7
10
976.492
20
664.351
30
0.0
11
976.101
21
665.537
31
0.0
0
LINE
5
2fcc
8
0-0
6
CONTINUOUS
62
  7
10
976.101
20
665.537
30
0.0
11
975.666
21
666.719
31
0.0
0
LINE
5
2fcd
8
0-0
6
CONTINUOUS
62
  7
10
975.666
20
666.719
30
0.0
11
975.178
21
667.895
31
0.0
0
LINE
5
2fce
8
0-0
6
CONTINUOUS
62
  7
10
975.178
20
667.895
30
0.0
11
974.628
21
669.066
31
0.0
0
LINE
5
2fcf
8
0-0
6
CONTINUOUS
62
  7
10
974.628
20
669.066
30
0.0
11
974.008
21
670.231
31
0.0
0
LINE
5
2fd0
8
0-0
6
CONTINUOUS
62
  7
10
974.008
20
670.231
30
0.0
11
973.310
21
671.389
31
0.0
0
LINE
5
2fd1
8
0-0
6
CONTINUOUS
62
  7
10
973.310
20
671.389
30
0.0
11
972.527
21
672.539
31
0.0
0
LINE
5
2fd2
8
0-0
6
CONTINUOUS
62
  7
10
972.527
20
672.539
30
0.0
11
971.653
21
673.679
31
0.0
0
LINE
5
2fd3
8
0-0
6
CONTINUOUS
62
  7
10
971.653
20
673.679
30
0.0
11
970.683
21
674.808
31
0.0
0
LINE
5
2fd4
8
0-0
6
CONTINUOUS
62
  7
10
970.683
20
674.808
30
0.0
11
969.611
21
675.922
31
0.0
0
LINE
5
2fd5
8
0-0
6
CONTINUOUS
62
  7
10
969.611
20
675.922
30
0.0
11
968.433
21
677.021
31
0.0
0
LINE
5
2fd6
8
0-0
6
CONTINUOUS
62
  7
10
968.433
20
677.021
30
0.0
11
967.144
21
678.102
31
0.0
0
LINE
5
2fd7
8
0-0
6
CONTINUOUS
62
  7
10
967.144
20
678.102
30
0.0
11
965.742
21
679.163
31
0.0
0
LINE
5
2fd8
8
0-0
6
CONTINUOUS
62
  7
10
965.742
20
679.163
30
0.0
11
964.224
21
680.201
31
0.0
0
LINE
5
2fd9
8
0-0
6
CONTINUOUS
62
  7
10
964.224
20
680.201
30
0.0
11
962.587
21
681.215
31
0.0
0
LINE
5
2fda
8
0-0
6
CONTINUOUS
62
  7
10
962.587
20
681.215
30
0.0
11
960.829
21
682.202
31
0.0
0
LINE
5
2fdb
8
0-0
6
CONTINUOUS
62
  7
10
960.829
20
682.202
30
0.0
11
958.948
21
683.161
31
0.0
0
LINE
5
2fdc
8
0-0
6
CONTINUOUS
62
  7
10
958.948
20
683.161
30
0.0
11
956.944
21
684.090
31
0.0
0
LINE
5
2fdd
8
0-0
6
CONTINUOUS
62
  7
10
956.944
20
684.090
30
0.0
11
954.816
21
684.987
31
0.0
0
LINE
5
2fde
8
0-0
6
CONTINUOUS
62
  7
10
954.816
20
684.987
30
0.0
11
952.565
21
685.851
31
0.0
0
LINE
5
2fdf
8
0-0
6
CONTINUOUS
62
  7
10
952.565
20
685.851
30
0.0
11
950.193
21
686.680
31
0.0
0
LINE
5
2fe0
8
0-0
6
CONTINUOUS
62
  7
10
950.193
20
686.680
30
0.0
11
947.701
21
687.475
31
0.0
0
LINE
5
2fe1
8
0-0
6
CONTINUOUS
62
  7
10
947.701
20
687.475
30
0.0
11
945.095
21
688.234
31
0.0
0
LINE
5
2fe2
8
0-0
6
CONTINUOUS
62
  7
10
945.095
20
688.234
30
0.0
11
942.380
21
688.956
31
0.0
0
LINE
5
2fe3
8
0-0
6
CONTINUOUS
62
  7
10
942.380
20
688.956
30
0.0
11
939.562
21
689.640
31
0.0
0
LINE
5
2fe4
8
0-0
6
CONTINUOUS
62
  7
10
939.562
20
689.640
30
0.0
11
936.651
21
690.286
31
0.0
0
LINE
5
2fe5
8
0-0
6
CONTINUOUS
62
  7
10
936.651
20
690.286
30
0.0
11
933.656
21
690.894
31
0.0
0
LINE
5
2fe6
8
0-0
6
CONTINUOUS
62
  7
10
933.656
20
690.894
30
0.0
11
930.591
21
691.463
31
0.0
0
LINE
5
2fe7
8
0-0
6
CONTINUOUS
62
  7
10
930.591
20
691.463
30
0.0
11
927.469
21
691.993
31
0.0
0
LINE
5
2fe8
8
0-0
6
CONTINUOUS
62
  7
10
927.469
20
691.993
30
0.0
11
924.305
21
692.484
31
0.0
0
LINE
5
2fe9
8
0-0
6
CONTINUOUS
62
  7
10
924.305
20
692.484
30
0.0
11
921.115
21
692.935
31
0.0
0
LINE
5
2fea
8
0-0
6
CONTINUOUS
62
  7
10
921.115
20
692.935
30
0.0
11
917.917
21
693.348
31
0.0
0
LINE
5
2feb
8
0-0
6
CONTINUOUS
62
  7
10
917.917
20
693.348
30
0.0
11
914.727
21
693.723
31
0.0
0
LINE
5
2fec
8
0-0
6
CONTINUOUS
62
  7
10
914.727
20
693.723
30
0.0
11
911.560
21
694.060
31
0.0
0
LINE
5
2fed
8
0-0
6
CONTINUOUS
62
  7
10
911.560
20
694.060
30
0.0
11
908.430
21
694.362
31
0.0
0
LINE
5
2fee
8
0-0
6
CONTINUOUS
62
  7
10
908.430
20
694.362
30
0.0
11
905.345
21
694.630
31
0.0
0
LINE
5
2fef
8
0-0
6
CONTINUOUS
62
  7
10
905.345
20
694.630
30
0.0
11
902.309
21
694.868
31
0.0
0
LINE
5
2ff0
8
0-0
6
CONTINUOUS
62
  7
10
902.309
20
694.868
30
0.0
11
899.318
21
695.079
31
0.0
0
LINE
5
2ff1
8
0-0
6
CONTINUOUS
62
  7
10
899.318
20
695.079
30
0.0
11
896.357
21
695.268
31
0.0
0
LINE
5
2ff2
8
0-0
6
CONTINUOUS
62
  7
10
896.357
20
695.268
30
0.0
11
893.397
21
695.441
31
0.0
0
LINE
5
2ff3
8
0-0
6
CONTINUOUS
62
  7
10
893.397
20
695.441
30
0.0
11
891.892
21
695.524
31
0.0
0
LINE
5
2ff4
8
0-0
6
CONTINUOUS
62
  7
10
936.596
20
619.326
30
0.0
11
936.645
21
619.183
31
0.0
0
LINE
5
2ff5
8
0-0
6
CONTINUOUS
62
  7
10
936.645
20
619.183
30
0.0
11
936.691
21
619.045
31
0.0
0
LINE
5
2ff6
8
0-0
6
CONTINUOUS
62
  7
10
936.691
20
619.045
30
0.0
11
936.732
21
618.909
31
0.0
0
LINE
5
2ff7
8
0-0
6
CONTINUOUS
62
  7
10
936.732
20
618.909
30
0.0
11
936.771
21
618.772
31
0.0
0
LINE
5
2ff8
8
0-0
6
CONTINUOUS
62
  7
10
936.771
20
618.772
30
0.0
11
936.807
21
618.634
31
0.0
0
LINE
5
2ff9
8
0-0
6
CONTINUOUS
62
  7
10
936.807
20
618.634
30
0.0
11
936.842
21
618.489
31
0.0
0
LINE
5
2ffa
8
0-0
6
CONTINUOUS
62
  7
10
936.842
20
618.489
30
0.0
11
936.875
21
618.334
31
0.0
0
LINE
5
2ffb
8
0-0
6
CONTINUOUS
62
  7
10
936.875
20
618.334
30
0.0
11
936.908
21
618.164
31
0.0
0
LINE
5
2ffc
8
0-0
6
CONTINUOUS
62
  7
10
936.908
20
618.164
30
0.0
11
936.941
21
617.975
31
0.0
0
LINE
5
2ffd
8
0-0
6
CONTINUOUS
62
  7
10
936.941
20
617.975
30
0.0
11
936.976
21
617.760
31
0.0
0
LINE
5
2ffe
8
0-0
6
CONTINUOUS
62
  7
10
936.976
20
617.760
30
0.0
11
937.013
21
617.512
31
0.0
0
LINE
5
2fff
8
0-0
6
CONTINUOUS
62
  7
10
937.013
20
617.512
30
0.0
11
937.053
21
617.226
31
0.0
0
LINE
5
3000
8
0-0
6
CONTINUOUS
62
  7
10
937.053
20
617.226
30
0.0
11
937.098
21
616.892
31
0.0
0
LINE
5
3001
8
0-0
6
CONTINUOUS
62
  7
10
937.098
20
616.892
30
0.0
11
937.149
21
616.502
31
0.0
0
LINE
5
3002
8
0-0
6
CONTINUOUS
62
  7
10
937.149
20
616.502
30
0.0
11
937.207
21
616.048
31
0.0
0
LINE
5
3003
8
0-0
6
CONTINUOUS
62
  7
10
937.207
20
616.048
30
0.0
11
937.273
21
615.520
31
0.0
0
LINE
5
3004
8
0-0
6
CONTINUOUS
62
  7
10
937.273
20
615.520
30
0.0
11
937.349
21
614.907
31
0.0
0
LINE
5
3005
8
0-0
6
CONTINUOUS
62
  7
10
937.349
20
614.907
30
0.0
11
937.437
21
614.199
31
0.0
0
LINE
5
3006
8
0-0
6
CONTINUOUS
62
  7
10
937.437
20
614.199
30
0.0
11
937.537
21
613.384
31
0.0
0
LINE
5
3007
8
0-0
6
CONTINUOUS
62
  7
10
1016.116
20
675.135
30
0.0
11
1031.892
21
535.135
31
0.0
0
LINE
5
3008
8
0-0
6
CONTINUOUS
62
  7
10
999.402
20
671.645
30
0.0
11
1014.784
21
535.135
31
0.0
0
LINE
5
3009
8
0-0
6
CONTINUOUS
62
  7
10
991.537
20
670.003
30
0.0
11
1006.734
21
535.135
31
0.0
0
LINE
5
300a
8
0-0
6
CONTINUOUS
62
  7
10
977.482
20
660.771
30
0.0
11
991.639
21
535.135
31
0.0
0
LINE
5
300b
8
0-0
6
CONTINUOUS
62
  7
10
964.279
20
643.979
30
0.0
11
976.544
21
535.135
31
0.0
0
LINE
5
300c
8
0-0
6
CONTINUOUS
62
  7
10
931.957
20
617.460
30
0.0
11
932.568
21
612.824
31
0.0
0
LINE
5
300d
8
0-0
6
CONTINUOUS
62
  7
10
959.347
20
643.093
30
0.0
11
958.877
21
644.990
31
0.0
0
LINE
5
300e
8
0-0
6
CONTINUOUS
62
  7
10
958.877
20
644.990
30
0.0
11
958.303
21
647.018
31
0.0
0
LINE
5
300f
8
0-0
6
CONTINUOUS
62
  7
10
958.303
20
647.018
30
0.0
11
957.680
21
648.928
31
0.0
0
LINE
5
3010
8
0-0
6
CONTINUOUS
62
  7
10
957.680
20
648.928
30
0.0
11
957.004
21
650.716
31
0.0
0
LINE
5
3011
8
0-0
6
CONTINUOUS
62
  7
10
957.004
20
650.716
30
0.0
11
956.269
21
652.382
31
0.0
0
LINE
5
3012
8
0-0
6
CONTINUOUS
62
  7
10
956.269
20
652.382
30
0.0
11
955.470
21
653.934
31
0.0
0
LINE
5
3013
8
0-0
6
CONTINUOUS
62
  7
10
955.470
20
653.934
30
0.0
11
954.599
21
655.379
31
0.0
0
LINE
5
3014
8
0-0
6
CONTINUOUS
62
  7
10
954.599
20
655.379
30
0.0
11
953.645
21
656.730
31
0.0
0
LINE
5
3015
8
0-0
6
CONTINUOUS
62
  7
10
953.645
20
656.730
30
0.0
11
952.595
21
657.999
31
0.0
0
LINE
5
3016
8
0-0
6
CONTINUOUS
62
  7
10
952.595
20
657.999
30
0.0
11
951.430
21
659.201
31
0.0
0
LINE
5
3017
8
0-0
6
CONTINUOUS
62
  7
10
951.430
20
659.201
30
0.0
11
950.132
21
660.349
31
0.0
0
LINE
5
3018
8
0-0
6
CONTINUOUS
62
  7
10
950.132
20
660.349
30
0.0
11
948.681
21
661.450
31
0.0
0
LINE
5
3019
8
0-0
6
CONTINUOUS
62
  7
10
948.681
20
661.450
30
0.0
11
947.057
21
662.511
31
0.0
0
LINE
5
301a
8
0-0
6
CONTINUOUS
62
  7
10
947.057
20
662.511
30
0.0
11
945.250
21
663.530
31
0.0
0
LINE
5
301b
8
0-0
6
CONTINUOUS
62
  7
10
945.250
20
663.530
30
0.0
11
943.247
21
664.510
31
0.0
0
LINE
5
301c
8
0-0
6
CONTINUOUS
62
  7
10
943.247
20
664.510
30
0.0
11
941.047
21
665.446
31
0.0
0
LINE
5
301d
8
0-0
6
CONTINUOUS
62
  7
10
941.047
20
665.446
30
0.0
11
938.649
21
666.336
31
0.0
0
LINE
5
301e
8
0-0
6
CONTINUOUS
62
  7
10
938.649
20
666.336
30
0.0
11
936.062
21
667.178
31
0.0
0
LINE
5
301f
8
0-0
6
CONTINUOUS
62
  7
10
936.062
20
667.178
30
0.0
11
933.291
21
667.969
31
0.0
0
LINE
5
3020
8
0-0
6
CONTINUOUS
62
  7
10
933.291
20
667.969
30
0.0
11
930.355
21
668.707
31
0.0
0
LINE
5
3021
8
0-0
6
CONTINUOUS
62
  7
10
930.355
20
668.707
30
0.0
11
927.268
21
669.390
31
0.0
0
LINE
5
3022
8
0-0
6
CONTINUOUS
62
  7
10
927.268
20
669.390
30
0.0
11
924.048
21
670.016
31
0.0
0
LINE
5
3023
8
0-0
6
CONTINUOUS
62
  7
10
924.048
20
670.016
30
0.0
11
920.722
21
670.583
31
0.0
0
LINE
5
3024
8
0-0
6
CONTINUOUS
62
  7
10
920.722
20
670.583
30
0.0
11
917.313
21
671.090
31
0.0
0
LINE
5
3025
8
0-0
6
CONTINUOUS
62
  7
10
917.313
20
671.090
30
0.0
11
913.849
21
671.536
31
0.0
0
LINE
5
3026
8
0-0
6
CONTINUOUS
62
  7
10
913.849
20
671.536
30
0.0
11
910.354
21
671.920
31
0.0
0
LINE
5
3027
8
0-0
6
CONTINUOUS
62
  7
10
910.354
20
671.920
30
0.0
11
906.861
21
672.241
31
0.0
0
LINE
5
3028
8
0-0
6
CONTINUOUS
62
  7
10
906.861
20
672.241
30
0.0
11
903.385
21
672.502
31
0.0
0
LINE
5
3029
8
0-0
6
CONTINUOUS
62
  7
10
903.385
20
672.502
30
0.0
11
899.960
21
672.704
31
0.0
0
LINE
5
302a
8
0-0
6
CONTINUOUS
62
  7
10
899.960
20
672.704
30
0.0
11
896.595
21
672.850
31
0.0
0
LINE
5
302b
8
0-0
6
CONTINUOUS
62
  7
10
896.595
20
672.850
30
0.0
11
893.299
21
672.945
31
0.0
0
LINE
5
302c
8
0-0
6
CONTINUOUS
62
  7
10
893.299
20
672.945
30
0.0
11
892.199
21
672.964
31
0.0
0
LINE
5
302d
8
0-0
6
CONTINUOUS
62
  7
10
959.347
20
643.093
30
0.0
11
971.512
21
535.135
31
0.0
0
LINE
5
302e
8
0-0
6
CONTINUOUS
62
  7
10
945.233
20
625.457
30
0.0
11
955.411
21
535.135
31
0.0
0
LINE
5
302f
8
0-0
6
CONTINUOUS
62
  7
10
950.162
20
626.369
30
0.0
11
960.443
21
535.135
31
0.0
0
LINE
5
3030
8
0-0
6
CONTINUOUS
62
  7
10
937.537
20
613.384
30
0.0
11
946.354
21
535.135
31
0.0
0
LINE
5
3031
8
0-0
6
CONTINUOUS
62
  7
10
932.568
20
612.824
30
0.0
11
941.322
21
535.135
31
0.0
0
LINE
5
3032
8
0-0
6
CONTINUOUS
62
  7
10
926.182
20
580.194
30
0.0
11
931.259
21
535.135
31
0.0
0
LINE
5
3033
8
0-0
6
CONTINUOUS
62
  7
10
921.244
20
579.358
30
0.0
11
926.227
21
535.135
31
0.0
0
LINE
5
3034
8
0-0
6
CONTINUOUS
62
  7
10
892.223
20
603.030
30
0.0
11
892.526
21
602.945
31
0.0
0
LINE
5
3035
8
0-0
6
CONTINUOUS
62
  7
10
892.526
20
602.945
30
0.0
11
892.804
21
602.843
31
0.0
0
LINE
5
3036
8
0-0
6
CONTINUOUS
62
  7
10
892.804
20
602.843
30
0.0
11
893.071
21
602.719
31
0.0
0
LINE
5
3037
8
0-0
6
CONTINUOUS
62
  7
10
893.071
20
602.719
30
0.0
11
893.344
21
602.563
31
0.0
0
LINE
5
3038
8
0-0
6
CONTINUOUS
62
  7
10
893.344
20
602.563
30
0.0
11
893.636
21
602.363
31
0.0
0
LINE
5
3039
8
0-0
6
CONTINUOUS
62
  7
10
893.636
20
602.363
30
0.0
11
893.951
21
602.111
31
0.0
0
LINE
5
303a
8
0-0
6
CONTINUOUS
62
  7
10
893.951
20
602.111
30
0.0
11
894.292
21
601.795
31
0.0
0
LINE
5
303b
8
0-0
6
CONTINUOUS
62
  7
10
894.292
20
601.795
30
0.0
11
894.659
21
601.410
31
0.0
0
LINE
5
303c
8
0-0
6
CONTINUOUS
62
  7
10
894.659
20
601.410
30
0.0
11
895.048
21
600.952
31
0.0
0
LINE
5
303d
8
0-0
6
CONTINUOUS
62
  7
10
895.048
20
600.952
30
0.0
11
895.457
21
600.419
31
0.0
0
LINE
5
303e
8
0-0
6
CONTINUOUS
62
  7
10
895.457
20
600.419
30
0.0
11
895.883
21
599.808
31
0.0
0
LINE
5
303f
8
0-0
6
CONTINUOUS
62
  7
10
895.883
20
599.808
30
0.0
11
896.323
21
599.119
31
0.0
0
LINE
5
3040
8
0-0
6
CONTINUOUS
62
  7
10
896.323
20
599.119
30
0.0
11
896.776
21
598.354
31
0.0
0
LINE
5
3041
8
0-0
6
CONTINUOUS
62
  7
10
896.776
20
598.354
30
0.0
11
897.236
21
597.516
31
0.0
0
LINE
5
3042
8
0-0
6
CONTINUOUS
62
  7
10
897.236
20
597.516
30
0.0
11
897.706
21
596.602
31
0.0
0
LINE
5
3043
8
0-0
6
CONTINUOUS
62
  7
10
897.706
20
596.602
30
0.0
11
898.183
21
595.613
31
0.0
0
LINE
5
3044
8
0-0
6
CONTINUOUS
62
  7
10
898.183
20
595.613
30
0.0
11
898.664
21
594.555
31
0.0
0
LINE
5
3045
8
0-0
6
CONTINUOUS
62
  7
10
898.664
20
594.555
30
0.0
11
899.151
21
593.425
31
0.0
0
LINE
5
3046
8
0-0
6
CONTINUOUS
62
  7
10
899.151
20
593.425
30
0.0
11
899.641
21
592.230
31
0.0
0
LINE
5
3047
8
0-0
6
CONTINUOUS
62
  7
10
899.641
20
592.230
30
0.0
11
900.135
21
590.963
31
0.0
0
LINE
5
3048
8
0-0
6
CONTINUOUS
62
  7
10
900.135
20
590.963
30
0.0
11
900.630
21
589.633
31
0.0
0
LINE
5
3049
8
0-0
6
CONTINUOUS
62
  7
10
900.630
20
589.633
30
0.0
11
901.125
21
588.244
31
0.0
0
LINE
5
304a
8
0-0
6
CONTINUOUS
62
  7
10
901.125
20
588.244
30
0.0
11
901.621
21
586.795
31
0.0
0
LINE
5
304b
8
0-0
6
CONTINUOUS
62
  7
10
901.621
20
586.795
30
0.0
11
902.116
21
585.286
31
0.0
0
LINE
5
304c
8
0-0
6
CONTINUOUS
62
  7
10
902.116
20
585.286
30
0.0
11
902.610
21
583.719
31
0.0
0
LINE
5
304d
8
0-0
6
CONTINUOUS
62
  7
10
902.610
20
583.719
30
0.0
11
903.098
21
582.110
31
0.0
0
LINE
5
304e
8
0-0
6
CONTINUOUS
62
  7
10
903.098
20
582.110
30
0.0
11
903.585
21
580.444
31
0.0
0
LINE
5
304f
8
0-0
6
CONTINUOUS
62
  7
10
903.585
20
580.444
30
0.0
11
904.063
21
578.744
31
0.0
0
LINE
5
3050
8
0-0
6
CONTINUOUS
62
  7
10
904.063
20
578.744
30
0.0
11
904.535
21
577.003
31
0.0
0
LINE
5
3051
8
0-0
6
CONTINUOUS
62
  7
10
904.535
20
577.003
30
0.0
11
904.999
21
575.227
31
0.0
0
LINE
5
3052
8
0-0
6
CONTINUOUS
62
  7
10
904.999
20
575.227
30
0.0
11
905.454
21
573.418
31
0.0
0
LINE
5
3053
8
0-0
6
CONTINUOUS
62
  7
10
905.454
20
573.418
30
0.0
11
905.899
21
571.583
31
0.0
0
LINE
5
3054
8
0-0
6
CONTINUOUS
62
  7
10
905.899
20
571.583
30
0.0
11
906.331
21
569.734
31
0.0
0
LINE
5
3055
8
0-0
6
CONTINUOUS
62
  7
10
906.331
20
569.734
30
0.0
11
906.751
21
567.862
31
0.0
0
LINE
5
3056
8
0-0
6
CONTINUOUS
62
  7
10
906.751
20
567.862
30
0.0
11
907.159
21
565.978
31
0.0
0
LINE
5
3057
8
0-0
6
CONTINUOUS
62
  7
10
907.159
20
565.978
30
0.0
11
907.553
21
564.083
31
0.0
0
LINE
5
3058
8
0-0
6
CONTINUOUS
62
  7
10
907.553
20
564.083
30
0.0
11
907.934
21
562.176
31
0.0
0
LINE
5
3059
8
0-0
6
CONTINUOUS
62
  7
10
907.934
20
562.176
30
0.0
11
908.304
21
560.254
31
0.0
0
LINE
5
305a
8
0-0
6
CONTINUOUS
62
  7
10
908.304
20
560.254
30
0.0
11
908.659
21
558.330
31
0.0
0
LINE
5
305b
8
0-0
6
CONTINUOUS
62
  7
10
908.659
20
558.330
30
0.0
11
909.009
21
556.360
31
0.0
0
LINE
5
305c
8
0-0
6
CONTINUOUS
62
  7
10
909.009
20
556.360
30
0.0
11
909.347
21
554.383
31
0.0
0
LINE
5
305d
8
0-0
6
CONTINUOUS
62
  7
10
909.347
20
554.383
30
0.0
11
909.685
21
552.334
31
0.0
0
LINE
5
305e
8
0-0
6
CONTINUOUS
62
  7
10
909.685
20
552.334
30
0.0
11
910.019
21
550.242
31
0.0
0
LINE
5
305f
8
0-0
6
CONTINUOUS
62
  7
10
910.019
20
550.242
30
0.0
11
910.366
21
548.022
31
0.0
0
LINE
5
3060
8
0-0
6
CONTINUOUS
62
  7
10
910.366
20
548.022
30
0.0
11
910.716
21
545.729
31
0.0
0
LINE
5
3061
8
0-0
6
CONTINUOUS
62
  7
10
910.716
20
545.729
30
0.0
11
911.114
21
543.100
31
0.0
0
LINE
5
3062
8
0-0
6
CONTINUOUS
62
  7
10
911.114
20
543.100
30
0.0
11
911.513
21
540.453
31
0.0
0
LINE
5
3063
8
0-0
6
CONTINUOUS
62
  7
10
892.223
20
603.030
30
0.0
11
892.196
21
603.036
31
0.0
0
LINE
5
3064
8
0-0
6
CONTINUOUS
62
  7
10
892.196
20
603.036
30
0.0
11
892.170
21
603.041
31
0.0
0
LINE
5
3065
8
0-0
6
CONTINUOUS
62
  7
10
892.170
20
603.041
30
0.0
11
892.147
21
603.045
31
0.0
0
LINE
5
3066
8
0-0
6
CONTINUOUS
62
  7
10
892.147
20
603.045
30
0.0
11
892.125
21
603.049
31
0.0
0
LINE
5
3067
8
0-0
6
CONTINUOUS
62
  7
10
892.125
20
603.049
30
0.0
11
892.104
21
603.052
31
0.0
0
LINE
5
3068
8
0-0
6
CONTINUOUS
62
  7
10
892.104
20
603.052
30
0.0
11
892.084
21
603.056
31
0.0
0
LINE
5
3069
8
0-0
6
CONTINUOUS
62
  7
10
892.084
20
603.056
30
0.0
11
892.065
21
603.058
31
0.0
0
LINE
5
306a
8
0-0
6
CONTINUOUS
62
  7
10
892.065
20
603.058
30
0.0
11
892.046
21
603.061
31
0.0
0
LINE
5
306b
8
0-0
6
CONTINUOUS
62
  7
10
892.046
20
603.061
30
0.0
11
892.028
21
603.063
31
0.0
0
LINE
5
306c
8
0-0
6
CONTINUOUS
62
  7
10
892.028
20
603.063
30
0.0
11
892.011
21
603.065
31
0.0
0
LINE
5
306d
8
0-0
6
CONTINUOUS
62
  7
10
892.011
20
603.065
30
0.0
11
891.994
21
603.067
31
0.0
0
LINE
5
306e
8
0-0
6
CONTINUOUS
62
  7
10
891.994
20
603.067
30
0.0
11
891.977
21
603.068
31
0.0
0
LINE
5
306f
8
0-0
6
CONTINUOUS
62
  7
10
891.977
20
603.068
30
0.0
11
891.961
21
603.069
31
0.0
0
LINE
5
3070
8
0-0
6
CONTINUOUS
62
  7
10
891.961
20
603.069
30
0.0
11
891.945
21
603.070
31
0.0
0
LINE
5
3071
8
0-0
6
CONTINUOUS
62
  7
10
891.945
20
603.070
30
0.0
11
891.930
21
603.071
31
0.0
0
LINE
5
3072
8
0-0
6
CONTINUOUS
62
  7
10
891.930
20
603.071
30
0.0
11
891.914
21
603.071
31
0.0
0
LINE
5
3073
8
0-0
6
CONTINUOUS
62
  7
10
891.914
20
603.071
30
0.0
11
891.900
21
603.072
31
0.0
0
LINE
5
3074
8
0-0
6
CONTINUOUS
62
  7
10
891.900
20
603.072
30
0.0
11
891.892
21
603.072
31
0.0
0
LINE
5
3075
8
0-0
6
CONTINUOUS
62
  7
10
945.233
20
625.457
30
0.0
11
944.795
21
627.147
31
0.0
0
LINE
5
3076
8
0-0
6
CONTINUOUS
62
  7
10
944.795
20
627.147
30
0.0
11
944.279
21
629.063
31
0.0
0
LINE
5
3077
8
0-0
6
CONTINUOUS
62
  7
10
944.279
20
629.063
30
0.0
11
943.760
21
630.886
31
0.0
0
LINE
5
3078
8
0-0
6
CONTINUOUS
62
  7
10
943.760
20
630.886
30
0.0
11
943.232
21
632.607
31
0.0
0
LINE
5
3079
8
0-0
6
CONTINUOUS
62
  7
10
943.232
20
632.607
30
0.0
11
942.691
21
634.223
31
0.0
0
LINE
5
307a
8
0-0
6
CONTINUOUS
62
  7
10
942.691
20
634.223
30
0.0
11
942.128
21
635.739
31
0.0
0
LINE
5
307b
8
0-0
6
CONTINUOUS
62
  7
10
942.128
20
635.739
30
0.0
11
941.542
21
637.150
31
0.0
0
LINE
5
307c
8
0-0
6
CONTINUOUS
62
  7
10
941.542
20
637.150
30
0.0
11
940.930
21
638.457
31
0.0
0
LINE
5
307d
8
0-0
6
CONTINUOUS
62
  7
10
940.930
20
638.457
30
0.0
11
940.288
21
639.668
31
0.0
0
LINE
5
307e
8
0-0
6
CONTINUOUS
62
  7
10
940.288
20
639.668
30
0.0
11
939.613
21
640.786
31
0.0
0
LINE
5
307f
8
0-0
6
CONTINUOUS
62
  7
10
939.613
20
640.786
30
0.0
11
938.901
21
641.817
31
0.0
0
LINE
5
3080
8
0-0
6
CONTINUOUS
62
  7
10
938.901
20
641.817
30
0.0
11
938.147
21
642.772
31
0.0
0
LINE
5
3081
8
0-0
6
CONTINUOUS
62
  7
10
938.147
20
642.772
30
0.0
11
937.345
21
643.659
31
0.0
0
LINE
5
3082
8
0-0
6
CONTINUOUS
62
  7
10
937.345
20
643.659
30
0.0
11
936.485
21
644.488
31
0.0
0
LINE
5
3083
8
0-0
6
CONTINUOUS
62
  7
10
936.485
20
644.488
30
0.0
11
935.555
21
645.268
31
0.0
0
LINE
5
3084
8
0-0
6
CONTINUOUS
62
  7
10
935.555
20
645.268
30
0.0
11
934.549
21
646.005
31
0.0
0
LINE
5
3085
8
0-0
6
CONTINUOUS
62
  7
10
934.549
20
646.005
30
0.0
11
933.453
21
646.704
31
0.0
0
LINE
5
3086
8
0-0
6
CONTINUOUS
62
  7
10
933.453
20
646.704
30
0.0
11
932.258
21
647.370
31
0.0
0
LINE
5
3087
8
0-0
6
CONTINUOUS
62
  7
10
932.258
20
647.370
30
0.0
11
930.958
21
648.002
31
0.0
0
LINE
5
3088
8
0-0
6
CONTINUOUS
62
  7
10
930.958
20
648.002
30
0.0
11
929.546
21
648.603
31
0.0
0
LINE
5
3089
8
0-0
6
CONTINUOUS
62
  7
10
929.546
20
648.603
30
0.0
11
928.021
21
649.173
31
0.0
0
LINE
5
308a
8
0-0
6
CONTINUOUS
62
  7
10
928.021
20
649.173
30
0.0
11
926.380
21
649.711
31
0.0
0
LINE
5
308b
8
0-0
6
CONTINUOUS
62
  7
10
926.380
20
649.711
30
0.0
11
924.626
21
650.219
31
0.0
0
LINE
5
308c
8
0-0
6
CONTINUOUS
62
  7
10
924.626
20
650.219
30
0.0
11
922.759
21
650.697
31
0.0
0
LINE
5
308d
8
0-0
6
CONTINUOUS
62
  7
10
922.759
20
650.697
30
0.0
11
920.782
21
651.148
31
0.0
0
LINE
5
308e
8
0-0
6
CONTINUOUS
62
  7
10
920.782
20
651.148
30
0.0
11
918.708
21
651.571
31
0.0
0
LINE
5
308f
8
0-0
6
CONTINUOUS
62
  7
10
918.708
20
651.571
30
0.0
11
916.539
21
651.968
31
0.0
0
LINE
5
3090
8
0-0
6
CONTINUOUS
62
  7
10
916.539
20
651.968
30
0.0
11
914.288
21
652.342
31
0.0
0
LINE
5
3091
8
0-0
6
CONTINUOUS
62
  7
10
914.288
20
652.342
30
0.0
11
911.960
21
652.694
31
0.0
0
LINE
5
3092
8
0-0
6
CONTINUOUS
62
  7
10
911.960
20
652.694
30
0.0
11
909.582
21
653.026
31
0.0
0
LINE
5
3093
8
0-0
6
CONTINUOUS
62
  7
10
909.582
20
653.026
30
0.0
11
907.160
21
653.341
31
0.0
0
LINE
5
3094
8
0-0
6
CONTINUOUS
62
  7
10
907.160
20
653.341
30
0.0
11
904.736
21
653.638
31
0.0
0
LINE
5
3095
8
0-0
6
CONTINUOUS
62
  7
10
904.736
20
653.638
30
0.0
11
902.300
21
653.923
31
0.0
0
LINE
5
3096
8
0-0
6
CONTINUOUS
62
  7
10
902.300
20
653.923
30
0.0
11
899.875
21
654.199
31
0.0
0
LINE
5
3097
8
0-0
6
CONTINUOUS
62
  7
10
899.875
20
654.199
30
0.0
11
897.573
21
654.459
31
0.0
0
LINE
5
3098
8
0-0
6
CONTINUOUS
62
  7
10
897.573
20
654.459
30
0.0
11
895.334
21
654.716
31
0.0
0
LINE
5
3099
8
0-0
6
CONTINUOUS
62
  7
10
895.334
20
654.716
30
0.0
11
893.244
21
654.968
31
0.0
0
LINE
5
309a
8
0-0
6
CONTINUOUS
62
  7
10
893.244
20
654.968
30
0.0
11
891.892
21
655.146
31
0.0
0
LINE
5
309b
8
0-0
6
CONTINUOUS
62
  7
10
972.552
20
659.864
30
0.0
11
972.342
21
660.684
31
0.0
0
LINE
5
309c
8
0-0
6
CONTINUOUS
62
  7
10
972.342
20
660.684
30
0.0
11
972.040
21
661.783
31
0.0
0
LINE
5
309d
8
0-0
6
CONTINUOUS
62
  7
10
972.040
20
661.783
30
0.0
11
971.720
21
662.855
31
0.0
0
LINE
5
309e
8
0-0
6
CONTINUOUS
62
  7
10
971.720
20
662.855
30
0.0
11
971.379
21
663.891
31
0.0
0
LINE
5
309f
8
0-0
6
CONTINUOUS
62
  7
10
971.379
20
663.891
30
0.0
11
971.009
21
664.896
31
0.0
0
LINE
5
30a0
8
0-0
6
CONTINUOUS
62
  7
10
971.009
20
664.896
30
0.0
11
970.604
21
665.873
31
0.0
0
LINE
5
30a1
8
0-0
6
CONTINUOUS
62
  7
10
970.604
20
665.873
30
0.0
11
970.156
21
666.827
31
0.0
0
LINE
5
30a2
8
0-0
6
CONTINUOUS
62
  7
10
970.156
20
666.827
30
0.0
11
969.657
21
667.765
31
0.0
0
LINE
5
30a3
8
0-0
6
CONTINUOUS
62
  7
10
969.657
20
667.765
30
0.0
11
969.099
21
668.690
31
0.0
0
LINE
5
30a4
8
0-0
6
CONTINUOUS
62
  7
10
969.099
20
668.690
30
0.0
11
968.473
21
669.609
31
0.0
0
LINE
5
30a5
8
0-0
6
CONTINUOUS
62
  7
10
968.473
20
669.609
30
0.0
11
967.771
21
670.525
31
0.0
0
LINE
5
30a6
8
0-0
6
CONTINUOUS
62
  7
10
967.771
20
670.525
30
0.0
11
966.983
21
671.442
31
0.0
0
LINE
5
30a7
8
0-0
6
CONTINUOUS
62
  7
10
966.983
20
671.442
30
0.0
11
966.101
21
672.359
31
0.0
0
LINE
5
30a8
8
0-0
6
CONTINUOUS
62
  7
10
966.101
20
672.359
30
0.0
11
965.119
21
673.275
31
0.0
0
LINE
5
30a9
8
0-0
6
CONTINUOUS
62
  7
10
965.119
20
673.275
30
0.0
11
964.026
21
674.191
31
0.0
0
LINE
5
30aa
8
0-0
6
CONTINUOUS
62
  7
10
964.026
20
674.191
30
0.0
11
962.821
21
675.104
31
0.0
0
LINE
5
30ab
8
0-0
6
CONTINUOUS
62
  7
10
962.821
20
675.104
30
0.0
11
961.496
21
676.010
31
0.0
0
LINE
5
30ac
8
0-0
6
CONTINUOUS
62
  7
10
961.496
20
676.010
30
0.0
11
960.045
21
676.908
31
0.0
0
LINE
5
30ad
8
0-0
6
CONTINUOUS
62
  7
10
960.045
20
676.908
30
0.0
11
958.469
21
677.793
31
0.0
0
LINE
5
30ae
8
0-0
6
CONTINUOUS
62
  7
10
958.469
20
677.793
30
0.0
11
956.761
21
678.664
31
0.0
0
LINE
5
30af
8
0-0
6
CONTINUOUS
62
  7
10
956.761
20
678.664
30
0.0
11
954.922
21
679.516
31
0.0
0
LINE
5
30b0
8
0-0
6
CONTINUOUS
62
  7
10
954.922
20
679.516
30
0.0
11
952.949
21
680.348
31
0.0
0
LINE
5
30b1
8
0-0
6
CONTINUOUS
62
  7
10
952.949
20
680.348
30
0.0
11
950.843
21
681.156
31
0.0
0
LINE
5
30b2
8
0-0
6
CONTINUOUS
62
  7
10
950.843
20
681.156
30
0.0
11
948.608
21
681.937
31
0.0
0
LINE
5
30b3
8
0-0
6
CONTINUOUS
62
  7
10
948.608
20
681.937
30
0.0
11
946.241
21
682.693
31
0.0
0
LINE
5
30b4
8
0-0
6
CONTINUOUS
62
  7
10
946.241
20
682.693
30
0.0
11
943.755
21
683.416
31
0.0
0
LINE
5
30b5
8
0-0
6
CONTINUOUS
62
  7
10
943.755
20
683.416
30
0.0
11
941.147
21
684.110
31
0.0
0
LINE
5
30b6
8
0-0
6
CONTINUOUS
62
  7
10
941.147
20
684.110
30
0.0
11
938.431
21
684.769
31
0.0
0
LINE
5
30b7
8
0-0
6
CONTINUOUS
62
  7
10
938.431
20
684.769
30
0.0
11
935.611
21
685.395
31
0.0
0
LINE
5
30b8
8
0-0
6
CONTINUOUS
62
  7
10
935.611
20
685.395
30
0.0
11
932.704
21
685.985
31
0.0
0
LINE
5
30b9
8
0-0
6
CONTINUOUS
62
  7
10
932.704
20
685.985
30
0.0
11
929.715
21
686.540
31
0.0
0
LINE
5
30ba
8
0-0
6
CONTINUOUS
62
  7
10
929.715
20
686.540
30
0.0
11
926.667
21
687.058
31
0.0
0
LINE
5
30bb
8
0-0
6
CONTINUOUS
62
  7
10
926.667
20
687.058
30
0.0
11
923.573
21
687.537
31
0.0
0
LINE
5
30bc
8
0-0
6
CONTINUOUS
62
  7
10
923.573
20
687.537
30
0.0
11
920.444
21
687.980
31
0.0
0
LINE
5
30bd
8
0-0
6
CONTINUOUS
62
  7
10
920.444
20
687.980
30
0.0
11
917.302
21
688.386
31
0.0
0
LINE
5
30be
8
0-0
6
CONTINUOUS
62
  7
10
917.302
20
688.386
30
0.0
11
914.173
21
688.753
31
0.0
0
LINE
5
30bf
8
0-0
6
CONTINUOUS
62
  7
10
914.173
20
688.753
30
0.0
11
911.057
21
689.085
31
0.0
0
LINE
5
30c0
8
0-0
6
CONTINUOUS
62
  7
10
911.057
20
689.085
30
0.0
11
907.972
21
689.383
31
0.0
0
LINE
5
30c1
8
0-0
6
CONTINUOUS
62
  7
10
907.972
20
689.383
30
0.0
11
904.931
21
689.647
31
0.0
0
LINE
5
30c2
8
0-0
6
CONTINUOUS
62
  7
10
904.931
20
689.647
30
0.0
11
901.937
21
689.882
31
0.0
0
LINE
5
30c3
8
0-0
6
CONTINUOUS
62
  7
10
901.937
20
689.882
30
0.0
11
898.980
21
690.090
31
0.0
0
LINE
5
30c4
8
0-0
6
CONTINUOUS
62
  7
10
898.980
20
690.090
30
0.0
11
896.049
21
690.278
31
0.0
0
LINE
5
30c5
8
0-0
6
CONTINUOUS
62
  7
10
896.049
20
690.278
30
0.0
11
893.114
21
690.449
31
0.0
0
LINE
5
30c6
8
0-0
6
CONTINUOUS
62
  7
10
893.114
20
690.449
30
0.0
11
891.892
21
690.516
31
0.0
0
LINE
5
30c7
8
0-0
6
CONTINUOUS
62
  7
10
891.892
20
619.322
30
0.0
11
893.628
21
619.078
31
0.0
0
LINE
5
30c8
8
0-0
6
CONTINUOUS
62
  7
10
893.628
20
619.078
30
0.0
11
895.815
21
618.680
31
0.0
0
LINE
5
30c9
8
0-0
6
CONTINUOUS
62
  7
10
895.815
20
618.680
30
0.0
11
897.850
21
618.221
31
0.0
0
LINE
5
30ca
8
0-0
6
CONTINUOUS
62
  7
10
897.850
20
618.221
30
0.0
11
899.728
21
617.708
31
0.0
0
LINE
5
30cb
8
0-0
6
CONTINUOUS
62
  7
10
899.728
20
617.708
30
0.0
11
901.443
21
617.150
31
0.0
0
LINE
5
30cc
8
0-0
6
CONTINUOUS
62
  7
10
901.443
20
617.150
30
0.0
11
902.999
21
616.552
31
0.0
0
LINE
5
30cd
8
0-0
6
CONTINUOUS
62
  7
10
902.999
20
616.552
30
0.0
11
904.400
21
615.920
31
0.0
0
LINE
5
30ce
8
0-0
6
CONTINUOUS
62
  7
10
904.400
20
615.920
30
0.0
11
905.656
21
615.256
31
0.0
0
LINE
5
30cf
8
0-0
6
CONTINUOUS
62
  7
10
905.656
20
615.256
30
0.0
11
906.778
21
614.563
31
0.0
0
LINE
5
30d0
8
0-0
6
CONTINUOUS
62
  7
10
906.778
20
614.563
30
0.0
11
907.784
21
613.838
31
0.0
0
LINE
5
30d1
8
0-0
6
CONTINUOUS
62
  7
10
907.784
20
613.838
30
0.0
11
908.692
21
613.077
31
0.0
0
LINE
5
30d2
8
0-0
6
CONTINUOUS
62
  7
10
908.692
20
613.077
30
0.0
11
909.521
21
612.270
31
0.0
0
LINE
5
30d3
8
0-0
6
CONTINUOUS
62
  7
10
909.521
20
612.270
30
0.0
11
910.290
21
611.403
31
0.0
0
LINE
5
30d4
8
0-0
6
CONTINUOUS
62
  7
10
910.290
20
611.403
30
0.0
11
911.012
21
610.466
31
0.0
0
LINE
5
30d5
8
0-0
6
CONTINUOUS
62
  7
10
911.012
20
610.466
30
0.0
11
911.697
21
609.448
31
0.0
0
LINE
5
30d6
8
0-0
6
CONTINUOUS
62
  7
10
911.697
20
609.448
30
0.0
11
912.353
21
608.339
31
0.0
0
LINE
5
30d7
8
0-0
6
CONTINUOUS
62
  7
10
912.353
20
608.339
30
0.0
11
912.984
21
607.137
31
0.0
0
LINE
5
30d8
8
0-0
6
CONTINUOUS
62
  7
10
912.984
20
607.137
30
0.0
11
913.594
21
605.842
31
0.0
0
LINE
5
30d9
8
0-0
6
CONTINUOUS
62
  7
10
913.594
20
605.842
30
0.0
11
914.183
21
604.459
31
0.0
0
LINE
5
30da
8
0-0
6
CONTINUOUS
62
  7
10
914.183
20
604.459
30
0.0
11
914.753
21
602.995
31
0.0
0
LINE
5
30db
8
0-0
6
CONTINUOUS
62
  7
10
914.753
20
602.995
30
0.0
11
915.308
21
601.455
31
0.0
0
LINE
5
30dc
8
0-0
6
CONTINUOUS
62
  7
10
915.308
20
601.455
30
0.0
11
915.847
21
599.854
31
0.0
0
LINE
5
30dd
8
0-0
6
CONTINUOUS
62
  7
10
915.847
20
599.854
30
0.0
11
916.369
21
598.206
31
0.0
0
LINE
5
30de
8
0-0
6
CONTINUOUS
62
  7
10
916.369
20
598.206
30
0.0
11
916.878
21
596.520
31
0.0
0
LINE
5
30df
8
0-0
6
CONTINUOUS
62
  7
10
916.878
20
596.520
30
0.0
11
917.374
21
594.800
31
0.0
0
LINE
5
30e0
8
0-0
6
CONTINUOUS
62
  7
10
917.374
20
594.800
30
0.0
11
917.853
21
593.081
31
0.0
0
LINE
5
30e1
8
0-0
6
CONTINUOUS
62
  7
10
917.853
20
593.081
30
0.0
11
918.322
21
591.339
31
0.0
0
LINE
5
30e2
8
0-0
6
CONTINUOUS
62
  7
10
918.322
20
591.339
30
0.0
11
918.774
21
589.616
31
0.0
0
LINE
5
30e3
8
0-0
6
CONTINUOUS
62
  7
10
918.774
20
589.616
30
0.0
11
919.212
21
587.902
31
0.0
0
LINE
5
30e4
8
0-0
6
CONTINUOUS
62
  7
10
919.212
20
587.902
30
0.0
11
919.642
21
586.176
31
0.0
0
LINE
5
30e5
8
0-0
6
CONTINUOUS
62
  7
10
919.642
20
586.176
30
0.0
11
920.060
21
584.457
31
0.0
0
LINE
5
30e6
8
0-0
6
CONTINUOUS
62
  7
10
920.060
20
584.457
30
0.0
11
920.469
21
582.734
31
0.0
0
LINE
5
30e7
8
0-0
6
CONTINUOUS
62
  7
10
920.469
20
582.734
30
0.0
11
920.882
21
580.954
31
0.0
0
LINE
5
30e8
8
0-0
6
CONTINUOUS
62
  7
10
920.882
20
580.954
30
0.0
11
921.244
21
579.358
31
0.0
0
LINE
5
30e9
8
0-0
6
CONTINUOUS
62
  7
10
891.892
20
636.112
30
0.0
11
895.173
21
635.794
31
0.0
0
LINE
5
30ea
8
0-0
6
CONTINUOUS
62
  7
10
895.173
20
635.794
30
0.0
11
898.551
21
635.455
31
0.0
0
LINE
5
30eb
8
0-0
6
CONTINUOUS
62
  7
10
898.551
20
635.455
30
0.0
11
901.577
21
635.132
31
0.0
0
LINE
5
30ec
8
0-0
6
CONTINUOUS
62
  7
10
901.577
20
635.132
30
0.0
11
904.290
21
634.815
31
0.0
0
LINE
5
30ed
8
0-0
6
CONTINUOUS
62
  7
10
904.290
20
634.815
30
0.0
11
906.730
21
634.494
31
0.0
0
LINE
5
30ee
8
0-0
6
CONTINUOUS
62
  7
10
906.730
20
634.494
30
0.0
11
908.933
21
634.162
31
0.0
0
LINE
5
30ef
8
0-0
6
CONTINUOUS
62
  7
10
908.933
20
634.162
30
0.0
11
910.923
21
633.813
31
0.0
0
LINE
5
30f0
8
0-0
6
CONTINUOUS
62
  7
10
910.923
20
633.813
30
0.0
11
912.727
21
633.442
31
0.0
0
LINE
5
30f1
8
0-0
6
CONTINUOUS
62
  7
10
912.727
20
633.442
30
0.0
11
914.368
21
633.047
31
0.0
0
LINE
5
30f2
8
0-0
6
CONTINUOUS
62
  7
10
914.368
20
633.047
30
0.0
11
915.869
21
632.624
31
0.0
0
LINE
5
30f3
8
0-0
6
CONTINUOUS
62
  7
10
915.869
20
632.624
30
0.0
11
917.248
21
632.172
31
0.0
0
LINE
5
30f4
8
0-0
6
CONTINUOUS
62
  7
10
917.248
20
632.172
30
0.0
11
918.522
21
631.690
31
0.0
0
LINE
5
30f5
8
0-0
6
CONTINUOUS
62
  7
10
918.522
20
631.690
30
0.0
11
919.710
21
631.176
31
0.0
0
LINE
5
30f6
8
0-0
6
CONTINUOUS
62
  7
10
919.710
20
631.176
30
0.0
11
920.819
21
630.631
31
0.0
0
LINE
5
30f7
8
0-0
6
CONTINUOUS
62
  7
10
920.819
20
630.631
30
0.0
11
921.860
21
630.053
31
0.0
0
LINE
5
30f8
8
0-0
6
CONTINUOUS
62
  7
10
921.860
20
630.053
30
0.0
11
922.845
21
629.442
31
0.0
0
LINE
5
30f9
8
0-0
6
CONTINUOUS
62
  7
10
922.845
20
629.442
30
0.0
11
923.773
21
628.800
31
0.0
0
LINE
5
30fa
8
0-0
6
CONTINUOUS
62
  7
10
923.773
20
628.800
30
0.0
11
924.653
21
628.125
31
0.0
0
LINE
5
30fb
8
0-0
6
CONTINUOUS
62
  7
10
924.653
20
628.125
30
0.0
11
925.483
21
627.420
31
0.0
0
LINE
5
30fc
8
0-0
6
CONTINUOUS
62
  7
10
925.483
20
627.420
30
0.0
11
926.268
21
626.684
31
0.0
0
LINE
5
30fd
8
0-0
6
CONTINUOUS
62
  7
10
926.268
20
626.684
30
0.0
11
927.010
21
625.917
31
0.0
0
LINE
5
30fe
8
0-0
6
CONTINUOUS
62
  7
10
927.010
20
625.917
30
0.0
11
927.711
21
625.114
31
0.0
0
LINE
5
30ff
8
0-0
6
CONTINUOUS
62
  7
10
927.711
20
625.114
30
0.0
11
928.375
21
624.272
31
0.0
0
LINE
5
3100
8
0-0
6
CONTINUOUS
62
  7
10
928.375
20
624.272
30
0.0
11
929.006
21
623.380
31
0.0
0
LINE
5
3101
8
0-0
6
CONTINUOUS
62
  7
10
929.006
20
623.380
30
0.0
11
929.611
21
622.427
31
0.0
0
LINE
5
3102
8
0-0
6
CONTINUOUS
62
  7
10
929.611
20
622.427
30
0.0
11
930.198
21
621.392
31
0.0
0
LINE
5
3103
8
0-0
6
CONTINUOUS
62
  7
10
930.198
20
621.392
30
0.0
11
930.773
21
620.254
31
0.0
0
LINE
5
3104
8
0-0
6
CONTINUOUS
62
  7
10
930.773
20
620.254
30
0.0
11
931.345
21
618.982
31
0.0
0
LINE
5
3105
8
0-0
6
CONTINUOUS
62
  7
10
931.345
20
618.982
30
0.0
11
931.957
21
617.460
31
0.0
0
LINE
5
3106
8
0-0
6
CONTINUOUS
62
  7
10
972.552
20
659.864
30
0.0
11
986.607
21
535.135
31
0.0
0
LINE
5
3107
8
0-0
6
CONTINUOUS
62
  7
10
915.468
20
541.048
30
0.0
11
916.135
21
535.135
31
0.0
0
LINE
5
3108
8
0-0
6
CONTINUOUS
62
  7
10
911.513
20
540.453
30
0.0
11
912.112
21
535.135
31
0.0
0
LINE
5
3109
8
0-0
6
CONTINUOUS
62
  7
10
891.585
20
672.964
30
0.0
11
892.199
21
672.964
31
0.0
0
LINE
5
310a
8
0-0
6
CONTINUOUS
62
  7
10
1256.757
20
734.836
30
0.0
11
1256.757
21
535.135
31
0.0
0
LINE
5
310b
8
0-0
6
CONTINUOUS
62
  7
10
1256.757
20
535.135
30
0.0
11
1318.757
21
535.135
31
0.0
0
LINE
5
310c
8
0-0
6
CONTINUOUS
62
  7
10
1318.757
20
734.836
30
0.0
11
1318.757
21
535.135
31
0.0
0
LINE
5
310d
8
0-0
6
CONTINUOUS
62
  7
10
1256.757
20
734.836
30
0.0
11
1318.757
21
734.836
31
0.0
0
LINE
5
310e
8
0-0
6
CONTINUOUS
62
  7
10
751.892
20
535.135
30
0.0
11
1031.892
21
535.135
31
0.0
0
LINE
5
310f
8
0-0
6
CONTINUOUS
62
  7
10
751.892
20
951.703
30
0.0
11
751.892
21
889.703
31
0.0
0
LINE
5
3110
8
0-0
6
CONTINUOUS
62
  7
10
751.892
20
889.703
30
0.0
11
1031.892
21
889.703
31
0.0
0
LINE
5
3111
8
0-0
6
CONTINUOUS
62
  7
10
1031.892
20
951.703
30
0.0
11
1031.892
21
889.703
31
0.0
0
LINE
5
3112
8
0-0
6
CONTINUOUS
62
  7
10
751.892
20
951.703
30
0.0
11
1031.892
21
951.703
31
0.0
0
LINE
5
3113
8
0-0
6
CONTINUOUS
62
  7
10
518.919
20
535.135
30
0.0
11
518.919
21
735.135
31
0.0
0
LINE
5
3114
8
0-0
6
CONTINUOUS
62
  7
10
664.865
20
535.135
30
0.0
11
518.919
21
535.135
31
0.0
0
LINE
5
3115
8
0-0
6
CONTINUOUS
62
  7
10
664.865
20
735.135
30
0.0
11
518.919
21
735.135
31
0.0
0
CIRCLE
5
3116
8
ADD_LINE
6
HIDDEN
62
  3
10
891.892
20
535.135
30
0.0
40
3.000
0
TEXT
5
3117
100
AcDbEntity
8
0-0
62
7
100
AcDbText
10
516.419
20
625.760
30
0.0
40
9.750
41
0.800
50
90.000
1
200
100
AcDbText
0
POINT
5
3118
8
0-0
62
  7
10
518.919
20
535.135
30
0.0
0
POINT
5
3119
8
0-0
62
  7
10
518.919
20
735.135
30
0.0
0
ENDSEC
0
EOF
