0
SECTION
2
HEADER
  9
$EXTMIN
10
0
20
0
30
0
  9
$EXTMAX
10
1785.730
20
1332.230
30
0
  9
$LTSCALE
40
5.000
  9
$DIMSCALE
40
5.000
  9
$PDMODE
70
0
  9
$PDSIZE
40
40
0
ENDSEC
0
SECTION
2
TABLES
0
TABLE
2
LTYPE
70
9
0
LTYPE
5
1f4
2
CONTINUOUS
70
0
3
実線
72
65
73
0
40
0.0
0
LTYPE
5
1f5
2
DOT
70
0
3
--  --  --  --  --  --  --  --     
72
65
73
2
40
5.000
49
1.000
49
-4.000
0
LTYPE
5
1f6
2
DASHED
70
0
3
----    ----    ----    ----    
72
65
73
2
40
5.000
49
2.000
49
-3.000
0
LTYPE
5
1f7
2
DASHED2
70
0
3
------  ------  ------  ------ 
72
65
73
2
40
10.000
49
4.000
49
-6.000
0
LTYPE
5
1f8
2
CENTER
70
0
3
----- - ----- - ----- - ----- - 
72
65
73
4
40
9.000
49
6.000
49
-1.000
49
1.000
49
-1.000
0
LTYPE
5
1f9
2
CENTER2
70
0
3
----------  --  ----------  -- 
72
65
73
4
40
18.000
49
12.000
49
-2.000
49
2.000
49
-2.000
0
LTYPE
5
1fa
2
PHANTOM
70
0
3
--- - - --- - - --- - - --- - -
72
65
73
6
40
10.000
49
5.000
49
-1.000
49
1.000
49
-1.000
49
1.000
49
-1.000
0
LTYPE
5
1fb
2
PHANTOM2
70
0
3
--------  -  -  --------  -  -
72
65
73
6
40
16.000
49
6.000
49
-2.000
49
2.000
49
-2.000
49
2.000
49
-2.000
0
LTYPE
5
1fc
2
HIDDEN
70
0
3
-   -   -   -   -   -   -   -   
72
65
73
2
40
2.500
49
0.500
49
-2.000
0
ENDTAB
0
TABLE
2
STYLE
70
1
0
STYLE
5
1fd
100
AcDbSymbolTableRecord
100
AcDbTextStyleTableRecord
2
STANDARD
70
0
40
0.0
41
1.0
50
0.0
71
0
42
0.0
3
txt.shx
4
extfont.shx
0
STYLE
5
1fe
100
AcDbSymbolTableRecord
100
AcDbTextStyleTableRecord
2
TATEGAKI
70
4
40
0.0
41
1.0
50
0.0
71
0
42
0.0
3
txt.shx
4
extfont.shx
0
STYLE
5
1ff
100
AcDbSymbolTableRecord
100
AcDbTextStyleTableRecord
2
MT
70
0
40
0.0
41
1.0
50
0.0
71
0
42
0.0
3
MS Mincho
4

0
STYLE
5
200
100
AcDbSymbolTableRecord
100
AcDbTextStyleTableRecord
2
TMT
70
4
40
0.0
41
1.0
50
0.0
71
0
42
0.0
3
@MS Mincho
4

0
ENDTAB
0
TABLE
2
LAYER
5
e72
100
AcDbSymbolTable
70
10
0
LAYER
5
e73
100
AcDbSymbolTableRecord
100
AcDbLayerTableRecord
2
0
70
64
62
  7
  6
CONTINUOUS
0
LAYER
5
e74
100
AcDbSymbolTableRecord
100
AcDbLayerTableRecord
2
0-0
70
64
62
  7
  6
CONTINUOUS
0
LAYER
5
e75
100
AcDbSymbolTableRecord
100
AcDbLayerTableRecord
2
0-1
70
64
62
  7
  6
CONTINUOUS
0
LAYER
5
e76
100
AcDbSymbolTableRecord
100
AcDbLayerTableRecord
2
0-2
70
64
62
  7
  6
CONTINUOUS
0
LAYER
5
e77
100
AcDbSymbolTableRecord
100
AcDbLayerTableRecord
2
ADD_LINE
70
64
62
  -7
  6
CONTINUOUS
0
ENDTAB
0
ENDSEC
0
SECTION
2
ENTITIES
0
LINE
5
e78
8
0-0
6
CONTINUOUS
62
  7
10
1023.941
20
433.041
30
0.0
11
1033.941
21
433.041
31
0.0
0
LINE
5
e79
8
0-0
6
CONTINUOUS
62
  7
10
1023.941
20
433.041
30
0.0
11
1023.941
21
418.041
31
0.0
0
LINE
5
e7a
8
0-0
6
CONTINUOUS
62
  7
10
1333.941
20
407.529
30
0.0
11
1315.531
21
414.806
31
0.0
0
LINE
5
e7b
8
0-0
6
CONTINUOUS
62
  7
10
1033.941
20
433.041
30
0.0
11
1033.941
21
429.828
31
0.0
0
LINE
5
e7c
8
ADD_LINE
6
HIDDEN
62
  7
10
1333.941
20
337.806
30
0.0
11
1333.941
21
336.514
31
0.0
0
LINE
5
e7d
8
0-0
6
CONTINUOUS
62
  7
10
1333.941
20
407.529
30
0.0
11
1315.531
21
414.806
31
0.0
0
LINE
5
e7e
8
0-0
6
CONTINUOUS
62
  7
10
1282.941
20
1117.612
30
0.0
11
1304.941
21
1117.612
31
0.0
0
LINE
5
e7f
8
0-0
6
CONTINUOUS
62
  7
10
1304.941
20
1117.612
30
0.0
11
1304.941
21
1099.612
31
0.0
0
LINE
5
e80
8
0-0
6
CONTINUOUS
62
  7
10
1023.941
20
1149.612
30
0.0
11
1282.941
21
1149.612
31
0.0
0
LINE
5
e81
8
0-0
6
CONTINUOUS
62
  7
10
1282.941
20
1149.612
30
0.0
11
1282.941
21
1117.612
31
0.0
0
LINE
5
e82
8
0-0
6
CONTINUOUS
62
  7
10
1304.941
20
1099.612
30
0.0
11
1312.941
21
1099.612
31
0.0
0
LINE
5
e83
8
0-0
6
CONTINUOUS
62
  7
10
1312.941
20
1099.612
30
0.0
11
1333.941
21
839.612
31
0.0
0
LINE
5
e84
8
0-0
6
CONTINUOUS
62
  7
10
1023.941
20
1149.612
30
0.0
11
1002.941
21
1149.612
31
0.0
0
LINE
5
e85
8
0-0
6
CONTINUOUS
62
  7
10
1073.941
20
839.612
30
0.0
11
1073.941
21
857.612
31
0.0
0
LINE
5
e86
8
0-0
6
CONTINUOUS
62
  7
10
1043.941
20
857.612
30
0.0
11
1043.941
21
839.612
31
0.0
0
LINE
5
e87
8
0-0
6
CONTINUOUS
62
  7
10
1040.600
20
889.612
30
0.0
11
1042.767
21
857.612
31
0.0
0
LINE
5
e88
8
0-0
6
CONTINUOUS
62
  7
10
1040.600
20
889.612
30
0.0
11
1030.171
21
895.612
31
0.0
0
LINE
5
e89
8
0-0
6
CONTINUOUS
62
  7
10
1013.641
20
1139.612
30
0.0
11
1030.171
21
895.612
31
0.0
0
LINE
5
e8a
8
0-0
6
CONTINUOUS
62
  7
10
1076.941
20
1127.580
30
0.0
11
1078.495
21
1122.906
31
0.0
0
LINE
5
e8b
8
0-0
6
CONTINUOUS
62
  7
10
1088.941
20
1127.580
30
0.0
11
1087.387
21
1122.906
31
0.0
0
LINE
5
e8c
8
0-0
6
CONTINUOUS
62
  7
10
1073.939
20
1136.612
30
0.0
11
1076.941
21
1127.580
31
0.0
0
LINE
5
e8d
8
0-0
6
CONTINUOUS
62
  7
10
1091.944
20
1136.613
30
0.0
11
1088.941
21
1127.580
31
0.0
0
LINE
5
e8e
8
0-0
6
CONTINUOUS
62
  7
10
1176.941
20
1127.580
30
0.0
11
1178.495
21
1122.906
31
0.0
0
LINE
5
e8f
8
0-0
6
CONTINUOUS
62
  7
10
1188.941
20
1127.580
30
0.0
11
1187.387
21
1122.906
31
0.0
0
LINE
5
e90
8
0-0
6
CONTINUOUS
62
  7
10
1173.939
20
1136.612
30
0.0
11
1176.941
21
1127.580
31
0.0
0
LINE
5
e91
8
0-0
6
CONTINUOUS
62
  7
10
1191.944
20
1136.613
30
0.0
11
1188.941
21
1127.580
31
0.0
0
LINE
5
e92
8
0-0
6
CONTINUOUS
62
  7
10
1013.641
20
1139.612
30
0.0
11
1069.941
21
1139.612
31
0.0
0
LINE
5
e93
8
0-0
6
CONTINUOUS
62
  7
10
1095.941
20
1139.612
30
0.0
11
1169.941
21
1139.612
31
0.0
0
LINE
5
e94
8
0-0
6
CONTINUOUS
62
  7
10
1043.941
20
839.612
30
0.0
11
1333.941
21
839.612
31
0.0
0
LINE
5
e95
8
0-0
6
CONTINUOUS
62
  7
10
744.013
20
1139.020
30
0.0
11
744.013
21
1148.619
31
0.0
0
LINE
5
e96
8
ADD_LINE
6
HIDDEN
62
  7
10
716.514
20
1139.509
30
0.0
11
713.514
21
1139.607
31
0.0
0
LINE
5
e97
8
0-0
6
CONTINUOUS
62
  7
10
713.514
20
1139.607
30
0.0
11
716.514
21
1139.509
31
0.0
0
LINE
5
e98
8
0-0
6
CONTINUOUS
62
  7
10
735.524
20
843.233
30
0.0
11
735.524
21
847.235
31
0.0
0
LINE
5
e99
8
0-0
6
CONTINUOUS
62
  7
10
731.513
20
854.772
30
0.0
11
731.514
21
1139.020
31
0.0
0
LINE
5
e9a
8
0-0
6
CONTINUOUS
62
  7
10
737.845
20
847.160
30
0.0
11
735.524
21
847.235
31
0.0
0
LINE
5
e9b
8
0-0
6
CONTINUOUS
62
  7
10
737.910
20
843.155
30
0.0
11
735.524
21
843.233
31
0.0
0
LINE
5
e9c
8
0-0
6
CONTINUOUS
62
  7
10
738.878
20
850.660
30
0.0
11
738.878
21
848.159
31
0.0
0
LINE
5
e9d
8
0-0
6
CONTINUOUS
62
  7
10
737.910
20
851.660
30
0.0
11
734.416
21
851.773
31
0.0
0
LINE
5
e9e
8
0-0
6
CONTINUOUS
62
  7
10
738.878
20
839.655
30
0.0
11
738.878
21
842.156
31
0.0
0
LINE
5
e9f
8
0-0
6
CONTINUOUS
62
  7
10
716.514
20
1139.509
30
0.0
11
716.513
21
839.350
31
0.0
0
LINE
5
ea0
8
0-0
6
CONTINUOUS
62
  7
10
737.845
20
838.655
30
0.0
11
716.513
21
839.350
31
0.0
0
LINE
5
ea1
8
0-0
6
CONTINUOUS
62
  7
10
713.514
20
1139.607
30
0.0
11
713.514
21
1149.612
31
0.0
0
LINE
5
ea2
8
0-0
6
CONTINUOUS
62
  7
10
744.013
20
1148.619
30
0.0
11
713.514
21
1149.612
31
0.0
0
LINE
5
ea3
8
0-2
6
CONTINUOUS
62
  7
10
713.514
20
1329.730
30
0.0
11
744.013
21
1329.730
31
0.0
0
LINE
5
ea4
8
0-2
6
CONTINUOUS
62
  7
10
713.514
20
1195.946
30
0.0
11
713.514
21
1329.730
31
0.0
0
LINE
5
ea5
8
0-2
6
CONTINUOUS
62
  7
10
744.013
20
1195.946
30
0.0
11
744.013
21
1329.730
31
0.0
0
LINE
5
ea6
8
0-2
6
CONTINUOUS
62
  7
10
1002.941
20
1329.730
30
0.0
11
1312.941
21
1329.730
31
0.0
0
LINE
5
ea7
8
0-2
6
CONTINUOUS
62
  7
10
1002.941
20
1195.946
30
0.0
11
1002.941
21
1329.730
31
0.0
0
LINE
5
ea8
8
0-2
6
CONTINUOUS
62
  7
10
1312.941
20
1195.946
30
0.0
11
1312.941
21
1329.730
31
0.0
0
LINE
5
ea9
8
0-2
6
CONTINUOUS
62
  7
10
1002.941
20
1284.470
30
0.0
11
1212.941
21
1284.470
31
0.0
0
LINE
5
eaa
8
0-2
6
CONTINUOUS
62
  7
10
1002.941
20
1195.946
30
0.0
11
1002.941
21
1284.470
31
0.0
0
LINE
5
eab
8
0-2
6
CONTINUOUS
62
  7
10
1212.941
20
1195.946
30
0.0
11
1212.941
21
1284.470
31
0.0
0
LINE
5
eac
8
0-2
6
CONTINUOUS
62
  7
10
1212.941
20
1284.470
30
0.0
11
1282.941
21
1284.470
31
0.0
0
LINE
5
ead
8
0-2
6
CONTINUOUS
62
  7
10
1282.941
20
1195.946
30
0.0
11
1282.941
21
1284.470
31
0.0
0
LINE
5
eae
8
0-2
6
CONTINUOUS
62
  7
10
1282.941
20
1284.470
30
0.0
11
1312.941
21
1284.470
31
0.0
0
LINE
5
eaf
8
0-2
6
CONTINUOUS
62
  7
10
1312.941
20
1195.946
30
0.0
11
1312.941
21
1284.470
31
0.0
0
LINE
5
eb0
8
0-2
6
CONTINUOUS
62
  7
10
716.513
20
689.189
30
0.0
11
731.513
21
689.189
31
0.0
0
LINE
5
eb1
8
0-2
6
CONTINUOUS
62
  7
10
716.513
20
786.487
30
0.0
11
716.513
21
689.189
31
0.0
0
LINE
5
eb2
8
0-2
6
CONTINUOUS
62
  7
10
731.513
20
786.487
30
0.0
11
731.513
21
689.189
31
0.0
0
LINE
5
eb3
8
0-0
6
CONTINUOUS
62
  7
10
1021.208
20
895.612
30
0.0
11
1030.171
21
895.612
31
0.0
0
LINE
5
eb4
8
0-0
6
CONTINUOUS
62
  7
10
1021.640
20
889.612
30
0.0
11
1040.600
21
889.612
31
0.0
0
LINE
5
eb5
8
0-0
6
CONTINUOUS
62
  7
10
1023.941
20
857.612
30
0.0
11
1002.941
21
1149.612
31
0.0
0
LINE
5
eb6
8
0-0
6
CONTINUOUS
62
  7
10
1023.941
20
857.612
30
0.0
11
1073.941
21
857.612
31
0.0
0
LINE
5
eb7
8
0-0
6
CONTINUOUS
62
  7
10
1195.941
20
1139.612
30
0.0
11
1268.941
21
1139.612
31
0.0
0
LINE
5
eb8
8
0-0
6
CONTINUOUS
62
  7
10
1268.941
20
1149.612
30
0.0
11
1268.941
21
1139.612
31
0.0
0
LINE
5
eb9
8
0-2
6
CONTINUOUS
62
  7
10
1023.941
20
689.189
30
0.0
11
1333.941
21
689.189
31
0.0
0
LINE
5
eba
8
0-2
6
CONTINUOUS
62
  7
10
1023.941
20
786.487
30
0.0
11
1023.941
21
689.189
31
0.0
0
LINE
5
ebb
8
0-2
6
CONTINUOUS
62
  7
10
1333.941
20
786.487
30
0.0
11
1333.941
21
689.189
31
0.0
0
LINE
5
ebc
8
0-2
6
CONTINUOUS
62
  7
10
1023.941
20
726.000
30
0.0
11
1073.941
21
726.000
31
0.0
0
LINE
5
ebd
8
0-2
6
CONTINUOUS
62
  7
10
1023.941
20
786.487
30
0.0
11
1023.941
21
726.000
31
0.0
0
LINE
5
ebe
8
0-2
6
CONTINUOUS
62
  7
10
1073.941
20
786.487
30
0.0
11
1073.941
21
726.000
31
0.0
0
LINE
5
ebf
8
0-2
6
CONTINUOUS
62
  7
10
1073.941
20
726.000
30
0.0
11
1193.941
21
726.000
31
0.0
0
LINE
5
ec0
8
0-2
6
CONTINUOUS
62
  7
10
1193.941
20
786.487
30
0.0
11
1193.941
21
726.000
31
0.0
0
LINE
5
ec1
8
0-2
6
CONTINUOUS
62
  7
10
1193.941
20
726.000
30
0.0
11
1333.942
21
726.000
31
0.0
0
LINE
5
ec2
8
0-2
6
CONTINUOUS
62
  7
10
1333.942
20
786.487
30
0.0
11
1333.942
21
726.000
31
0.0
0
LINE
5
ec3
8
0-2
6
CONTINUOUS
62
  7
10
1023.941
20
162.992
30
0.0
11
1333.941
21
162.992
31
0.0
0
LINE
5
ec4
8
0-2
6
CONTINUOUS
62
  7
10
1023.941
20
302.426
30
0.0
11
1023.941
21
162.992
31
0.0
0
LINE
5
ec5
8
0-2
6
CONTINUOUS
62
  7
10
1333.941
20
302.426
30
0.0
11
1333.941
21
162.992
31
0.0
0
LINE
5
ec6
8
0-2
6
CONTINUOUS
62
  7
10
1333.941
20
230.212
30
0.0
11
1073.941
21
230.212
31
0.0
0
LINE
5
ec7
8
0-2
6
CONTINUOUS
62
  7
10
1333.941
20
334.178
30
0.0
11
1333.941
21
230.212
31
0.0
0
LINE
5
ec8
8
0-2
6
CONTINUOUS
62
  7
10
1073.941
20
334.178
30
0.0
11
1073.941
21
230.212
31
0.0
0
LINE
5
ec9
8
0-2
6
CONTINUOUS
62
  7
10
1073.941
20
230.212
30
0.0
11
1023.941
21
230.212
31
0.0
0
LINE
5
eca
8
0-2
6
CONTINUOUS
62
  7
10
1023.941
20
334.178
30
0.0
11
1023.941
21
230.212
31
0.0
0
LINE
5
ecb
8
0-2
6
CONTINUOUS
62
  7
10
1572.973
20
1149.612
30
0.0
11
1572.973
21
839.612
31
0.0
0
LINE
5
ecc
8
0-2
6
CONTINUOUS
62
  7
10
1439.189
20
1149.612
30
0.0
11
1572.973
21
1149.612
31
0.0
0
LINE
5
ecd
8
0-2
6
CONTINUOUS
62
  7
10
1439.189
20
839.612
30
0.0
11
1572.973
21
839.612
31
0.0
0
LINE
5
ece
8
0-2
6
CONTINUOUS
62
  7
10
1500.000
20
1149.612
30
0.0
11
1500.000
21
1099.612
31
0.0
0
LINE
5
ecf
8
0-2
6
CONTINUOUS
62
  7
10
1439.189
20
1149.612
30
0.0
11
1500.000
21
1149.612
31
0.0
0
LINE
5
ed0
8
0-2
6
CONTINUOUS
62
  7
10
1439.189
20
1099.612
30
0.0
11
1500.000
21
1099.612
31
0.0
0
LINE
5
ed1
8
0-2
6
CONTINUOUS
62
  7
10
1500.000
20
1099.612
30
0.0
11
1500.000
21
839.612
31
0.0
0
LINE
5
ed2
8
0-2
6
CONTINUOUS
62
  7
10
1439.189
20
839.612
30
0.0
11
1500.000
21
839.612
31
0.0
0
LINE
5
ed3
8
ADD_LINE
6
HIDDEN
62
  3
10
1333.941
20
407.529
30
0.0
11
1338.513
21
407.529
31
0.0
0
LINE
5
ed4
8
ADD_LINE
6
HIDDEN
62
  3
10
1333.941
20
407.530
30
0.0
11
1330.152
21
407.530
31
0.0
0
LINE
5
ed5
8
ADD_LINE
6
HIDDEN
62
  3
10
1330.152
20
407.530
30
0.0
11
1065.173
21
407.530
31
0.0
0
LINE
5
ed6
8
ADD_LINE
6
HIDDEN
62
  3
10
1073.941
20
422.236
30
0.0
11
1073.941
21
397.945
31
0.0
0
LINE
5
ed7
8
ADD_LINE
6
HIDDEN
62
  3
10
1127.027
20
382.529
30
0.0
11
1021.622
21
382.529
31
0.0
0
LINE
5
ed8
8
ADD_LINE
6
HIDDEN
62
  3
10
1127.027
20
382.529
30
0.0
11
1191.798
21
382.529
31
0.0
0
LINE
5
ed9
8
ADD_LINE
6
HIDDEN
62
  3
10
1127.027
20
391.947
30
0.0
11
1127.027
21
364.438
31
0.0
0
LINE
5
eda
8
ADD_LINE
6
HIDDEN
62
  3
10
1333.941
20
407.530
30
0.0
11
1333.941
21
418.139
31
0.0
0
LINE
5
edb
8
ADD_LINE
6
HIDDEN
62
  3
10
1333.941
20
407.529
30
0.0
11
1333.941
21
399.566
31
0.0
0
LINE
5
edc
8
ADD_LINE
6
HIDDEN
62
  3
10
1338.513
20
407.529
30
0.0
11
1340.753
21
407.529
31
0.0
0
LINE
5
edd
8
0-0
6
CONTINUOUS
62
  7
10
257.725
20
433.041
30
0.0
11
267.725
21
433.041
31
0.0
0
LINE
5
ede
8
0-0
6
CONTINUOUS
62
  7
10
257.725
20
433.041
30
0.0
11
257.725
21
418.041
31
0.0
0
LINE
5
edf
8
0-0
6
CONTINUOUS
62
  7
10
567.725
20
407.529
30
0.0
11
549.314
21
414.806
31
0.0
0
LINE
5
ee0
8
0-0
6
CONTINUOUS
62
  7
10
267.725
20
433.041
30
0.0
11
267.725
21
429.828
31
0.0
0
LINE
5
ee1
8
0-0
6
CONTINUOUS
62
  7
10
567.725
20
407.529
30
0.0
11
549.314
21
414.806
31
0.0
0
LINE
5
ee2
8
ADD_LINE
6
HIDDEN
62
  3
10
567.725
20
407.529
30
0.0
11
572.296
21
407.529
31
0.0
0
LINE
5
ee3
8
ADD_LINE
6
HIDDEN
62
  3
10
567.725
20
407.530
30
0.0
11
563.936
21
407.530
31
0.0
0
LINE
5
ee4
8
ADD_LINE
6
HIDDEN
62
  3
10
563.936
20
407.530
30
0.0
11
298.957
21
407.530
31
0.0
0
LINE
5
ee5
8
ADD_LINE
6
HIDDEN
62
  3
10
307.725
20
422.236
30
0.0
11
307.725
21
397.945
31
0.0
0
LINE
5
ee6
8
ADD_LINE
6
HIDDEN
62
  3
10
360.811
20
382.529
30
0.0
11
255.405
21
382.529
31
0.0
0
LINE
5
ee7
8
ADD_LINE
6
HIDDEN
62
  3
10
360.811
20
382.529
30
0.0
11
425.582
21
382.529
31
0.0
0
LINE
5
ee8
8
ADD_LINE
6
HIDDEN
62
  3
10
360.811
20
391.947
30
0.0
11
360.811
21
364.438
31
0.0
0
LINE
5
ee9
8
ADD_LINE
6
HIDDEN
62
  3
10
567.725
20
407.530
30
0.0
11
567.725
21
418.139
31
0.0
0
LINE
5
eea
8
ADD_LINE
6
HIDDEN
62
  3
10
567.725
20
407.529
30
0.0
11
567.725
21
399.566
31
0.0
0
LINE
5
eeb
8
ADD_LINE
6
HIDDEN
62
  3
10
572.296
20
407.529
30
0.0
11
574.537
21
407.529
31
0.0
0
LINE
5
eec
8
0-0
6
CONTINUOUS
62
  7
10
517.725
20
433.041
30
0.0
11
527.725
21
433.041
31
0.0
0
LINE
5
eed
8
0-0
6
CONTINUOUS
62
  7
10
517.725
20
433.041
30
0.0
11
517.725
21
418.041
31
0.0
0
LINE
5
eee
8
0-0
6
CONTINUOUS
62
  7
10
827.725
20
407.529
30
0.0
11
809.314
21
414.806
31
0.0
0
LINE
5
eef
8
0-0
6
CONTINUOUS
62
  7
10
527.725
20
433.041
30
0.0
11
527.725
21
429.828
31
0.0
0
LINE
5
ef0
8
0-0
6
CONTINUOUS
62
  7
10
827.725
20
407.529
30
0.0
11
809.314
21
414.806
31
0.0
0
LINE
5
ef1
8
ADD_LINE
6
HIDDEN
62
  3
10
827.725
20
407.529
30
0.0
11
832.296
21
407.529
31
0.0
0
LINE
5
ef2
8
ADD_LINE
6
HIDDEN
62
  3
10
827.725
20
407.530
30
0.0
11
823.936
21
407.530
31
0.0
0
LINE
5
ef3
8
ADD_LINE
6
HIDDEN
62
  3
10
823.936
20
407.530
30
0.0
11
558.957
21
407.530
31
0.0
0
LINE
5
ef4
8
ADD_LINE
6
HIDDEN
62
  3
10
567.725
20
422.236
30
0.0
11
567.725
21
397.945
31
0.0
0
LINE
5
ef5
8
ADD_LINE
6
HIDDEN
62
  3
10
620.811
20
382.529
30
0.0
11
515.405
21
382.529
31
0.0
0
LINE
5
ef6
8
ADD_LINE
6
HIDDEN
62
  3
10
620.811
20
382.529
30
0.0
11
685.582
21
382.529
31
0.0
0
LINE
5
ef7
8
ADD_LINE
6
HIDDEN
62
  3
10
620.811
20
391.947
30
0.0
11
620.811
21
364.438
31
0.0
0
LINE
5
ef8
8
ADD_LINE
6
HIDDEN
62
  3
10
827.725
20
407.530
30
0.0
11
827.725
21
418.139
31
0.0
0
LINE
5
ef9
8
ADD_LINE
6
HIDDEN
62
  3
10
827.725
20
407.529
30
0.0
11
827.725
21
399.566
31
0.0
0
LINE
5
efa
8
ADD_LINE
6
HIDDEN
62
  3
10
832.296
20
407.529
30
0.0
11
834.537
21
407.529
31
0.0
0
LINE
5
efb
8
0-1
6
CONTINUOUS
62
  7
10
827.725
20
587.487
30
0.0
11
567.725
21
587.487
31
0.0
0
LINE
5
efc
8
0-1
6
CONTINUOUS
62
  7
10
827.725
20
496.596
30
0.0
11
827.725
21
587.487
31
0.0
0
LINE
5
efd
8
0-1
6
CONTINUOUS
62
  7
10
567.725
20
496.596
30
0.0
11
567.725
21
587.487
31
0.0
0
LINE
5
efe
8
0-1
6
CONTINUOUS
62
  7
10
567.725
20
587.487
30
0.0
11
307.725
21
587.487
31
0.0
0
LINE
5
eff
8
0-1
6
CONTINUOUS
62
  7
10
307.725
20
496.596
30
0.0
11
307.725
21
587.487
31
0.0
0
LINE
5
f00
8
0-0
6
CONTINUOUS
62
  7
10
463.420
20
889.612
30
0.0
11
473.420
21
895.612
31
0.0
0
LINE
5
f01
8
0-0
6
CONTINUOUS
62
  7
10
473.420
20
1149.612
30
0.0
11
473.420
21
895.612
31
0.0
0
LINE
5
f02
8
0-0
6
CONTINUOUS
62
  7
10
463.420
20
889.612
30
0.0
11
463.420
21
857.612
31
0.0
0
LINE
5
f03
8
0-0
6
CONTINUOUS
62
  7
10
448.420
20
857.612
30
0.0
11
448.420
21
839.612
31
0.0
0
LINE
5
f04
8
0-0
6
CONTINUOUS
62
  7
10
458.420
20
1149.612
30
0.0
11
458.420
21
867.612
31
0.0
0
LINE
5
f05
8
0-0
6
CONTINUOUS
62
  7
10
463.420
20
857.612
30
0.0
11
458.403
21
857.612
31
0.0
0
LINE
5
f06
8
0-0
6
CONTINUOUS
62
  7
10
422.420
20
839.612
30
0.0
11
448.420
21
839.612
31
0.0
0
LINE
5
f07
8
0-0
6
CONTINUOUS
62
  7
10
429.409
20
844.190
30
0.0
11
429.410
21
848.192
31
0.0
0
LINE
5
f08
8
0-0
6
CONTINUOUS
62
  7
10
427.023
20
844.112
30
0.0
11
429.409
21
844.190
31
0.0
0
LINE
5
f09
8
0-0
6
CONTINUOUS
62
  7
10
426.056
20
851.617
30
0.0
11
426.056
21
849.116
31
0.0
0
LINE
5
f0a
8
0-0
6
CONTINUOUS
62
  7
10
426.056
20
840.611
30
0.0
11
426.056
21
843.113
31
0.0
0
LINE
5
f0b
8
0-0
6
CONTINUOUS
62
  7
10
427.089
20
839.612
30
0.0
11
433.615
21
839.612
31
0.0
0
LINE
5
f0c
8
0-0
6
CONTINUOUS
62
  7
10
415.056
20
851.617
30
0.0
11
415.056
21
849.116
31
0.0
0
LINE
5
f0d
8
0-0
6
CONTINUOUS
62
  7
10
416.023
20
852.617
30
0.0
11
419.518
21
852.731
31
0.0
0
LINE
5
f0e
8
0-0
6
CONTINUOUS
62
  7
10
415.056
20
840.611
30
0.0
11
415.056
21
843.113
31
0.0
0
LINE
5
f0f
8
0-0
6
CONTINUOUS
62
  7
10
416.089
20
839.612
30
0.0
11
422.615
21
839.612
31
0.0
0
LINE
5
f10
8
0-0
6
CONTINUOUS
62
  7
10
433.420
20
855.729
30
0.0
11
433.420
21
839.612
31
0.0
0
LINE
5
f11
8
0-0
6
CONTINUOUS
62
  7
10
422.420
20
857.612
30
0.0
11
422.420
21
855.729
31
0.0
0
LINE
5
f12
8
0-0
6
CONTINUOUS
62
  7
10
427.023
20
844.112
30
0.0
11
416.023
21
844.112
31
0.0
0
LINE
5
f13
8
0-0
6
CONTINUOUS
62
  7
10
418.409
20
844.112
30
0.0
11
418.410
21
848.117
31
0.0
0
LINE
5
f14
8
0-0
6
CONTINUOUS
62
  7
10
427.023
20
852.617
30
0.0
11
416.023
21
852.617
31
0.0
0
LINE
5
f15
8
0-0
6
CONTINUOUS
62
  7
10
427.088
20
848.117
30
0.0
11
429.410
21
848.192
31
0.0
0
LINE
5
f16
8
0-0
6
CONTINUOUS
62
  7
10
423.088
20
848.117
30
0.0
11
416.088
21
848.117
31
0.0
0
LINE
5
f17
8
0-0
6
CONTINUOUS
62
  7
10
423.088
20
848.117
30
0.0
11
427.066
21
848.117
31
0.0
0
LINE
5
f18
8
0-0
6
CONTINUOUS
62
  7
10
437.321
20
867.612
30
0.0
11
458.420
21
867.612
31
0.0
0
LINE
5
f19
8
0-0
6
CONTINUOUS
62
  7
10
430.321
20
860.612
30
0.0
11
430.321
21
852.724
31
0.0
0
LINE
5
f1a
8
0-0
6
CONTINUOUS
62
  7
10
435.420
20
857.612
30
0.0
11
456.611
21
857.612
31
0.0
0
LINE
5
f1b
8
0-0
6
CONTINUOUS
62
  7
10
433.420
20
855.612
30
0.0
11
433.420
21
839.612
31
0.0
0
LINE
5
f1c
8
0-0
6
CONTINUOUS
62
  7
10
427.023
20
852.617
30
0.0
11
430.321
21
852.724
31
0.0
0
LINE
5
f1d
8
0-0
6
CONTINUOUS
62
  7
10
409.420
20
1149.612
30
0.0
11
409.420
21
1139.612
31
0.0
0
LINE
5
f1e
8
0-0
6
CONTINUOUS
62
  7
10
473.420
20
1149.612
30
0.0
11
409.420
21
1149.612
31
0.0
0
LINE
5
f1f
8
0-0
6
CONTINUOUS
62
  7
10
409.420
20
1139.612
30
0.0
11
427.886
21
1139.612
31
0.0
0
LINE
5
f20
8
0-0
6
CONTINUOUS
62
  7
10
427.886
20
1149.612
30
0.0
11
427.886
21
1139.612
31
0.0
0
LINE
5
f21
8
0-0
6
CONTINUOUS
62
  7
10
422.420
20
1139.612
30
0.0
11
422.420
21
855.729
31
0.0
0
LINE
5
f22
8
0-0
6
CONTINUOUS
62
  7
10
731.514
20
1139.020
30
0.0
11
744.054
21
1139.020
31
0.0
0
LINE
5
f23
8
ADD_LINE
6
HIDDEN
62
  3
10
731.514
20
1139.020
30
0.0
11
731.514
21
1144.628
31
0.0
0
LINE
5
f24
8
ADD_LINE
6
HIDDEN
62
  3
10
731.514
20
1139.020
30
0.0
11
726.377
21
1139.020
31
0.0
0
LINE
5
f25
8
0-0
6
CONTINUOUS
62
  7
10
713.514
20
1149.612
30
0.0
11
669.586
21
1149.612
31
0.0
0
LINE
5
f26
8
0-0
6
CONTINUOUS
62
  7
10
669.586
20
1149.612
30
0.0
11
669.586
21
895.612
31
0.0
0
LINE
5
f27
8
0-0
6
CONTINUOUS
62
  7
10
669.586
20
895.612
30
0.0
11
674.586
21
889.612
31
0.0
0
LINE
5
f28
8
0-0
6
CONTINUOUS
62
  7
10
674.586
20
1139.607
30
0.0
11
674.586
21
857.612
31
0.0
0
LINE
5
f29
8
0-0
6
CONTINUOUS
62
  7
10
692.586
20
857.612
30
0.0
11
674.586
21
857.612
31
0.0
0
LINE
5
f2a
8
0-0
6
CONTINUOUS
62
  7
10
692.586
20
857.612
30
0.0
11
692.586
21
839.350
31
0.0
0
LINE
5
f2b
8
0-0
6
CONTINUOUS
62
  7
10
716.513
20
839.350
30
0.0
11
692.586
21
839.350
31
0.0
0
LINE
5
f2c
8
0-0
6
CONTINUOUS
62
  7
10
713.514
20
1139.607
30
0.0
11
669.586
21
1139.607
31
0.0
0
LINE
5
f2d
8
0-2
6
CONTINUOUS
62
  7
10
267.568
20
1149.612
30
0.0
11
267.568
21
839.612
31
0.0
0
LINE
5
f2e
8
0-2
6
CONTINUOUS
62
  7
10
364.865
20
1149.612
30
0.0
11
267.568
21
1149.612
31
0.0
0
LINE
5
f2f
8
0-2
6
CONTINUOUS
62
  7
10
364.865
20
839.612
30
0.0
11
267.568
21
839.612
31
0.0
0
LINE
5
f30
8
ADD_LINE
6
HIDDEN
62
  3
10
706.513
20
854.228
30
0.0
11
706.513
21
828.659
31
0.0
0
LINE
5
f31
8
0-0
6
CONTINUOUS
62
  7
10
1212.941
20
1149.612
30
0.0
11
1193.941
21
839.612
31
0.0
0
LINE
5
f32
8
0-0
6
CONTINUOUS
62
  7
10
1755.230
20
1139.020
30
0.0
11
1755.230
21
1148.619
31
0.0
0
LINE
5
f33
8
ADD_LINE
6
HIDDEN
62
  7
10
1782.730
20
1139.509
30
0.0
11
1785.730
21
1139.607
31
0.0
0
LINE
5
f34
8
0-0
6
CONTINUOUS
62
  7
10
1785.730
20
1139.607
30
0.0
11
1782.730
21
1139.509
31
0.0
0
LINE
5
f35
8
0-0
6
CONTINUOUS
62
  7
10
1763.719
20
843.233
30
0.0
11
1763.719
21
847.235
31
0.0
0
LINE
5
f36
8
0-0
6
CONTINUOUS
62
  7
10
1767.730
20
854.772
30
0.0
11
1767.730
21
1139.020
31
0.0
0
LINE
5
f37
8
0-0
6
CONTINUOUS
62
  7
10
1761.398
20
847.160
30
0.0
11
1763.719
21
847.235
31
0.0
0
LINE
5
f38
8
0-0
6
CONTINUOUS
62
  7
10
1761.333
20
843.155
30
0.0
11
1763.719
21
843.233
31
0.0
0
LINE
5
f39
8
0-0
6
CONTINUOUS
62
  7
10
1760.366
20
850.660
30
0.0
11
1760.366
21
848.159
31
0.0
0
LINE
5
f3a
8
0-0
6
CONTINUOUS
62
  7
10
1761.333
20
851.660
30
0.0
11
1764.828
21
851.773
31
0.0
0
LINE
5
f3b
8
0-0
6
CONTINUOUS
62
  7
10
1760.366
20
839.655
30
0.0
11
1760.366
21
842.156
31
0.0
0
LINE
5
f3c
8
0-0
6
CONTINUOUS
62
  7
10
1782.730
20
1139.509
30
0.0
11
1782.730
21
839.350
31
0.0
0
LINE
5
f3d
8
0-0
6
CONTINUOUS
62
  7
10
1761.398
20
838.655
30
0.0
11
1782.730
21
839.350
31
0.0
0
LINE
5
f3e
8
0-0
6
CONTINUOUS
62
  7
10
1785.730
20
1139.607
30
0.0
11
1785.730
21
1149.612
31
0.0
0
LINE
5
f3f
8
0-0
6
CONTINUOUS
62
  7
10
1755.230
20
1148.619
30
0.0
11
1785.730
21
1149.612
31
0.0
0
LINE
5
f40
8
0-2
6
CONTINUOUS
62
  7
10
1785.730
20
1329.730
30
0.0
11
1755.230
21
1329.730
31
0.0
0
LINE
5
f41
8
0-2
6
CONTINUOUS
62
  7
10
1785.730
20
1195.946
30
0.0
11
1785.730
21
1329.730
31
0.0
0
LINE
5
f42
8
0-2
6
CONTINUOUS
62
  7
10
1755.230
20
1195.946
30
0.0
11
1755.230
21
1329.730
31
0.0
0
LINE
5
f43
8
0-2
6
CONTINUOUS
62
  7
10
1782.730
20
689.189
30
0.0
11
1767.730
21
689.189
31
0.0
0
LINE
5
f44
8
0-2
6
CONTINUOUS
62
  7
10
1782.730
20
786.487
30
0.0
11
1782.730
21
689.189
31
0.0
0
LINE
5
f45
8
0-2
6
CONTINUOUS
62
  7
10
1767.730
20
786.487
30
0.0
11
1767.730
21
689.189
31
0.0
0
LINE
5
f46
8
0-0
6
CONTINUOUS
62
  7
10
1767.730
20
1139.020
30
0.0
11
1755.189
21
1139.020
31
0.0
0
LINE
5
f47
8
ADD_LINE
6
HIDDEN
62
  3
10
1767.730
20
1139.020
30
0.0
11
1767.730
21
1144.628
31
0.0
0
LINE
5
f48
8
ADD_LINE
6
HIDDEN
62
  3
10
1767.730
20
1139.020
30
0.0
11
1772.866
21
1139.020
31
0.0
0
LINE
5
f49
8
ADD_LINE
6
HIDDEN
62
  3
10
1782.730
20
854.228
30
0.0
11
1782.730
21
828.659
31
0.0
0
ARC
5
f4a
8
0-0
6
CONTINUOUS
62
  7
10
1263.149
20
390.151
30
0.0
40
72.894
50
13.791901
51
161.698517
0
ARC
5
f4b
8
0-0
6
CONTINUOUS
62
  7
10
1127.027
20
549.905
30
0.0
40
167.376
50
231.983124
51
298.395081
0
ARC
5
f4c
8
0-0
6
CONTINUOUS
62
  7
10
1263.149
20
390.151
30
0.0
40
57.894
50
25.205399
51
167.515991
0
ARC
5
f4d
8
0-0
6
CONTINUOUS
62
  7
10
1126.285
20
553.041
30
0.0
40
155.491
50
234.579666
51
295.792664
0
ARC
5
f4e
8
0-0
6
CONTINUOUS
62
  7
10
1043.746
20
433.607
30
0.0
40
10.508
50
201.075867
51
223.839203
0
CIRCLE
5
f4f
8
0-0
6
CONTINUOUS
62
  7
10
1082.941
20
1129.612
30
0.0
40
3.000
0
CIRCLE
5
f50
8
0-0
6
CONTINUOUS
62
  7
10
1182.941
20
1129.612
30
0.0
40
3.000
0
ARC
5
f51
8
0-0
6
CONTINUOUS
62
  7
10
1082.941
20
1124.260
30
0.0
40
4.648
50
196.933060
51
343.066956
0
ARC
5
f52
8
0-0
6
CONTINUOUS
62
  7
10
1069.989
20
1135.512
30
0.0
40
4.100
50
15.562836
51
90.661270
0
ARC
5
f53
8
0-0
6
CONTINUOUS
62
  7
10
1096.206
20
1135.096
30
0.0
40
4.524
50
93.355240
51
160.419327
0
CIRCLE
5
f54
8
0-0
6
CONTINUOUS
62
  7
10
1182.941
20
1129.612
30
0.0
40
3.000
0
ARC
5
f55
8
0-0
6
CONTINUOUS
62
  7
10
1182.941
20
1124.260
30
0.0
40
4.648
50
196.933060
51
343.066956
0
ARC
5
f56
8
0-0
6
CONTINUOUS
62
  7
10
1169.988
20
1135.512
30
0.0
40
4.100
50
15.562836
51
90.661270
0
ARC
5
f57
8
0-0
6
CONTINUOUS
62
  7
10
1196.206
20
1135.096
30
0.0
40
4.524
50
93.355240
51
160.419327
0
ARC
5
f58
8
0-0
6
CONTINUOUS
62
  7
10
734.513
20
854.772
30
0.0
40
3.000
50
180.000748
51
268.134705
0
ARC
5
f59
8
0-0
6
CONTINUOUS
62
  7
10
737.878
20
848.159
30
0.0
40
1.000
50
268.132446
51
360.003357
0
ARC
5
f5a
8
0-0
6
CONTINUOUS
62
  7
10
737.878
20
842.156
30
0.0
40
1.000
50
359.998871
51
88.132431
0
ARC
5
f5b
8
0-0
6
CONTINUOUS
62
  7
10
737.878
20
850.660
30
0.0
40
1.000
50
360.003357
51
88.134811
0
ARC
5
f5c
8
0-0
6
CONTINUOUS
62
  7
10
737.878
20
839.655
30
0.0
40
1.000
50
268.131409
51
360.000000
0
CIRCLE
5
f5d
8
ADD_LINE
6
HIDDEN
62
  3
10
1333.941
20
407.530
30
0.0
40
3.000
0
CIRCLE
5
f5e
8
ADD_LINE
6
HIDDEN
62
  3
10
1073.941
20
407.530
30
0.0
40
3.000
0
CIRCLE
5
f5f
8
ADD_LINE
6
HIDDEN
62
  3
10
1127.027
20
382.529
30
0.0
40
3.000
0
ARC
5
f60
8
0-0
6
CONTINUOUS
62
  7
10
496.932
20
390.151
30
0.0
40
72.894
50
13.791901
51
161.698517
0
ARC
5
f61
8
0-0
6
CONTINUOUS
62
  7
10
360.811
20
549.905
30
0.0
40
167.376
50
231.983124
51
298.395081
0
ARC
5
f62
8
0-0
6
CONTINUOUS
62
  7
10
496.932
20
390.151
30
0.0
40
57.894
50
25.205399
51
167.515991
0
ARC
5
f63
8
0-0
6
CONTINUOUS
62
  7
10
360.068
20
553.041
30
0.0
40
155.491
50
234.579666
51
295.792664
0
ARC
5
f64
8
0-0
6
CONTINUOUS
62
  7
10
277.530
20
433.607
30
0.0
40
10.508
50
201.075867
51
223.839203
0
CIRCLE
5
f65
8
ADD_LINE
6
HIDDEN
62
  3
10
567.725
20
407.530
30
0.0
40
3.000
0
CIRCLE
5
f66
8
ADD_LINE
6
HIDDEN
62
  3
10
307.725
20
407.530
30
0.0
40
3.000
0
CIRCLE
5
f67
8
ADD_LINE
6
HIDDEN
62
  3
10
360.811
20
382.529
30
0.0
40
3.000
0
ARC
5
f68
8
0-0
6
CONTINUOUS
62
  7
10
756.932
20
390.151
30
0.0
40
72.894
50
13.791901
51
161.698517
0
ARC
5
f69
8
0-0
6
CONTINUOUS
62
  7
10
620.811
20
549.905
30
0.0
40
167.376
50
231.983124
51
298.395081
0
ARC
5
f6a
8
0-0
6
CONTINUOUS
62
  7
10
756.932
20
390.151
30
0.0
40
57.894
50
25.205399
51
167.515991
0
ARC
5
f6b
8
0-0
6
CONTINUOUS
62
  7
10
620.068
20
553.041
30
0.0
40
155.491
50
234.579666
51
295.792664
0
ARC
5
f6c
8
0-0
6
CONTINUOUS
62
  7
10
537.529
20
433.607
30
0.0
40
10.508
50
201.075867
51
223.839203
0
CIRCLE
5
f6d
8
ADD_LINE
6
HIDDEN
62
  3
10
827.725
20
407.530
30
0.0
40
3.000
0
CIRCLE
5
f6e
8
ADD_LINE
6
HIDDEN
62
  3
10
567.725
20
407.530
30
0.0
40
3.000
0
CIRCLE
5
f6f
8
ADD_LINE
6
HIDDEN
62
  3
10
620.811
20
382.529
30
0.0
40
3.000
0
ARC
5
f70
8
0-0
6
CONTINUOUS
62
  7
10
427.056
20
843.113
30
0.0
40
1.000
50
451.867554
51
180.001129
0
ARC
5
f71
8
0-0
6
CONTINUOUS
62
  7
10
427.056
20
851.617
30
0.0
40
1.000
50
451.865173
51
179.996643
0
ARC
5
f72
8
0-0
6
CONTINUOUS
62
  7
10
419.420
20
855.729
30
0.0
40
3.000
50
271.865662
51
359.999634
0
ARC
5
f73
8
0-0
6
CONTINUOUS
62
  7
10
416.056
20
849.116
30
0.0
40
1.000
50
179.996643
51
271.867554
0
ARC
5
f74
8
0-0
6
CONTINUOUS
62
  7
10
416.056
20
843.113
30
0.0
40
1.000
50
451.867554
51
180.001129
0
ARC
5
f75
8
0-0
6
CONTINUOUS
62
  7
10
416.056
20
851.617
30
0.0
40
1.000
50
451.865173
51
179.996643
0
ARC
5
f76
8
0-0
6
CONTINUOUS
62
  7
10
416.056
20
840.611
30
0.0
40
1.000
50
180.000000
51
271.868591
0
ARC
5
f77
8
0-0
6
CONTINUOUS
62
  7
10
427.056
20
849.116
30
0.0
40
1.000
50
179.996643
51
268.422729
0
ARC
5
f78
8
0-0
6
CONTINUOUS
62
  7
10
427.056
20
849.116
30
0.0
40
1.000
50
270.596985
51
271.867554
0
ARC
5
f79
8
0-0
6
CONTINUOUS
62
  7
10
437.321
20
860.612
30
0.0
40
7.000
50
90.000000
51
180.000000
0
ARC
5
f7a
8
0-0
6
CONTINUOUS
62
  7
10
435.420
20
855.612
30
0.0
40
2.000
50
90.000000
51
180.000000
0
ARC
5
f7b
8
0-0
6
CONTINUOUS
62
  7
10
427.056
20
840.611
30
0.0
40
1.000
50
271.868164
51
271.868591
0
ARC
5
f7c
8
0-0
6
CONTINUOUS
62
  7
10
427.056
20
840.611
30
0.0
40
1.000
50
180.000000
51
268.090149
0
CIRCLE
5
f7d
8
ADD_LINE
6
HIDDEN
62
  3
10
731.514
20
1139.020
30
0.0
40
3.000
0
CIRCLE
5
f7e
8
ADD_LINE
6
HIDDEN
62
  3
10
706.513
20
839.350
30
0.0
40
3.000
0
ARC
5
f7f
8
0-0
6
CONTINUOUS
62
  7
10
1764.730
20
854.772
30
0.0
40
3.000
50
271.864563
51
359.998505
0
ARC
5
f80
8
0-0
6
CONTINUOUS
62
  7
10
1761.366
20
848.159
30
0.0
40
1.000
50
179.996643
51
271.867554
0
ARC
5
f81
8
0-0
6
CONTINUOUS
62
  7
10
1761.366
20
842.156
30
0.0
40
1.000
50
451.867554
51
180.001129
0
ARC
5
f82
8
0-0
6
CONTINUOUS
62
  7
10
1761.366
20
850.660
30
0.0
40
1.000
50
451.865173
51
179.996643
0
ARC
5
f83
8
0-0
6
CONTINUOUS
62
  7
10
1761.366
20
839.655
30
0.0
40
1.000
50
180.000000
51
271.868591
0
CIRCLE
5
f84
8
ADD_LINE
6
HIDDEN
62
  3
10
1767.730
20
1139.020
30
0.0
40
3.000
0
CIRCLE
5
f85
8
ADD_LINE
6
HIDDEN
62
  3
10
1782.730
20
839.350
30
0.0
40
3.000
0
TEXT
5
f86
100
AcDbEntity
8
0-2
62
7
100
AcDbText
10
722.514
20
1332.230
30
0.0
40
9.750
41
0.800
50
0.000
1
30
100
AcDbText
0
TEXT
5
f87
100
AcDbEntity
8
0-2
62
7
100
AcDbText
10
1148.566
20
1332.230
30
0.0
40
9.750
41
0.800
50
0.000
1
310
100
AcDbText
0
TEXT
5
f88
100
AcDbEntity
8
0-2
62
7
100
AcDbText
10
1098.566
20
1286.970
30
0.0
40
9.750
41
0.800
50
0.000
1
210
100
AcDbText
0
TEXT
5
f89
100
AcDbEntity
8
0-2
62
7
100
AcDbText
10
1241.691
20
1286.970
30
0.0
40
9.750
41
0.800
50
0.000
1
70
100
AcDbText
0
TEXT
5
f8a
100
AcDbEntity
8
0-2
62
7
100
AcDbText
10
1291.691
20
1286.970
30
0.0
40
9.750
41
0.800
50
0.000
1
30
100
AcDbText
0
TEXT
5
f8b
100
AcDbEntity
8
0-2
62
7
100
AcDbText
10
717.764
20
691.689
30
0.0
40
9.750
41
0.800
50
0.000
1
15
100
AcDbText
0
TEXT
5
f8c
100
AcDbEntity
8
0-2
62
7
100
AcDbText
10
1169.566
20
691.689
30
0.0
40
9.750
41
0.800
50
0.000
1
310
100
AcDbText
0
TEXT
5
f8d
100
AcDbEntity
8
0-2
62
7
100
AcDbText
10
1042.691
20
728.500
30
0.0
40
9.750
41
0.800
50
0.000
1
50
100
AcDbText
0
TEXT
5
f8e
100
AcDbEntity
8
0-2
62
7
100
AcDbText
10
1124.566
20
728.500
30
0.0
40
9.750
41
0.800
50
0.000
1
120
100
AcDbText
0
TEXT
5
f8f
100
AcDbEntity
8
0-2
62
7
100
AcDbText
10
1254.566
20
728.500
30
0.0
40
9.750
41
0.800
50
0.000
1
140
100
AcDbText
0
TEXT
5
f90
100
AcDbEntity
8
0-2
62
7
100
AcDbText
10
1169.566
20
165.492
30
0.0
40
9.750
41
0.800
50
0.000
1
310
100
AcDbText
0
TEXT
5
f91
100
AcDbEntity
8
0-2
62
7
100
AcDbText
10
1194.566
20
232.712
30
0.0
40
9.750
41
0.800
50
0.000
1
260
100
AcDbText
0
TEXT
5
f92
100
AcDbEntity
8
0-2
62
7
100
AcDbText
10
1042.691
20
232.712
30
0.0
40
9.750
41
0.800
50
0.000
1
50
100
AcDbText
0
TEXT
5
f93
100
AcDbEntity
8
0-2
62
7
100
AcDbText
10
1570.473
20
985.237
30
0.0
40
9.750
41
0.800
50
90.000
1
310
100
AcDbText
0
TEXT
5
f94
100
AcDbEntity
8
0-2
62
7
100
AcDbText
10
1497.500
20
1118.362
30
0.0
40
9.750
41
0.800
50
90.000
1
50
100
AcDbText
0
TEXT
5
f95
100
AcDbEntity
8
0-2
62
7
100
AcDbText
10
1497.500
20
960.237
30
0.0
40
9.750
41
0.800
50
90.000
1
260
100
AcDbText
0
TEXT
5
f96
100
AcDbEntity
8
0-1
62
7
100
AcDbText
10
688.350
20
589.987
30
0.0
40
9.750
41
0.800
50
0.000
1
260
100
AcDbText
0
TEXT
5
f97
100
AcDbEntity
8
0-1
62
7
100
AcDbText
10
428.350
20
589.987
30
0.0
40
9.750
41
0.800
50
0.000
1
260
100
AcDbText
0
TEXT
5
f98
100
AcDbEntity
8
0-2
62
7
100
AcDbText
10
265.068
20
985.237
30
0.0
40
9.750
41
0.800
50
90.000
1
310
100
AcDbText
0
TEXT
5
f99
100
AcDbEntity
8
0-2
62
7
100
AcDbText
10
1764.230
20
1332.230
30
0.0
40
9.750
41
0.800
50
0.000
1
30
100
AcDbText
0
TEXT
5
f9a
100
AcDbEntity
8
0-2
62
7
100
AcDbText
10
1768.980
20
691.689
30
0.0
40
9.750
41
0.800
50
0.000
1
15
100
AcDbText
0
POINT
5
f9b
8
0-2
62
  7
10
713.514
20
1329.730
30
0.0
0
POINT
5
f9c
8
0-2
62
  7
10
744.013
20
1329.730
30
0.0
0
POINT
5
f9d
8
0-2
62
  7
10
1002.941
20
1329.730
30
0.0
0
POINT
5
f9e
8
0-2
62
  7
10
1312.941
20
1329.730
30
0.0
0
POINT
5
f9f
8
0-2
62
  7
10
1002.941
20
1284.470
30
0.0
0
POINT
5
fa0
8
0-2
62
  7
10
1212.941
20
1284.470
30
0.0
0
POINT
5
fa1
8
0-2
62
  7
10
1282.941
20
1284.470
30
0.0
0
POINT
5
fa2
8
0-2
62
  7
10
1312.941
20
1284.470
30
0.0
0
POINT
5
fa3
8
0-2
62
  7
10
716.513
20
689.189
30
0.0
0
POINT
5
fa4
8
0-2
62
  7
10
731.513
20
689.189
30
0.0
0
POINT
5
fa5
8
0-2
62
  7
10
1023.941
20
689.189
30
0.0
0
POINT
5
fa6
8
0-2
62
  7
10
1333.941
20
689.189
30
0.0
0
POINT
5
fa7
8
0-2
62
  7
10
1023.941
20
726.000
30
0.0
0
POINT
5
fa8
8
0-2
62
  7
10
1073.941
20
726.000
30
0.0
0
POINT
5
fa9
8
0-2
62
  7
10
1193.941
20
726.000
30
0.0
0
POINT
5
faa
8
0-2
62
  7
10
1333.942
20
726.000
30
0.0
0
POINT
5
fab
8
0-2
62
  7
10
1023.941
20
162.992
30
0.0
0
POINT
5
fac
8
0-2
62
  7
10
1333.941
20
162.992
30
0.0
0
POINT
5
fad
8
0-2
62
  7
10
1333.941
20
230.212
30
0.0
0
POINT
5
fae
8
0-2
62
  7
10
1073.941
20
230.212
30
0.0
0
POINT
5
faf
8
0-2
62
  7
10
1023.941
20
230.212
30
0.0
0
POINT
5
fb0
8
0-2
62
  7
10
1572.973
20
1149.612
30
0.0
0
POINT
5
fb1
8
0-2
62
  7
10
1572.973
20
839.612
30
0.0
0
POINT
5
fb2
8
0-2
62
  7
10
1500.000
20
1149.612
30
0.0
0
POINT
5
fb3
8
0-2
62
  7
10
1500.000
20
1099.612
30
0.0
0
POINT
5
fb4
8
0-2
62
  7
10
1500.000
20
839.612
30
0.0
0
POINT
5
fb5
8
0-1
62
  7
10
827.725
20
587.487
30
0.0
0
POINT
5
fb6
8
0-1
62
  7
10
567.725
20
587.487
30
0.0
0
POINT
5
fb7
8
0-1
62
  7
10
307.725
20
587.487
30
0.0
0
POINT
5
fb8
8
0-2
62
  7
10
267.568
20
1149.612
30
0.0
0
POINT
5
fb9
8
0-2
62
  7
10
267.568
20
839.612
30
0.0
0
POINT
5
fba
8
0-2
62
  7
10
1785.730
20
1329.730
30
0.0
0
POINT
5
fbb
8
0-2
62
  7
10
1755.230
20
1329.730
30
0.0
0
POINT
5
fbc
8
0-2
62
  7
10
1782.730
20
689.189
30
0.0
0
POINT
5
fbd
8
0-2
62
  7
10
1767.730
20
689.189
30
0.0
0
ENDSEC
0
EOF
