0
SECTION
2
HEADER
  9
$EXTMIN
10
0
20
0
30
0
  9
$EXTMAX
10
2659.772
20
1332.230
30
0
  9
$LTSCALE
40
5.000
  9
$DIMSCALE
40
5.000
  9
$PDMODE
70
0
  9
$PDSIZE
40
40
0
ENDSEC
0
SECTION
2
TABLES
0
TABLE
2
LTYPE
70
9
0
LTYPE
5
1f4
2
CONTINUOUS
70
0
3
実線
72
65
73
0
40
0.0
0
LTYPE
5
1f5
2
DOT
70
0
3
--  --  --  --  --  --  --  --     
72
65
73
2
40
5.000
49
1.000
49
-4.000
0
LTYPE
5
1f6
2
DASHED
70
0
3
----    ----    ----    ----    
72
65
73
2
40
5.000
49
2.000
49
-3.000
0
LTYPE
5
1f7
2
DASHED2
70
0
3
------  ------  ------  ------ 
72
65
73
2
40
10.000
49
4.000
49
-6.000
0
LTYPE
5
1f8
2
CENTER
70
0
3
----- - ----- - ----- - ----- - 
72
65
73
4
40
9.000
49
6.000
49
-1.000
49
1.000
49
-1.000
0
LTYPE
5
1f9
2
CENTER2
70
0
3
----------  --  ----------  -- 
72
65
73
4
40
18.000
49
12.000
49
-2.000
49
2.000
49
-2.000
0
LTYPE
5
1fa
2
PHANTOM
70
0
3
--- - - --- - - --- - - --- - -
72
65
73
6
40
10.000
49
5.000
49
-1.000
49
1.000
49
-1.000
49
1.000
49
-1.000
0
LTYPE
5
1fb
2
PHANTOM2
70
0
3
--------  -  -  --------  -  -
72
65
73
6
40
16.000
49
6.000
49
-2.000
49
2.000
49
-2.000
49
2.000
49
-2.000
0
LTYPE
5
1fc
2
HIDDEN
70
0
3
-   -   -   -   -   -   -   -   
72
65
73
2
40
2.500
49
0.500
49
-2.000
0
ENDTAB
0
TABLE
2
STYLE
70
1
0
STYLE
5
1fd
100
AcDbSymbolTableRecord
100
AcDbTextStyleTableRecord
2
STANDARD
70
0
40
0.0
41
1.0
50
0.0
71
0
42
0.0
3
txt.shx
4
extfont.shx
0
STYLE
5
1fe
100
AcDbSymbolTableRecord
100
AcDbTextStyleTableRecord
2
TATEGAKI
70
4
40
0.0
41
1.0
50
0.0
71
0
42
0.0
3
txt.shx
4
extfont.shx
0
STYLE
5
1ff
100
AcDbSymbolTableRecord
100
AcDbTextStyleTableRecord
2
MT
70
0
40
0.0
41
1.0
50
0.0
71
0
42
0.0
3
MS Mincho
4

0
STYLE
5
200
100
AcDbSymbolTableRecord
100
AcDbTextStyleTableRecord
2
TMT
70
4
40
0.0
41
1.0
50
0.0
71
0
42
0.0
3
@MS Mincho
4

0
ENDTAB
0
TABLE
2
LAYER
5
1f882
100
AcDbSymbolTable
70
10
0
LAYER
5
1f883
100
AcDbSymbolTableRecord
100
AcDbLayerTableRecord
2
0
70
64
62
  7
  6
CONTINUOUS
0
LAYER
5
1f884
100
AcDbSymbolTableRecord
100
AcDbLayerTableRecord
2
0-0
70
64
62
  7
  6
CONTINUOUS
0
LAYER
5
1f885
100
AcDbSymbolTableRecord
100
AcDbLayerTableRecord
2
0-1
70
64
62
  7
  6
CONTINUOUS
0
LAYER
5
1f886
100
AcDbSymbolTableRecord
100
AcDbLayerTableRecord
2
0-2
70
64
62
  7
  6
CONTINUOUS
0
LAYER
5
1f887
100
AcDbSymbolTableRecord
100
AcDbLayerTableRecord
2
ADD_LINE
70
64
62
  -7
  6
CONTINUOUS
0
ENDTAB
0
ENDSEC
0
SECTION
2
ENTITIES
0
LINE
5
1f888
8
ADD_LINE
6
HIDDEN
62
  3
10
1220.270
20
958.243
30
0.0
11
239.189
21
958.243
31
0.0
0
LINE
5
1f889
8
0-0
6
CONTINUOUS
62
  7
10
710.135
20
1068.243
30
0.0
11
710.135
21
848.243
31
0.0
0
LINE
5
1f88a
8
ADD_LINE
6
HIDDEN
62
  3
10
320.270
20
1281.081
30
0.0
11
320.270
21
652.703
31
0.0
0
LINE
5
1f88b
8
ADD_LINE
6
HIDDEN
62
  3
10
239.189
20
958.243
30
0.0
11
81.081
21
958.243
31
0.0
0
LINE
5
1f88c
8
0-0
6
CONTINUOUS
62
  7
10
728.135
20
502.946
30
0.0
11
728.135
21
380.946
31
0.0
0
LINE
5
1f88d
8
0-0
6
CONTINUOUS
62
  7
10
710.135
20
380.946
30
0.0
11
728.135
21
380.946
31
0.0
0
LINE
5
1f88e
8
0-0
6
CONTINUOUS
62
  7
10
710.135
20
600.946
30
0.0
11
710.135
21
380.946
31
0.0
0
LINE
5
1f88f
8
0-0
6
CONTINUOUS
62
  7
10
724.486
20
380.946
30
0.0
11
728.135
21
380.946
31
0.0
0
LINE
5
1f890
8
0-2
6
CONTINUOUS
62
  7
10
210.270
20
1329.730
30
0.0
11
430.270
21
1329.730
31
0.0
0
LINE
5
1f891
8
0-2
6
CONTINUOUS
62
  7
10
210.270
20
1151.351
30
0.0
11
210.270
21
1329.730
31
0.0
0
LINE
5
1f892
8
0-2
6
CONTINUOUS
62
  7
10
430.270
20
1151.351
30
0.0
11
430.270
21
1329.730
31
0.0
0
LINE
5
1f893
8
0-2
6
CONTINUOUS
62
  7
10
539.189
20
1068.243
30
0.0
11
539.189
21
848.243
31
0.0
0
LINE
5
1f894
8
0-2
6
CONTINUOUS
62
  7
10
620.270
20
1068.243
30
0.0
11
539.189
21
1068.243
31
0.0
0
LINE
5
1f895
8
0-2
6
CONTINUOUS
62
  7
10
620.270
20
848.243
30
0.0
11
539.189
21
848.243
31
0.0
0
LINE
5
1f896
8
0-2
6
CONTINUOUS
62
  7
10
539.189
20
600.946
30
0.0
11
539.189
21
380.946
31
0.0
0
LINE
5
1f897
8
0-2
6
CONTINUOUS
62
  7
10
620.270
20
600.946
30
0.0
11
539.189
21
600.946
31
0.0
0
LINE
5
1f898
8
0-2
6
CONTINUOUS
62
  7
10
620.270
20
380.946
30
0.0
11
539.189
21
380.946
31
0.0
0
LINE
5
1f899
8
0-0
6
CONTINUOUS
62
  7
10
970.135
20
1067.951
30
0.0
11
975.135
21
1068.004
31
0.0
0
LINE
5
1f89a
8
0-0
6
CONTINUOUS
62
  7
10
970.135
20
1067.951
30
0.0
11
970.135
21
848.535
31
0.0
0
LINE
5
1f89b
8
0-0
6
CONTINUOUS
62
  7
10
970.135
20
848.535
30
0.0
11
975.135
21
848.483
31
0.0
0
LINE
5
1f89c
8
0-0
6
CONTINUOUS
62
  7
10
975.135
20
1068.004
30
0.0
11
975.135
21
848.483
31
0.0
0
LINE
5
1f89d
8
0-0
6
CONTINUOUS
62
  7
10
728.135
20
502.946
30
0.0
11
985.135
21
502.946
31
0.0
0
LINE
5
1f89e
8
0-0
6
CONTINUOUS
62
  7
10
985.135
20
595.946
30
0.0
11
985.135
21
502.946
31
0.0
0
LINE
5
1f89f
8
0-0
6
CONTINUOUS
62
  7
10
725.135
20
595.946
30
0.0
11
970.135
21
595.946
31
0.0
0
LINE
5
1f8a0
8
0-0
6
CONTINUOUS
62
  7
10
975.135
20
595.946
30
0.0
11
985.135
21
595.946
31
0.0
0
LINE
5
1f8a1
8
0-0
6
CONTINUOUS
62
  7
10
970.135
20
595.946
30
0.0
11
970.135
21
509.796
31
0.0
0
LINE
5
1f8a2
8
0-0
6
CONTINUOUS
62
  7
10
975.135
20
595.946
30
0.0
11
975.135
21
509.796
31
0.0
0
LINE
5
1f8a3
8
0-2
6
CONTINUOUS
62
  7
10
685.135
20
1329.730
30
0.0
11
985.135
21
1329.730
31
0.0
0
LINE
5
1f8a4
8
0-2
6
CONTINUOUS
62
  7
10
685.135
20
1151.351
30
0.0
11
685.135
21
1329.730
31
0.0
0
LINE
5
1f8a5
8
0-2
6
CONTINUOUS
62
  7
10
985.135
20
1151.351
30
0.0
11
985.135
21
1329.730
31
0.0
0
LINE
5
1f8a6
8
0-2
6
CONTINUOUS
62
  7
10
685.135
20
1264.865
30
0.0
11
710.135
21
1264.865
31
0.0
0
LINE
5
1f8a7
8
0-2
6
CONTINUOUS
62
  7
10
685.135
20
1151.351
30
0.0
11
685.135
21
1264.865
31
0.0
0
LINE
5
1f8a8
8
0-2
6
CONTINUOUS
62
  7
10
710.135
20
1151.351
30
0.0
11
710.135
21
1264.865
31
0.0
0
LINE
5
1f8a9
8
0-2
6
CONTINUOUS
62
  7
10
710.135
20
1264.865
30
0.0
11
985.135
21
1264.865
31
0.0
0
LINE
5
1f8aa
8
0-2
6
CONTINUOUS
62
  7
10
985.135
20
1151.351
30
0.0
11
985.135
21
1264.865
31
0.0
0
LINE
5
1f8ab
8
0-2
6
CONTINUOUS
62
  7
10
685.135
20
194.595
30
0.0
11
710.135
21
194.595
31
0.0
0
LINE
5
1f8ac
8
0-2
6
CONTINUOUS
62
  7
10
685.135
20
328.378
30
0.0
11
685.135
21
194.595
31
0.0
0
LINE
5
1f8ad
8
0-2
6
CONTINUOUS
62
  7
10
710.135
20
328.378
30
0.0
11
710.135
21
194.595
31
0.0
0
LINE
5
1f8ae
8
0-2
6
CONTINUOUS
62
  7
10
710.135
20
194.595
30
0.0
11
728.135
21
194.595
31
0.0
0
LINE
5
1f8af
8
0-2
6
CONTINUOUS
62
  7
10
728.135
20
328.378
30
0.0
11
728.135
21
194.595
31
0.0
0
LINE
5
1f8b0
8
0-2
6
CONTINUOUS
62
  7
10
728.135
20
194.595
30
0.0
11
985.135
21
194.595
31
0.0
0
LINE
5
1f8b1
8
0-2
6
CONTINUOUS
62
  7
10
985.135
20
328.378
30
0.0
11
985.135
21
194.595
31
0.0
0
LINE
5
1f8b2
8
0-0
6
CONTINUOUS
62
  7
10
985.135
20
1073.243
30
0.0
11
985.135
21
843.243
31
0.0
0
LINE
5
1f8b3
8
0-2
6
CONTINUOUS
62
  7
10
710.135
20
1068.243
30
0.0
11
985.135
21
1073.243
31
0.0
0
LINE
5
1f8b4
8
0-2
6
CONTINUOUS
62
  7
10
710.135
20
848.243
30
0.0
11
985.135
21
843.243
31
0.0
0
LINE
5
1f8b5
8
0-2
6
CONTINUOUS
62
  7
10
1348.803
20
1073.243
30
0.0
11
1340.803
21
1049.178
31
0.0
0
LINE
5
1f8b6
8
0-2
6
CONTINUOUS
62
  7
10
1340.803
20
867.309
30
0.0
11
1348.803
21
843.243
31
0.0
0
LINE
5
1f8b7
8
ADD_LINE
6
HIDDEN
62
  3
10
1220.270
20
958.243
30
0.0
11
1394.595
21
958.243
31
0.0
0
LINE
5
1f8b8
8
ADD_LINE
6
HIDDEN
62
  3
10
985.135
20
502.946
30
0.0
11
985.135
21
495.484
31
0.0
0
LINE
5
1f8b9
8
ADD_LINE
6
HIDDEN
62
  3
10
985.135
20
502.946
30
0.0
11
992.308
21
502.946
31
0.0
0
LINE
5
1f8ba
8
ADD_LINE
6
HIDDEN
62
  3
10
1348.803
20
1073.243
30
0.0
11
1348.803
21
843.243
31
0.0
0
LINE
5
1f8bb
8
0-2
6
CONTINUOUS
62
  7
10
1255.803
20
1329.730
30
0.0
11
1348.803
21
1329.730
31
0.0
0
LINE
5
1f8bc
8
0-2
6
CONTINUOUS
62
  7
10
1255.803
20
1151.351
30
0.0
11
1255.803
21
1329.730
31
0.0
0
LINE
5
1f8bd
8
0-2
6
CONTINUOUS
62
  7
10
1348.803
20
1151.351
30
0.0
11
1348.803
21
1329.730
31
0.0
0
LINE
5
1f8be
8
0-2
6
CONTINUOUS
62
  7
10
1139.189
20
1073.243
30
0.0
11
1139.189
21
843.243
31
0.0
0
LINE
5
1f8bf
8
0-2
6
CONTINUOUS
62
  7
10
1041.892
20
1073.243
30
0.0
11
1139.189
21
1073.243
31
0.0
0
LINE
5
1f8c0
8
0-2
6
CONTINUOUS
62
  7
10
1041.892
20
843.243
30
0.0
11
1139.189
21
843.243
31
0.0
0
LINE
5
1f8c1
8
0-2
6
CONTINUOUS
62
  7
10
1139.189
20
595.946
30
0.0
11
1139.189
21
502.946
31
0.0
0
LINE
5
1f8c2
8
0-2
6
CONTINUOUS
62
  7
10
1041.892
20
595.946
30
0.0
11
1139.189
21
595.946
31
0.0
0
LINE
5
1f8c3
8
0-2
6
CONTINUOUS
62
  7
10
1041.892
20
502.946
30
0.0
11
1139.189
21
502.946
31
0.0
0
ARC
5
1f8c4
8
0-0
6
CONTINUOUS
62
  7
10
939.635
20
958.243
30
0.0
40
254.500
50
154.391449
51
205.608551
0
CIRCLE
5
1f8c5
8
0-0
6
CONTINUOUS
62
  7
10
320.270
20
958.243
30
0.0
40
110.000
0
ARC
5
1f8c6
8
0-0
6
CONTINUOUS
62
  7
10
939.635
20
490.946
30
0.0
40
254.500
50
154.391449
51
205.608551
0
ARC
5
1f8c7
8
0-0
6
CONTINUOUS
62
  7
10
727.504
20
628.051
30
0.0
40
32.192
50
237.349121
51
265.780884
0
CIRCLE
5
1f8c8
8
ADD_LINE
6
HIDDEN
62
  3
10
710.135
20
958.243
30
0.0
40
3.000
0
ARC
5
1f8c9
8
0-0
6
CONTINUOUS
62
  7
10
972.635
20
595.946
30
0.0
40
2.500
50
180.000000
51
0.000000
0
ARC
5
1f8ca
8
0-0
6
CONTINUOUS
62
  7
10
972.635
20
510.560
30
0.0
40
2.614
50
196.995728
51
343.004272
0
CIRCLE
5
1f8cb
8
0-0
6
CONTINUOUS
62
  7
10
865.135
20
958.243
30
0.0
40
3.000
0
CIRCLE
5
1f8cc
8
0-0
6
CONTINUOUS
62
  7
10
825.135
20
958.243
30
0.0
40
3.000
0
ARC
5
1f8cd
8
0-2
6
CONTINUOUS
62
  7
10
1373.405
20
958.243
30
0.0
40
117.602
50
102.075394
51
257.924622
0
ARC
5
1f8ce
8
0-2
6
CONTINUOUS
62
  7
10
1373.405
20
958.243
30
0.0
40
96.602
50
109.723984
51
250.276031
0
CIRCLE
5
1f8cf
8
ADD_LINE
6
HIDDEN
62
  3
10
985.135
20
502.946
30
0.0
40
3.000
0
TEXT
5
1f8d0
100
AcDbEntity
8
0-2
62
7
100
AcDbText
10
310.895
20
1332.230
30
0.0
40
9.750
41
0.800
50
0.000
1
220
100
AcDbText
0
TEXT
5
1f8d1
100
AcDbEntity
8
0-2
62
7
100
AcDbText
10
536.689
20
948.868
30
0.0
40
9.750
41
0.800
50
90.000
1
220
100
AcDbText
0
TEXT
5
1f8d2
100
AcDbEntity
8
0-2
62
7
100
AcDbText
10
536.689
20
481.571
30
0.0
40
9.750
41
0.800
50
90.000
1
220
100
AcDbText
0
TEXT
5
1f8d3
100
AcDbEntity
8
0-2
62
7
100
AcDbText
10
825.760
20
1332.230
30
0.0
40
9.750
41
0.800
50
0.000
1
300
100
AcDbText
0
TEXT
5
1f8d4
100
AcDbEntity
8
0-2
62
7
100
AcDbText
10
691.385
20
1267.365
30
0.0
40
9.750
41
0.800
50
0.000
1
25
100
AcDbText
0
TEXT
5
1f8d5
100
AcDbEntity
8
0-2
62
7
100
AcDbText
10
838.260
20
1267.365
30
0.0
40
9.750
41
0.800
50
0.000
1
275
100
AcDbText
0
TEXT
5
1f8d6
100
AcDbEntity
8
0-2
62
7
100
AcDbText
10
691.385
20
197.095
30
0.0
40
9.750
41
0.800
50
0.000
1
25
100
AcDbText
0
TEXT
5
1f8d7
100
AcDbEntity
8
0-2
62
7
100
AcDbText
10
712.885
20
197.095
30
0.0
40
9.750
41
0.800
50
0.000
1
18
100
AcDbText
0
TEXT
5
1f8d8
100
AcDbEntity
8
0-2
62
7
100
AcDbText
10
847.260
20
197.095
30
0.0
40
9.750
41
0.800
50
0.000
1
257
100
AcDbText
0
TEXT
5
1f8d9
100
AcDbEntity
8
0-2
62
7
100
AcDbText
10
1296.053
20
1332.230
30
0.0
40
9.750
41
0.800
50
0.000
1
93
100
AcDbText
0
TEXT
5
1f8da
100
AcDbEntity
8
0-2
62
7
100
AcDbText
10
1136.689
20
948.868
30
0.0
40
9.750
41
0.800
50
90.000
1
230
100
AcDbText
0
TEXT
5
1f8db
100
AcDbEntity
8
0-2
62
7
100
AcDbText
10
1136.689
20
543.196
30
0.0
40
9.750
41
0.800
50
90.000
1
93
100
AcDbText
0
POINT
5
1f8dc
8
0-2
62
  7
10
210.270
20
1329.730
30
0.0
0
POINT
5
1f8dd
8
0-2
62
  7
10
430.270
20
1329.730
30
0.0
0
POINT
5
1f8de
8
0-2
62
  7
10
539.189
20
1068.243
30
0.0
0
POINT
5
1f8df
8
0-2
62
  7
10
539.189
20
848.243
30
0.0
0
POINT
5
1f8e0
8
0-2
62
  7
10
539.189
20
600.946
30
0.0
0
POINT
5
1f8e1
8
0-2
62
  7
10
539.189
20
380.946
30
0.0
0
POINT
5
1f8e2
8
0-2
62
  7
10
685.135
20
1329.730
30
0.0
0
POINT
5
1f8e3
8
0-2
62
  7
10
985.135
20
1329.730
30
0.0
0
POINT
5
1f8e4
8
0-2
62
  7
10
685.135
20
1264.865
30
0.0
0
POINT
5
1f8e5
8
0-2
62
  7
10
710.135
20
1264.865
30
0.0
0
POINT
5
1f8e6
8
0-2
62
  7
10
985.135
20
1264.865
30
0.0
0
POINT
5
1f8e7
8
0-2
62
  7
10
685.135
20
194.595
30
0.0
0
POINT
5
1f8e8
8
0-2
62
  7
10
710.135
20
194.595
30
0.0
0
POINT
5
1f8e9
8
0-2
62
  7
10
728.135
20
194.595
30
0.0
0
POINT
5
1f8ea
8
0-2
62
  7
10
985.135
20
194.595
30
0.0
0
POINT
5
1f8eb
8
0-2
62
  7
10
1255.803
20
1329.730
30
0.0
0
POINT
5
1f8ec
8
0-2
62
  7
10
1348.803
20
1329.730
30
0.0
0
POINT
5
1f8ed
8
0-2
62
  7
10
1139.189
20
1073.243
30
0.0
0
POINT
5
1f8ee
8
0-2
62
  7
10
1139.189
20
843.243
30
0.0
0
POINT
5
1f8ef
8
0-2
62
  7
10
1139.189
20
595.946
30
0.0
0
POINT
5
1f8f0
8
0-2
62
  7
10
1139.189
20
502.946
30
0.0
0
ENDSEC
0
EOF
