  0
SECTION
  2
HEADER
  9
$ACADVER
  1
AC1009
  9
$INSBASE
 10
0
 20
0
 30
0
  9
$EXTMIN
 10
0
 20
0
  9
$EXTMAX
 10
420
 20
297
  9
$LIMMIN
 10
0
 20
0
  9
$LIMMAX
 10
420
 20
297
  9
$LTSCALE
 40
1
  0
ENDSEC
  0
SECTION
  2
TABLES
  0
TABLE
  2
LTYPE
 70
     9
  0
LTYPE
  2
CONTINUOUS
 70
    64
  3
実線
 72
    65
 73
     0
 40
0.0
  0
LTYPE
  2
DASHED1
 70
    64
  3
--  --  --  --  --  --  --  --  
 72
    65
 73
     2
 40
2.5
 49
1.25
 49
-1.25
  0
LTYPE
  2
DASHED2
 70
    64
  3
----    ----    ----    ----    
 72
    65
 73
     2
 40
5.0
 49
2.5
 49
-2.5
  0
LTYPE
  2
DASHED3
 70
    64
  3
------  ------  ------  ------  
 72
    65
 73
     2
 40
5.0
 49
3.75
 49
-1.25
  0
LTYPE
  2
CENTER1
 70
    64
  3
----- - ----- - ----- - ----- - 
 72
    65
 73
     4
 40
10.0
 49
6.25
 49
-1.25
 49
1.25
 49
-1.25
  0
LTYPE
  2
CENTER2
 70
    64
  3
----------  --  ----------  --  
 72
    65
 73
     4
 40
20.0
 49
12.5
 49
-2.5
 49
2.5
 49
-2.5
  0
LTYPE
  2
PHANTOM1
 70
    64
  3
--- - - --- - - --- - - --- - - 
 72
    65
 73
     6
 40
10.0
 49
3.25
 49
-1.25
 49
1.25
 49
-1.25
 49
1.25
 49
-1.25
  0
LTYPE
  2
PHANTOM2
 70
    64
  3
--------  -  -  --------  -  -  
 72
    65
 73
     6
 40
20.0
 49
10.0
 49
-2.5
 49
1.25
 49
-2.5
 49
1.25
 49
-2.5
  0
LTYPE
  2
DOT
 70
    64
  3
-   -   -   -   -   -   -   -   
 72
    65
 73
     2
 40
2.5
 49
0.625
 49
-1.875
  0
LTYPE
  2
DUMMY
 70
    64
  3
ダミー
 72
    65
 73
     0
 40
0.0
  0
LTYPE
  2
RAND1
 70
    64
  3
ランダム線1
 72
    65
 73
     4
 40
10.0
 49
1.0
 49
-2.0
 49
3.0
 49
-4.0
  0
LTYPE
  2
RAND2
 70
    64
  3
ランダム線2
 72
    65
 73
     4
 40
14.0
 49
2.0
 49
-3.0
 49
4.0
 49
-5.0
  0
LTYPE
  2
RAND3
 70
    64
  3
ランダム線3
 72
    65
 73
     4
 40
18.0
 49
3.0
 49
-4.0
 49
5.0
 49
-6.0
  0
LTYPE
  2
RAND4
 70
    64
  3
ランダム線4
 72
    65
 73
     4
 40
22.0
 49
4.0
 49
-5.0
 49
6.0
 49
-7.0
  0
LTYPE
  2
RAND5
 70
    64
  3
ランダム線5
 72
    65
 73
     4
 40
26.0
 49
5.0
 49
-6.0
 49
7.0
 49
-8.0
  0
LTYPE
  2
LONG1
 70
    64
  3
----------  --  ----------  --  
 72
    65
 73
     4
 40
40.0
 49
32.5
 49
-2.5
 49
2.5
 49
-2.5
  0
LTYPE
  2
LONG2
 70
    64
  3
--------  -  -  --------  -  -  
 72
    65
 73
     6
 40
40.0
 49
30.0
 49
-2.5
 49
1.25
 49
-2.5
 49
1.25
 49
-2.5
  0
LTYPE
  2
LONG3
 70
    64
  3
+++++++++++++++..+++++++++++++++
 72
    65
 73
     2
 40
40.0
 49
37.5
 49
-2.5
  0
LTYPE
  2
LONG4
 70
    64
  3
+++++++++++++++..+++++++++++++++
 72
    65
 73
     2
 40
80.0
 49
75.0
 49
-5.0
  0
LTYPE
  2
LONG5
 70
    64
  3
----------  --  ----------  --  
 72
    65
 73
     4
 40
60.0
 49
37.5
 49
-7.5
 49
7.5
 49
-7.5
  0
LTYPE
  2
dashed
 70
   64
  3
-------   -------------   ------
 72
   65
 73
    2
 40
7.5
 49
6
 49
-1.5
  0
LTYPE
  2
dashed_spaced
 70
   64
  3
----        --------        ----
 72
   65
 73
    2
 40
12
 49
6
 49
-6
  0
LTYPE
  2
long_dashed_dotted
 70
   64
  3
------------- --- --------------
 72
   65
 73
    4
 40
15.25
 49
12
 49
-1.5
 49
0.25
 49
-1.5
  0
LTYPE
  2
long_dashed_double-dotted
 70
   64
  3
----------- --- --- ------------
 72
   65
 73
    6
 40
17
 49
12
 49
-1.5
 49
0.25
 49
-1.5
 49
0.25
 49
-1.5
  0
LTYPE
  2
long_dashed_triplicate-dotted
 70
   64
  3
--------- --- --- --- ----------
 72
   65
 73
    8
 40
18.75
 49
12
 49
-1.5
 49
0.25
 49
-1.5
 49
0.25
 49
-1.5
 49
0.25
 49
-1.5
  0
LTYPE
  2
dotted
 70
   64
  3
   -       -       -       -    
 72
   65
 73
    2
 40
1.75
 49
0.25
 49
-1.5
  0
LTYPE
  2
chain
 70
   64
  3
-------------- -- --------------
 72
   65
 73
    4
 40
18.5
 49
12
 49
-1.5
 49
3.5
 49
-1.5
  0
LTYPE
  2
chain_double_dash
 70
   64
  3
------------ -- -- -------------
 72
   65
 73
    6
 40
23.5
 49
12
 49
-1.5
 49
3.5
 49
-1.5
 49
3.5
 49
-1.5
  0
LTYPE
  2
dashed_dotted
 70
   64
  3
-----------     -     ----------
 72
   65
 73
    4
 40
9.25
 49
6
 49
-1.5
 49
0.25
 49
-1.5
  0
LTYPE
  2
double-dashed_dotted
 70
   64
  3
------   -----------   -   -----
 72
   65
 73
    6
 40
16.75
 49
6
 49
-1.5
 49
6
 49
-1.5
 49
0.25
 49
-1.5
  0
LTYPE
  2
dashed_double-dotted
 70
   64
  3
---------    -    -    ---------
 72
   65
 73
    6
 40
11
 49
6
 49
-1.5
 49
0.25
 49
-1.5
 49
0.25
 49
-1.5
  0
LTYPE
  2
double-dashed_double-dotted
 70
   64
  3
-----   ---------   -   -   ----
 72
   65
 73
    8
 40
18.5
 49
6
 49
-1.5
 49
6
 49
-1.5
 49
0.25
 49
-1.5
 49
0.25
 49
-1.5
  0
LTYPE
  2
dashed_triplicate-dotted
 70
   64
  3
-------    -    -    -    ------
 72
   65
 73
    8
 40
12.75
 49
6
 49
-1.5
 49
0.25
 49
-1.5
 49
0.25
 49
-1.5
 49
0.25
 49
-1.5
  0
LTYPE
  2
double-dashed_triplicate-dotted
 70
   64
  3
-----  ---------  -  -  -  -----
 72
   65
 73
   10
 40
20.25
 49
6
 49
-1.5
 49
6
 49
-1.5
 49
0.25
 49
-1.5
 49
0.25
 49
-1.5
 49
0.25
 49
-1.5
  0
LTYPE
  2
undefined
 70
   64
  3
--------------------------------
 72
   65
 73
    0
 40
0
  0
ENDTAB
  0
TABLE
  2
STYLE
  5
3
100
AcDbSymbolTable
 70
     1
  0
STYLE
  5
10
100
AcDbSymbolTableRecord
100
AcDbTextStyleTableRecord
  2
STANDARD
 70
     0
 40
0.0
 41
1.0
 50
0.0
 71
     0
 42
0.2
  3
txt
  4
bigfont.shx
  0
STYLE
  5
26
100
AcDbSymbolTableRecord
100
AcDbTextStyleTableRecord
  2
TATEGAKI
 70
    68
 40
0.0
 41
1.0
 50
0.0
 71
     0
 42
1.0
  3
txt
  4
bigfont.shx
  0
ENDTAB
  0
TABLE
  2
LAYER
 70
    7
  0
LAYER
  2
_0-0_
 70
   64
 62
    7
  6
CONTINUOUS
  0
LAYER
  2
_1-0_
 70
   64
 62
    7
  6
CONTINUOUS
  0
LAYER
  2
_1-1_
 70
   64
 62
    7
  6
CONTINUOUS
  0
LAYER
  2
_1-2_
 70
   64
 62
    7
  6
CONTINUOUS
  0
LAYER
  2
_1-3_
 70
   64
 62
    7
  6
CONTINUOUS
  0
LAYER
  2
_1-4_
 70
   64
 62
    7
  6
CONTINUOUS
  0
LAYER
  2
ADD_LINE
 70
   64
 62
    7
  6
CONTINUOUS
  0
ENDTAB
  0
ENDSEC
  0
SECTION
  2
BLOCKS
  0
ENDSEC
  0
SECTION
  2
ENTITIES
  0
LINE
  8
_0-0_
  6
CONTINUOUS
 62
    5
 10
6.7567526327597136
 20
280.13513513513516
 11
406.75677325274495
 21
280.13513513513516
  0
LINE
  8
_0-0_
  6
CONTINUOUS
 62
    5
 10
406.75677325274495
 20
10.13513513513513
 11
6.7567526327597136
 21
10.13513513513513
  0
LINE
  8
_0-0_
  6
CONTINUOUS
 62
    5
 10
406.75677325274495
 20
30.135133073136615
 11
6.7567402607685949
 21
30.135133073136615
  0
LINE
  8
_0-0_
  6
CONTINUOUS
 62
    5
 10
371.75678150073907
 20
10.13513513513513
 11
371.75678150073907
 21
30.135133073136615
  0
LINE
  8
_0-0_
  6
CONTINUOUS
 62
    5
 10
137.02703939901818
 20
30.135133073136615
 11
137.02703939901818
 21
10.13513513513513
  0
LINE
  8
_0-0_
  6
CONTINUOUS
 62
    5
 10
214.86486486486487
 20
30.135133073136615
 11
214.86486486486487
 21
10.13513513513513
  0
LINE
  8
_0-0_
  6
CONTINUOUS
 62
    5
 10
137.02703939901818
 20
20.135134104135886
 11
214.86486486486487
 21
20.135134104135886
  0
LINE
  8
_0-0_
  6
CONTINUOUS
 62
    5
 10
396.48648648648651
 20
25.945945945945951
 11
383.91891891891896
 21
13.378379924877265
  0
LINE
  8
_1-1_
  6
CONTINUOUS
 62
    7
 10
233.31120671452703
 20
176.96651149440456
 11
232.08694870407518
 21
179.70531154323268
  0
LINE
  8
_1-1_
  6
CONTINUOUS
 62
    7
 10
232.08694870407518
 20
179.70531154323268
 11
248.519847972973
 21
187.05100806983742
  0
LINE
  8
_1-1_
  6
CONTINUOUS
 62
    7
 10
232.08694870407518
 20
179.70531154323268
 11
249.74415547138938
 21
184.31218327702703
  0
LINE
  8
_1-1_
  6
CONTINUOUS
 62
    7
 10
243.4772470835093
 20
185.86613010715794
 11
224.97122274862755
 21
236.71100513355154
  0
LINE
  8
_1-1_
  6
CONTINUOUS
 62
    7
 10
231.54362034153294
 20
181.14819500897383
 11
218.17125475084461
 21
217.88848052153716
  0
LINE
  8
_1-1_
  6
CONTINUOUS
 62
    7
 10
214.89208324535474
 20
198.35480148727831
 11
225.71091935441302
 21
168.63028861380914
  0
LINE
  8
_1-1_
  6
CONTINUOUS
 62
    7
 10
224.97122274862755
 20
236.71100513355154
 11
220.54054054054055
 21
236.71100513355154
  0
LINE
  8
_1-1_
  6
CONTINUOUS
 62
    7
 10
218.17125475084461
 20
217.88848052153716
 11
213.24324324324326
 21
217.88848052153716
  0
LINE
  8
_1-1_
  6
CONTINUOUS
 62
    7
 10
214.89208324535474
 20
198.35480148727831
 11
210.81081081081084
 21
198.35480148727831
  0
LINE
  8
ADD_LINE
  6
DOT
 62
    7
 10
253.25527706661742
 20
208.29335805532097
 11
255.78646273226352
 21
208.29335805532097
  0
LINE
  8
_1-0_
  6
CONTINUOUS
 62
    7
 10
250.19553519584039
 20
212.29337125211148
 11
254.19552364864867
 21
212.29337125211148
  0
LINE
  8
_1-0_
  6
DASHED1
 62
    7
 10
254.19552364864867
 20
212.29337125211148
 11
254.19552364864867
 21
251.33360991606844
  0
LINE
  8
_1-0_
  6
CONTINUOUS
 62
    3
 10
253.67958687447214
 20
208.29335805532097
 11
250.74460416226776
 21
208.29335805532097
  0
LINE
  8
_1-0_
  6
CONTINUOUS
 62
    3
 10
253.67958687447214
 20
212.14839626002959
 11
253.67958687447214
 21
208.29335805532097
  0
LINE
  8
ADD_LINE
  6
DOT
 62
    7
 10
253.67958687447214
 20
208.29335805532097
 11
253.67958687447214
 21
212.77125178156675
  0
LINE
  8
_1-0_
  6
CONTINUOUS
 62
    7
 10
250.77976536106419
 20
208.33953032622466
 11
250.82591288798565
 21
208.29335805532097
  0
LINE
  8
_1-0_
  6
CONTINUOUS
 62
    7
 10
251.10321869721284
 20
208.86459762985643
 11
251.67443352776607
 21
208.29335805532097
  0
LINE
  8
_1-0_
  6
CONTINUOUS
 62
    7
 10
251.33806383287586
 20
209.4782236460093
 11
252.52292942356419
 21
208.29335805532097
  0
LINE
  8
_1-0_
  6
CONTINUOUS
 62
    7
 10
251.45656276393584
 20
210.20824535472974
 11
253.37145006334461
 21
208.29335805532097
  0
LINE
  8
_1-0_
  6
CONTINUOUS
 62
    7
 10
251.37866870777029
 20
211.13466005067568
 11
253.67958687447214
 21
208.83376662795609
  0
LINE
  8
_1-0_
  6
CONTINUOUS
 62
    7
 10
251.06850289009714
 20
212.29337125211148
 11
253.67958687447214
 21
209.68228726773648
  0
LINE
  8
_1-0_
  6
CONTINUOUS
 62
    7
 10
251.91699878589529
 20
212.29337125211148
 11
253.67958687447214
 21
210.53078316353464
  0
LINE
  8
_1-0_
  6
CONTINUOUS
 62
    7
 10
252.76554416965794
 20
212.29337125211148
 11
253.67958687447214
 21
211.37930380331505
  0
LINE
  8
_1-0_
  6
CONTINUOUS
 62
    7
 10
253.61404006545609
 20
212.29337125211148
 11
253.67958687447214
 21
212.22779969911318
  0
LINE
  8
_1-0_
  6
CONTINUOUS
 62
    7
 10
253.19962785050677
 20
208.29335805532097
 11
253.67958687447214
 21
208.77334182326859
  0
LINE
  8
_1-0_
  6
CONTINUOUS
 62
    7
 10
252.35110721072635
 20
208.29335805532097
 11
253.67958687447214
 21
209.62186246304898
  0
LINE
  8
_1-0_
  6
CONTINUOUS
 62
    7
 10
251.50258657094597
 20
208.29335805532097
 11
253.67958687447214
 21
210.4703831028294
  0
LINE
  8
_1-0_
  6
CONTINUOUS
 62
    7
 10
250.95002870301943
 20
208.58934557115711
 11
253.67958687447214
 21
211.31890374260982
  0
LINE
  8
_1-0_
  6
CONTINUOUS
 62
    7
 10
251.42862680796031
 20
209.91648905986065
 11
253.67958687447214
 21
212.16742438239021
  0
LINE
  8
_1-0_
  6
CONTINUOUS
 62
    7
 10
251.43919248838685
 20
210.77557538006758
 11
252.95696361644849
 21
212.29337125211148
  0
LINE
  8
_1-0_
  6
CONTINUOUS
 62
    7
 10
251.28535915065459
 20
211.47026268211573
 11
252.1084429766681
 21
212.29337125211148
  0
LINE
  8
_1-0_
  6
CONTINUOUS
 62
    7
 10
251.02515143317146
 20
212.05857560441302
 11
251.25992233688768
 21
212.29337125211148
  0
LINE
  8
_1-0_
  6
CONTINUOUS
 62
    7
 10
251.19049072265625
 20
206.88305004222974
 11
251.19049072265625
 21
193.58416170687289
  0
LINE
  8
_1-0_
  6
CONTINUOUS
 62
    7
 10
251.19049072265625
 20
193.58416170687289
 11
253.58338227143159
 21
193.58416170687289
  0
LINE
  8
_1-0_
  6
CONTINUOUS
 62
    7
 10
253.58338227143159
 20
193.58416170687289
 11
253.58338227143159
 21
206.88305004222974
  0
LINE
  8
_1-0_
  6
CONTINUOUS
 62
    7
 10
253.58338227143159
 20
206.88305004222974
 11
251.19049072265625
 21
206.88305004222974
  0
LINE
  8
_1-0_
  6
CONTINUOUS
 62
    7
 10
251.19049072265625
 20
206.88305004222974
 11
253.58338227143159
 21
193.58416170687289
  0
LINE
  8
_1-0_
  6
CONTINUOUS
 62
    7
 10
250.19553519584039
 20
212.29337125211148
 11
250.19553519584039
 21
251.33360991606844
  0
LINE
  8
_1-0_
  6
CONTINUOUS
 62
    7
 10
284.19552364864865
 20
243.97786733266472
 11
284.19552364864865
 21
85.135135135135144
  0
LINE
  8
_1-0_
  6
CONTINUOUS
 62
    7
 10
250.19553519584039
 20
221.0647912927576
 11
280.4643538191512
 21
251.33360991606844
  0
LINE
  8
_1-0_
  6
CONTINUOUS
 62
    7
 10
250.19553519584039
 20
216.53931488861909
 11
284.19552364864865
 21
250.53930334142737
  0
LINE
  8
_1-0_
  6
CONTINUOUS
 62
    7
 10
250.19553519584039
 20
218.80205309068836
 11
282.72709202122047
 21
251.33360991606844
  0
LINE
  8
_1-1_
  6
CONTINUOUS
 62
    7
 10
249.74415547138938
 20
184.31218327702703
 11
233.31120671452703
 21
176.96651149440456
  0
LINE
  8
_1-1_
  6
CONTINUOUS
 62
    3
 10
246.52305809227198
 20
182.47055053710937
 11
247.70017881651185
 21
179.06842618375211
  0
LINE
  8
_1-1_
  6
CONTINUOUS
 62
    7
 10
248.519847972973
 20
187.05100806983742
 11
249.74415547138938
 21
184.31218327702703
  0
LINE
  8
_1-1_
  6
CONTINUOUS
 62
    3
 10
233.06745374524917
 20
175.83587234084672
 11
233.10536152607688
 21
177.02520422033362
  0
LINE
  8
_1-1_
  6
CONTINUOUS
 62
    3
 10
230.99722372519005
 20
179.86998274519638
 11
233.06745374524917
 21
175.83588471283784
  0
LINE
  8
_1-1_
  6
CONTINUOUS
 62
    7
 10
243.4772470835093
 20
185.86613010715794
 11
244.16448644689612
 21
183.9779786805849
  0
LINE
  8
_1-1_
  6
CONTINUOUS
 62
    7
 10
231.54362034153294
 20
181.14819500897383
 11
231.86727162953972
 21
180.25890865841427
  0
LINE
  8
_1-1_
  6
CONTINUOUS
 62
    7
 10
225.71091935441302
 20
168.63028861380914
 11
229.29758432749156
 21
158.77598530537375
  0
LINE
  8
_1-1_
  6
CONTINUOUS
 62
    7
 10
229.29758432749156
 20
158.77598530537375
 11
241.01123706714529
 21
163.1743147566512
  0
LINE
  8
_1-1_
  6
CONTINUOUS
 62
    7
 10
257.31346336570948
 20
208.29335805532097
 11
275.68507838893584
 21
208.29335805532097
  0
LINE
  8
_1-1_
  6
CONTINUOUS
 62
    7
 10
275.68507838893584
 20
208.29335805532097
 11
275.68507838893584
 21
212.29337125211148
  0
LINE
  8
_1-1_
  6
CONTINUOUS
 62
    7
 10
257.31346336570948
 20
212.29337125211148
 11
275.68507838893584
 21
212.29337125211148
  0
LINE
  8
_1-1_
  6
CONTINUOUS
 62
    7
 10
246.79796373521961
 20
205.58202382680534
 11
251.92424877269849
 21
210.17810718433279
  0
LINE
  8
_1-1_
  6
CONTINUOUS
 62
    7
 10
228.21978594805745
 20
244.36711491765203
 11
232.68132390202703
 21
244.36711491765203
  0
LINE
  8
_1-1_
  6
CONTINUOUS
 62
    7
 10
246.79796373521961
 20
205.58202382680534
 11
232.68132390202703
 21
244.36711491765203
  0
LINE
  8
_1-1_
  6
CONTINUOUS
 62
    7
 10
211.21077254011826
 20
205.39088893581084
 11
219.32098388671875
 21
205.39088893581084
  0
LINE
  8
_1-1_
  6
CONTINUOUS
 62
    7
 10
231.06202821473818
 20
173.13259227855787
 11
219.32098388671875
 21
205.39088893581084
  0
LINE
  8
_1-1_
  6
CONTINUOUS
 62
    3
 10
230.99722372519005
 20
179.86998274519638
 11
250.74460416226776
 21
188.69726232580237
  0
LINE
  8
_1-0_
  6
CONTINUOUS
 62
    3
 10
250.74460416226776
 20
208.29335805532097
 11
250.74460416226776
 21
188.69726232580237
  0
LINE
  8
_1-1_
  6
CONTINUOUS
 62
    7
 10
254.19552364864867
 20
210.07126266891893
 11
254.19552364864867
 21
212.29337125211148
  0
LINE
  8
_1-1_
  6
CONTINUOUS
 62
    7
 10
257.31346336570948
 20
212.29337125211148
 11
293.46343169341219
 21
212.29337125211148
  0
LINE
  8
_1-1_
  6
CONTINUOUS
 62
    7
 10
254.19552364864867
 20
152.29338362410263
 11
254.19552364864867
 21
210.07126266891893
  0
LINE
  8
_1-1_
  6
CONTINUOUS
 62
    7
 10
254.19552364864867
 20
152.29338362410263
 11
254.19552364864867
 21
141.32751877243456
  0
LINE
  8
_1-1_
  6
CONTINUOUS
 62
    7
 10
76.265809342667865
 20
61.259165583430104
 11
218.73999518317146
 21
125.37252477697425
  0
LINE
  8
_1-1_
  6
CONTINUOUS
 62
    7
 10
218.73999518317146
 20
125.37252477697425
 11
254.19552364864867
 21
141.32751877243456
  0
LINE
  8
_1-1_
  6
CONTINUOUS
 62
    7
 10
86.114563813080665
 20
39.373048318398958
 11
254.19552364864867
 21
115.00949756519215
  0
CIRCLE
  8
_1-1_
  6
CONTINUOUS
 62
    7
 10
248.90714078336151
 20
181.27154376055745
 40
0.0608883012790937
  0
CIRCLE
  8
_1-1_
  6
CONTINUOUS
 62
    7
 10
248.10729155669344
 20
180.35742682379646
 40
0.0608883012790937
  0
CIRCLE
  8
_1-1_
  6
CONTINUOUS
 62
    7
 10
241.59420528927367
 20
169.91653029983109
 40
0.0608883012790937
  0
CIRCLE
  8
_1-1_
  6
CONTINUOUS
 62
    7
 10
240.10874980204815
 20
169.57373954154352
 40
0.0608883012790937
  0
CIRCLE
  8
_1-1_
  6
CONTINUOUS
 62
    7
 10
241.02286673880914
 20
170.71637952649917
 40
0.0608883012790937
  0
CIRCLE
  8
_1-1_
  6
CONTINUOUS
 62
    7
 10
240.33728522223396
 20
171.63050883525128
 40
0.0608883012790937
  0
CIRCLE
  8
_1-1_
  6
CONTINUOUS
 62
    7
 10
240.56582064241977
 20
172.65888111011404
 40
0.0608883012790937
  0
CIRCLE
  8
_1-1_
  6
CONTINUOUS
 62
    7
 10
240.45155293232688
 20
173.68726575696792
 40
0.0608883012790937
  0
CIRCLE
  8
_1-1_
  6
CONTINUOUS
 62
    7
 10
241.59420528927367
 20
172.65888111011404
 40
0.0608883012790937
  0
CIRCLE
  8
_1-1_
  6
CONTINUOUS
 62
    7
 10
248.95425332559122
 20
181.49077544341216
 40
0.0608883012790937
  0
CIRCLE
  8
_1-1_
  6
CONTINUOUS
 62
    7
 10
247.53597775021117
 20
179.10050675675677
 40
0.0608883012790937
  0
CIRCLE
  8
_1-1_
  6
CONTINUOUS
 62
    7
 10
247.19317461993245
 20
169.4594718314506
 40
0.0608883012790937
  0
CIRCLE
  8
_1-1_
  6
CONTINUOUS
 62
    7
 10
240.04166886613177
 20
172.30536383551521
 40
0.0608883012790937
  0
CIRCLE
  8
_1-1_
  6
CONTINUOUS
 62
    7
 10
239.60300754856419
 20
172.27161304370779
 40
0.0608883012790937
  0
CIRCLE
  8
_1-1_
  6
CONTINUOUS
 62
    7
 10
239.70423518000425
 20
173.04769567541175
 40
0.0608883012790937
  0
CIRCLE
  8
_1-1_
  6
CONTINUOUS
 62
    7
 10
239.60300754856419
 20
173.41886778135557
 40
0.0608883012790937
  0
CIRCLE
  8
_1-1_
  6
CONTINUOUS
 62
    7
 10
239.53550596494935
 20
173.85751672693203
 40
0.0608883012790937
  0
CIRCLE
  8
_1-1_
  6
CONTINUOUS
 62
    7
 10
239.83921360325169
 20
173.45260620117187
 40
0.0608883012790937
  0
CIRCLE
  8
_1-1_
  6
CONTINUOUS
 62
    7
 10
240.17662254539698
 20
172.23787462389149
 40
0.0608883012790937
  0
CIRCLE
  8
_1-1_
  6
CONTINUOUS
 62
    7
 10
240.04166886613177
 20
171.7317364666913
 40
0.0608883012790937
  0
CIRCLE
  8
_1-1_
  6
CONTINUOUS
 62
    7
 10
239.83921360325169
 20
171.22559830949115
 40
0.0608883012790937
  0
CIRCLE
  8
_1-1_
  6
CONTINUOUS
 62
    7
 10
239.77171201963685
 20
170.98939225480365
 40
0.0608883012790937
  0
CIRCLE
  8
_1-1_
  6
CONTINUOUS
 62
    7
 10
239.56925675675677
 20
170.38202646616344
 40
0.0608883012790937
  0
CIRCLE
  8
_1-1_
  6
CONTINUOUS
 62
    7
 10
239.6704843881968
 20
169.80839909733953
 40
0.0608883012790937
  0
CIRCLE
  8
_1-1_
  6
CONTINUOUS
 62
    7
 10
239.50177991712417
 20
168.86361199456294
 40
0.0608883012790937
  0
CIRCLE
  8
_1-1_
  6
CONTINUOUS
 62
    7
 10
239.87293965107688
 20
168.22249541411529
 40
0.0608883012790937
  0
CIRCLE
  8
_1-1_
  6
CONTINUOUS
 62
    7
 10
239.80546281144427
 20
168.08752936285896
 40
0.0608883012790937
  0
CIRCLE
  8
_1-1_
  6
CONTINUOUS
 62
    7
 10
240.85148991765203
 20
168.39121225717906
 40
0.0608883012790937
  0
CIRCLE
  8
_1-1_
  6
CONTINUOUS
 62
    7
 10
241.39135412267737
 20
168.82987357474664
 40
0.0608883012790937
  0
CIRCLE
  8
_1-1_
  6
CONTINUOUS
 62
    7
 10
240.88521596547722
 20
169.23478410050677
 40
0.0608883012790937
  0
CIRCLE
  8
_1-1_
  6
CONTINUOUS
 62
    7
 10
241.52633254592484
 20
169.94337752058701
 40
0.0608883012790937
  0
CIRCLE
  8
_1-1_
  6
CONTINUOUS
 62
    7
 10
243.34842991184544
 20
169.43723936338682
 40
0.0608883012790937
  0
CIRCLE
  8
_1-1_
  6
CONTINUOUS
 62
    7
 10
248.47731306746201
 20
181.98934194203972
 40
0.0608883012790937
  0
CIRCLE
  8
_1-1_
  6
CONTINUOUS
 62
    7
 10
248.48102466480154
 20
178.63633439347552
 40
0.0608883012790937
  0
CIRCLE
  8
_1-1_
  6
CONTINUOUS
 62
    7
 10
248.25248924461573
 20
177.95074050490922
 40
0.0608883012790937
  0
CIRCLE
  8
_1-1_
  6
CONTINUOUS
 62
    7
 10
247.79544314822635
 20
169.4523455645587
 40
0.0608883012790937
  0
CIRCLE
  8
_1-1_
  6
CONTINUOUS
 62
    7
 10
249.11103119721284
 20
177.0619366620038
 40
0.0608883012790937
  0
CIRCLE
  8
_1-1_
  6
CONTINUOUS
 62
    7
 10
249.21225882865289
 20
177.46684718776393
 40
0.0608883012790937
  0
CIRCLE
  8
_1-1_
  6
CONTINUOUS
 62
    7
 10
248.53739145639781
 20
178.34415745090794
 40
0.0608883012790937
  0
CIRCLE
  8
_1-1_
  6
CONTINUOUS
 62
    7
 10
247.55886593380492
 20
178.64784034522805
 40
0.0608883012790937
  0
CIRCLE
  8
_1-1_
  6
CONTINUOUS
 62
    7
 10
247.64205520217484
 20
169.18313103753169
 40
0.0608883012790937
  0
CIRCLE
  8
_1-1_
  6
CONTINUOUS
 62
    7
 10
247.41351978198904
 20
168.49753714896539
 40
0.0608883012790937
  0
CIRCLE
  8
_1-1_
  6
CONTINUOUS
 62
    7
 10
246.95647368559969
 20
167.35488479201859
 40
0.0608883012790937
  0
CIRCLE
  8
_1-1_
  6
CONTINUOUS
 62
    7
 10
248.27206173458617
 20
167.60873330605997
 40
0.0608883012790937
  0
CIRCLE
  8
_1-1_
  6
CONTINUOUS
 62
    7
 10
248.3732893660262
 20
168.0136438318201
 40
0.0608883012790937
  0
CIRCLE
  8
_1-1_
  6
CONTINUOUS
 62
    7
 10
247.69842199377112
 20
168.89095409496412
 40
0.0608883012790937
  0
CIRCLE
  8
_1-1_
  6
CONTINUOUS
 62
    7
 10
246.71989647117823
 20
169.19463698928422
 40
0.0608883012790937
  0
CIRCLE
  8
_1-1_
  6
CONTINUOUS
 62
    7
 10
250.7882525469806
 20
168.44901419974664
 40
0.0608883012790937
  0
CIRCLE
  8
_1-1_
  6
CONTINUOUS
 62
    7
 10
250.55971712679477
 20
167.76342031118034
 40
0.0608883012790937
  0
CIRCLE
  8
_1-1_
  6
CONTINUOUS
 62
    7
 10
250.10267103040542
 20
166.62076795423354
 40
0.0608883012790937
  0
CIRCLE
  8
_1-1_
  6
CONTINUOUS
 62
    7
 10
251.4182590793919
 20
166.87461646827492
 40
0.0608883012790937
  0
CIRCLE
  8
_1-1_
  6
CONTINUOUS
 62
    7
 10
251.51948671083193
 20
167.27952699403505
 40
0.0608883012790937
  0
CIRCLE
  8
_1-1_
  6
CONTINUOUS
 62
    7
 10
250.84461933857688
 20
168.15683725717906
 40
0.0608883012790937
  0
CIRCLE
  8
_1-1_
  6
CONTINUOUS
 62
    7
 10
249.86609381598396
 20
168.46052015149917
 40
0.0608883012790937
  0
CIRCLE
  8
_1-1_
  6
CONTINUOUS
 62
    7
 10
251.62722200960727
 20
178.21683729017104
 40
0.0608883012790937
  0
CIRCLE
  8
_1-1_
  6
CONTINUOUS
 62
    7
 10
251.39868658942146
 20
177.53124340160474
 40
0.0608883012790937
  0
CIRCLE
  8
_1-1_
  6
CONTINUOUS
 62
    7
 10
250.94164049303211
 20
169.03284846125422
 40
0.0608883012790937
  0
CIRCLE
  8
_1-1_
  6
CONTINUOUS
 62
    7
 10
252.25722854201859
 20
169.28669697529563
 40
0.0608883012790937
  0
CIRCLE
  8
_1-1_
  6
CONTINUOUS
 62
    7
 10
252.35845617345862
 20
177.04735008445948
 40
0.0608883012790937
  0
CIRCLE
  8
_1-1_
  6
CONTINUOUS
 62
    7
 10
251.68358880120357
 20
177.92466034760346
 40
0.0608883012790937
  0
CIRCLE
  8
_1-1_
  6
CONTINUOUS
 62
    7
 10
250.70506327861065
 20
178.22834324192357
 40
0.0608883012790937
  0
CIRCLE
  8
_1-1_
  6
CONTINUOUS
 62
    7
 10
251.83697674725508
 20
180.31429806271115
 40
0.0608883012790937
  0
CIRCLE
  8
_1-1_
  6
CONTINUOUS
 62
    7
 10
251.60844132706927
 20
179.62870417414487
 40
0.0608883012790937
  0
CIRCLE
  8
_1-1_
  6
CONTINUOUS
 62
    7
 10
251.15139523067992
 20
178.48605181719807
 40
0.0608883012790937
  0
CIRCLE
  8
_1-1_
  6
CONTINUOUS
 62
    7
 10
252.46698327966641
 20
178.73990033123945
 40
0.0608883012790937
  0
CIRCLE
  8
_1-1_
  6
CONTINUOUS
 62
    7
 10
252.56821091110643
 20
179.14481085699958
 40
0.0608883012790937
  0
CIRCLE
  8
_1-1_
  6
CONTINUOUS
 62
    7
 10
251.89334353885135
 20
180.02212112014359
 40
0.0608883012790937
  0
CIRCLE
  8
_1-1_
  6
CONTINUOUS
 62
    7
 10
250.91481801625847
 20
180.3258040144637
 40
0.0608883012790937
  0
CIRCLE
  8
_1-1_
  6
CONTINUOUS
 62
    7
 10
251.31260227512669
 20
181.88739673511404
 40
0.0608883012790937
  0
CIRCLE
  8
_1-1_
  6
CONTINUOUS
 62
    7
 10
251.08406685494089
 20
181.20180284654774
 40
0.0608883012790937
  0
CIRCLE
  8
_1-1_
  6
CONTINUOUS
 62
    7
 10
250.62702075855154
 20
180.05915048960094
 40
0.0608883012790937
  0
CIRCLE
  8
_1-1_
  6
CONTINUOUS
 62
    7
 10
251.94260880753802
 20
180.31299900364232
 40
0.0608883012790937
  0
CIRCLE
  8
_1-1_
  6
CONTINUOUS
 62
    7
 10
252.04383643897805
 20
180.71790952940245
 40
0.0608883012790937
  0
CIRCLE
  8
_1-1_
  6
CONTINUOUS
 62
    7
 10
251.368969066723
 20
181.59521979254646
 40
0.0608883012790937
  0
CIRCLE
  8
_1-1_
  6
CONTINUOUS
 62
    7
 10
250.39044354413008
 20
181.89890268686656
 40
0.0608883012790937
  0
CIRCLE
  8
_1-1_
  6
CONTINUOUS
 62
    7
 10
251.27516462996201
 20
182.67326561180323
 40
0.0608883012790937
  0
CIRCLE
  8
_1-1_
  6
CONTINUOUS
 62
    7
 10
250.81811853357266
 20
181.53061325485643
 40
0.0608883012790937
  0
CIRCLE
  8
_1-1_
  6
CONTINUOUS
 62
    7
 10
247.41351978198904
 20
180.4676983807538
 40
0.0608883012790937
  0
CIRCLE
  8
_1-1_
  6
CONTINUOUS
 62
    7
 10
248.27206173458617
 20
179.57889453784841
 40
0.0608883012790937
  0
CIRCLE
  8
_1-1_
  6
CONTINUOUS
 62
    7
 10
248.3732893660262
 20
179.98380506360854
 40
0.0608883012790937
  0
CIRCLE
  8
_1-1_
  6
CONTINUOUS
 62
    7
 10
248.48102466480154
 20
177.16811308989654
 40
0.0608883012790937
  0
CIRCLE
  8
_1-1_
  6
CONTINUOUS
 62
    7
 10
248.25248924461573
 20
169.12677661792654
 40
0.0608883012790937
  0
CIRCLE
  8
_1-1_
  6
CONTINUOUS
 62
    7
 10
247.79544314822635
 20
167.98412426097974
 40
0.0608883012790937
  0
CIRCLE
  8
_1-1_
  6
CONTINUOUS
 62
    7
 10
249.11103119721284
 20
168.23797277502112
 40
0.0608883012790937
  0
CIRCLE
  8
_1-1_
  6
CONTINUOUS
 62
    7
 10
249.21225882865289
 20
168.64288330078125
 40
0.0608883012790937
  0
CIRCLE
  8
_1-1_
  6
CONTINUOUS
 62
    7
 10
248.53739145639781
 20
169.52019356392526
 40
0.0608883012790937
  0
CIRCLE
  8
_1-1_
  6
CONTINUOUS
 62
    7
 10
247.55886593380492
 20
177.17961904164909
 40
0.0608883012790937
  0
CIRCLE
  8
_1-1_
  6
CONTINUOUS
 62
    7
 10
247.95667493665542
 20
167.81977473078547
 40
0.0608883012790937
  0
CIRCLE
  8
_1-1_
  6
CONTINUOUS
 62
    7
 10
247.72813951646961
 20
167.13418084221919
 40
0.0608883012790937
  0
CIRCLE
  8
_1-1_
  6
CONTINUOUS
 62
    7
 10
247.27109342008026
 20
165.9915284852724
 40
0.0608883012790937
  0
CIRCLE
  8
_1-1_
  6
CONTINUOUS
 62
    7
 10
248.58668146906675
 20
166.24537699931378
 40
0.0608883012790937
  0
CIRCLE
  8
_1-1_
  6
CONTINUOUS
 62
    7
 10
248.68790910050677
 20
166.65028752507391
 40
0.0608883012790937
  0
CIRCLE
  8
_1-1_
  6
CONTINUOUS
 62
    7
 10
248.01304172825169
 20
167.52759778821792
 40
0.0608883012790937
  0
CIRCLE
  8
_1-1_
  6
CONTINUOUS
 62
    7
 10
247.0345162056588
 20
167.83128068253802
 40
0.0608883012790937
  0
CIRCLE
  8
_1-1_
  6
CONTINUOUS
 62
    7
 10
248.58591440561656
 20
165.72231395824537
 40
0.0608883012790937
  0
CIRCLE
  8
_1-1_
  6
CONTINUOUS
 62
    7
 10
248.35737898543076
 20
165.03672006967906
 40
0.0608883012790937
  0
CIRCLE
  8
_1-1_
  6
CONTINUOUS
 62
    7
 10
247.90033288904141
 20
163.89406771273227
 40
0.0608883012790937
  0
CIRCLE
  8
_1-1_
  6
CONTINUOUS
 62
    7
 10
249.21592093802789
 20
164.14791622677365
 40
0.0608883012790937
  0
CIRCLE
  8
_1-1_
  6
CONTINUOUS
 62
    7
 10
249.31714856946792
 20
164.5528267525338
 40
0.0608883012790937
  0
CIRCLE
  8
_1-1_
  6
CONTINUOUS
 62
    7
 10
248.64228119721284
 20
165.43013701567779
 40
0.0608883012790937
  0
CIRCLE
  8
_1-1_
  6
CONTINUOUS
 62
    7
 10
247.66375567461995
 20
165.73381990999789
 40
0.0608883012790937
  0
CIRCLE
  8
_1-1_
  6
CONTINUOUS
 62
    7
 10
249.21515387457771
 20
165.09307448928422
 40
0.0608883012790937
  0
CIRCLE
  8
_1-1_
  6
CONTINUOUS
 62
    7
 10
248.9866184543919
 20
164.40748060071792
 40
0.0608883012790937
  0
CIRCLE
  8
_1-1_
  6
CONTINUOUS
 62
    7
 10
248.52957235800255
 20
163.26482824377112
 40
0.0608883012790937
  0
CIRCLE
  8
_1-1_
  6
CONTINUOUS
 62
    7
 10
249.84516040698904
 20
163.5186767578125
 40
0.0608883012790937
  0
CIRCLE
  8
_1-1_
  6
CONTINUOUS
 62
    7
 10
249.94638803842906
 20
163.92358728357266
 40
0.0608883012790937
  0
CIRCLE
  8
_1-1_
  6
CONTINUOUS
 62
    7
 10
249.27152066617401
 20
164.80089754671664
 40
0.0608883012790937
  0
CIRCLE
  8
_1-1_
  6
CONTINUOUS
 62
    7
 10
248.29299514358109
 20
165.10458044103675
 40
0.0608883012790937
  0
CIRCLE
  8
_1-1_
  6
CONTINUOUS
 62
    7
 10
250.68336280616555
 20
164.98819712046031
 40
0.0608883012790937
  0
CIRCLE
  8
_1-1_
  6
CONTINUOUS
 62
    7
 10
250.45482738597974
 20
164.30260323189401
 40
0.0608883012790937
  0
CIRCLE
  8
_1-1_
  6
CONTINUOUS
 62
    7
 10
249.99778128959039
 20
163.15995087494721
 40
0.0608883012790937
  0
CIRCLE
  8
_1-1_
  6
CONTINUOUS
 62
    7
 10
251.31336933857688
 20
163.41379938898859
 40
0.0608883012790937
  0
CIRCLE
  8
_1-1_
  6
CONTINUOUS
 62
    7
 10
251.4145969700169
 20
163.81870991474875
 40
0.0608883012790937
  0
CIRCLE
  8
_1-1_
  6
CONTINUOUS
 62
    7
 10
250.73972959776185
 20
164.69602017789273
 40
0.0608883012790937
  0
CIRCLE
  8
_1-1_
  6
CONTINUOUS
 62
    7
 10
249.76120407516893
 20
164.99970307221284
 40
0.0608883012790937
  0
CIRCLE
  8
_1-1_
  6
CONTINUOUS
 62
    7
 10
251.41749201594175
 20
165.30281685494089
 40
0.0608883012790937
  0
CIRCLE
  8
_1-1_
  6
CONTINUOUS
 62
    7
 10
251.18895659575594
 20
164.61722296637458
 40
0.0608883012790937
  0
CIRCLE
  8
_1-1_
  6
CONTINUOUS
 62
    7
 10
250.73191049936656
 20
163.47457060942779
 40
0.0608883012790937
  0
CIRCLE
  8
_1-1_
  6
CONTINUOUS
 62
    7
 10
252.04749854835305
 20
163.72841912346919
 40
0.0608883012790937
  0
CIRCLE
  8
_1-1_
  6
CONTINUOUS
 62
    7
 10
252.1487261797931
 20
164.13332964922932
 40
0.0608883012790937
  0
CIRCLE
  8
_1-1_
  6
CONTINUOUS
 62
    7
 10
251.47385880753802
 20
165.01063991237331
 40
0.0608883012790937
  0
CIRCLE
  8
_1-1_
  6
CONTINUOUS
 62
    7
 10
250.4953332849451
 20
165.31432280669341
 40
0.0608883012790937
  0
CIRCLE
  8
_1-1_
  6
CONTINUOUS
 62
    7
 10
250.68336280616555
 20
168.34413683092274
 40
0.0608883012790937
  0
CIRCLE
  8
_1-1_
  6
CONTINUOUS
 62
    7
 10
250.45482738597974
 20
167.65854294235643
 40
0.0608883012790937
  0
CIRCLE
  8
_1-1_
  6
CONTINUOUS
 62
    7
 10
249.99778128959039
 20
166.51589058540964
 40
0.0608883012790937
  0
CIRCLE
  8
_1-1_
  6
CONTINUOUS
 62
    7
 10
251.31336933857688
 20
166.76973909945102
 40
0.0608883012790937
  0
CIRCLE
  8
_1-1_
  6
CONTINUOUS
 62
    7
 10
251.4145969700169
 20
167.17464962521115
 40
0.0608883012790937
  0
CIRCLE
  8
_1-1_
  6
CONTINUOUS
 62
    7
 10
250.73972959776185
 20
168.05195988835516
 40
0.0608883012790937
  0
CIRCLE
  8
_1-1_
  6
CONTINUOUS
 62
    7
 10
249.76120407516893
 20
168.35564278267526
 40
0.0608883012790937
  0
CIRCLE
  8
_1-1_
  6
CONTINUOUS
 62
    7
 10
241.64547482052367
 20
172.27296159074115
 40
0.0608883012790937
  0
CIRCLE
  8
_1-1_
  6
CONTINUOUS
 62
    7
 10
241.1884287241343
 20
171.13030923379435
 40
0.0608883012790937
  0
CIRCLE
  8
_1-1_
  6
CONTINUOUS
 62
    7
 10
240.95185150971284
 20
172.97006143105997
 40
0.0608883012790937
  0
CIRCLE
  8
_1-1_
  6
CONTINUOUS
 62
    7
 10
248.90053414009714
 20
182.4117712072424
 40
0.0608883012790937
  0
CIRCLE
  8
_1-1_
  6
CONTINUOUS
 62
    7
 10
248.67199871991133
 20
181.72617731867612
 40
0.0608883012790937
  0
CIRCLE
  8
_1-1_
  6
CONTINUOUS
 62
    7
 10
248.21495262352198
 20
180.58352496172932
 40
0.0608883012790937
  0
CIRCLE
  8
_1-1_
  6
CONTINUOUS
 62
    7
 10
249.53054067250847
 20
180.8373734757707
 40
0.0608883012790937
  0
CIRCLE
  8
_1-1_
  6
CONTINUOUS
 62
    7
 10
249.63176830394849
 20
181.24228400153083
 40
0.0608883012790937
  0
CIRCLE
  8
_1-1_
  6
CONTINUOUS
 62
    7
 10
248.95690093169344
 20
182.11959426467484
 40
0.0608883012790937
  0
CIRCLE
  8
_1-1_
  6
CONTINUOUS
 62
    7
 10
249.19649691195102
 20
181.47114109348607
 40
0.0608883012790937
  0
CIRCLE
  8
_1-1_
  6
CONTINUOUS
 62
    7
 10
249.26367682379646
 20
182.05174626530828
 40
0.0608883012790937
  0
CIRCLE
  8
_1-1_
  6
CONTINUOUS
 62
    7
 10
250.57926487278294
 20
182.30559477934966
 40
0.0608883012790937
  0
CIRCLE
  8
_1-1_
  6
CONTINUOUS
 62
    7
 10
251.60844132706927
 20
182.67003652211784
 40
0.0608883012790937
  0
CIRCLE
  8
_1-1_
  6
CONTINUOUS
 62
    7
 10
251.15139523067992
 20
181.52738416517104
 40
0.0608883012790937
  0
CIRCLE
  8
_1-1_
  6
CONTINUOUS
 62
    7
 10
252.46698327966641
 20
181.78123267921242
 40
0.0608883012790937
  0
CIRCLE
  8
_1-1_
  6
CONTINUOUS
 62
    7
 10
252.56821091110643
 20
182.18614320497255
 40
0.0608883012790937
  0
CIRCLE
  8
_1-1_
  6
CONTINUOUS
 62
    7
 10
248.46315950960727
 20
181.36496466559333
 40
0.0608883012790937
  0
CIRCLE
  8
_1-1_
  6
CONTINUOUS
 62
    7
 10
248.56438714104732
 20
181.76987519135346
 40
0.0608883012790937
  0
ARC
  8
_1-0_
  6
CONTINUOUS
 62
    7
 10
248.04263553103885
 20
210.38773820206927
 40
3.4186351621473161
 50
322.21978759765625
 51
33.878005981445313
  0
ARC
  8
_1-4_
  6
CONTINUOUS
 62
    3
 10
266.196379790435
 20
125.60973296294343
 40
60.168024011560391
 50
109.08514404296875
 51
129.00543212890625
  0
ARC
  8
_1-4_
  6
CONTINUOUS
 62
    3
 10
261.30617708773229
 20
139.74366883973818
 40
41.612016832506335
 50
109.08514404296875
 51
138.59980773925781
  0
CIRCLE
  8
_1-1_
  6
CONTINUOUS
 62
    7
 10
245.36476753853464
 20
173.31944646062078
 40
0.0608883012790937
  0
CIRCLE
  8
_1-1_
  6
CONTINUOUS
 62
    7
 10
245.96703606682857
 20
173.31232019372891
 40
0.0608883012790937
  0
CIRCLE
  8
_1-1_
  6
CONTINUOUS
 62
    7
 10
245.81364812077703
 20
173.04310566670188
 40
0.0608883012790937
  0
CIRCLE
  8
_1-1_
  6
CONTINUOUS
 62
    7
 10
245.58511270059122
 20
172.35751177813557
 40
0.0608883012790937
  0
CIRCLE
  8
_1-1_
  6
CONTINUOUS
 62
    7
 10
245.12806660420188
 20
171.21485942118878
 40
0.0608883012790937
  0
CIRCLE
  8
_1-1_
  6
CONTINUOUS
 62
    7
 10
246.44365465318836
 20
171.46870793523016
 40
0.0608883012790937
  0
CIRCLE
  8
_1-1_
  6
CONTINUOUS
 62
    7
 10
246.54488228462839
 20
171.87361846099029
 40
0.0608883012790937
  0
CIRCLE
  8
_1-1_
  6
CONTINUOUS
 62
    7
 10
245.87001491237334
 20
172.7509287241343
 40
0.0608883012790937
  0
CIRCLE
  8
_1-1_
  6
CONTINUOUS
 62
    7
 10
244.89148938978042
 20
173.0546116184544
 40
0.0608883012790937
  0
CIRCLE
  8
_1-1_
  6
CONTINUOUS
 62
    7
 10
248.95984546558279
 20
172.30898882891682
 40
0.0608883012790937
  0
CIRCLE
  8
_1-1_
  6
CONTINUOUS
 62
    7
 10
248.73131004539698
 20
171.62339494035052
 40
0.0608883012790937
  0
CIRCLE
  8
_1-1_
  6
CONTINUOUS
 62
    7
 10
248.2742639490076
 20
170.48074258340372
 40
0.0608883012790937
  0
CIRCLE
  8
_1-1_
  6
CONTINUOUS
 62
    7
 10
249.01621225717906
 20
172.01681188634925
 40
0.0608883012790937
  0
CIRCLE
  8
_1-1_
  6
CONTINUOUS
 62
    7
 10
248.03768673458617
 20
172.32049478066935
 40
0.0608883012790937
  0
CIRCLE
  8
_1-1_
  6
CONTINUOUS
 62
    7
 10
249.1132334116343
 20
172.89282309042443
 40
0.0608883012790937
  0
CIRCLE
  8
_1-1_
  6
CONTINUOUS
 62
    7
 10
246.42408216321792
 20
172.98675124709672
 40
0.0608883012790937
  0
CIRCLE
  8
_1-1_
  6
CONTINUOUS
 62
    7
 10
245.96703606682857
 20
171.84409889014992
 40
0.0608883012790937
  0
CIRCLE
  8
_1-1_
  6
CONTINUOUS
 62
    7
 10
247.28262411581505
 20
172.0979474041913
 40
0.0608883012790937
  0
CIRCLE
  8
_1-1_
  6
CONTINUOUS
 62
    7
 10
247.38385174725508
 20
172.50285792995143
 40
0.0608883012790937
  0
CIRCLE
  8
_1-1_
  6
CONTINUOUS
 62
    7
 10
246.708984375
 20
173.38016819309544
 40
0.0608883012790937
  0
CIRCLE
  8
_1-1_
  6
CONTINUOUS
 62
    7
 10
246.1282678552576
 20
171.67974935995568
 40
0.0608883012790937
  0
CIRCLE
  8
_1-1_
  6
CONTINUOUS
 62
    7
 10
245.8997324350718
 20
170.99415547138938
 40
0.0608883012790937
  0
CIRCLE
  8
_1-1_
  6
CONTINUOUS
 62
    7
 10
245.44268633868245
 20
169.85150311444258
 40
0.0608883012790937
  0
CIRCLE
  8
_1-1_
  6
CONTINUOUS
 62
    7
 10
246.75827438766893
 20
170.10535162848396
 40
0.0608883012790937
  0
CIRCLE
  8
_1-1_
  6
CONTINUOUS
 62
    7
 10
246.85950201910896
 20
170.51026215424409
 40
0.0608883012790937
  0
CIRCLE
  8
_1-1_
  6
CONTINUOUS
 62
    7
 10
246.18463464685391
 20
171.3875724173881
 40
0.0608883012790937
  0
CIRCLE
  8
_1-1_
  6
CONTINUOUS
 62
    7
 10
245.20610912426099
 20
171.6912553117082
 40
0.0608883012790937
  0
CIRCLE
  8
_1-1_
  6
CONTINUOUS
 62
    7
 10
246.75750732421875
 20
169.58228858741555
 40
0.0608883012790937
  0
CIRCLE
  8
_1-1_
  6
CONTINUOUS
 62
    7
 10
245.83534859322214
 20
169.59379453916807
 40
0.0608883012790937
  0
CIRCLE
  8
_1-1_
  6
CONTINUOUS
 62
    7
 10
248.85495572476776
 20
172.20411146009292
 40
0.0608883012790937
  0
CIRCLE
  8
_1-1_
  6
CONTINUOUS
 62
    7
 10
248.62642030458193
 20
171.51851757152662
 40
0.0608883012790937
  0
CIRCLE
  8
_1-1_
  6
CONTINUOUS
 62
    7
 10
248.16937420819258
 20
170.37586521457982
 40
0.0608883012790937
  0
CIRCLE
  8
_1-1_
  6
CONTINUOUS
 62
    7
 10
248.91132251636404
 20
171.91193451752534
 40
0.0608883012790937
  0
CIRCLE
  8
_1-1_
  6
CONTINUOUS
 62
    7
 10
247.93279699377112
 20
172.21561741184544
 40
0.0608883012790937
  0
CIRCLE
  8
_1-1_
  6
CONTINUOUS
 62
    7
 10
248.71685955975508
 20
173.7257550213788
 40
0.0608883012790937
  0
CIRCLE
  8
_1-1_
  6
CONTINUOUS
 62
    7
 10
249.31912808804901
 20
173.71862875448693
 40
0.0608883012790937
  0
CIRCLE
  8
_1-1_
  6
CONTINUOUS
 62
    7
 10
249.16574014199747
 20
173.4494142274599
 40
0.0608883012790937
  0
CIRCLE
  8
_1-1_
  6
CONTINUOUS
 62
    7
 10
248.93720472181167
 20
172.76382033889359
 40
0.0608883012790937
  0
CIRCLE
  8
_1-1_
  6
CONTINUOUS
 62
    7
 10
248.48015862542232
 20
171.6211679819468
 40
0.0608883012790937
  0
CIRCLE
  8
_1-1_
  6
CONTINUOUS
 62
    7
 10
249.7957466744088
 20
171.87501649598818
 40
0.0608883012790937
  0
CIRCLE
  8
_1-1_
  6
CONTINUOUS
 62
    7
 10
249.89697430584883
 20
172.27992702174831
 40
0.0608883012790937
  0
CIRCLE
  8
_1-1_
  6
CONTINUOUS
 62
    7
 10
249.22210693359375
 20
173.15723728489232
 40
0.0608883012790937
  0
CIRCLE
  8
_1-1_
  6
CONTINUOUS
 62
    7
 10
248.24358141100086
 20
173.46092017921242
 40
0.0608883012790937
  0
CIRCLE
  8
_1-1_
  6
CONTINUOUS
 62
    7
 10
252.31193748680323
 20
172.71529738967484
 40
0.0608883012790937
  0
CIRCLE
  8
_1-1_
  6
CONTINUOUS
 62
    7
 10
252.08340206661742
 20
172.02970350110854
 40
0.0608883012790937
  0
CIRCLE
  8
_1-1_
  6
CONTINUOUS
 62
    7
 10
251.62635597022805
 20
170.88705114416175
 40
0.0608883012790937
  0
CIRCLE
  8
_1-1_
  6
CONTINUOUS
 62
    7
 10
252.36830427839951
 20
172.42312044710727
 40
0.0608883012790937
  0
CIRCLE
  8
_1-1_
  6
CONTINUOUS
 62
    7
 10
251.38977875580659
 20
172.72680334142737
 40
0.0608883012790937
  0
CIRCLE
  8
_1-1_
  6
CONTINUOUS
 62
    7
 10
252.46532543285474
 20
173.29913165118245
 40
0.0608883012790937
  0
CIRCLE
  8
_1-1_
  6
CONTINUOUS
 62
    7
 10
249.77617418443836
 20
173.39305980785474
 40
0.0608883012790937
  0
CIRCLE
  8
_1-1_
  6
CONTINUOUS
 62
    7
 10
249.31912808804901
 20
172.25040745090794
 40
0.0608883012790937
  0
CIRCLE
  8
_1-1_
  6
CONTINUOUS
 62
    7
 10
250.6347161370355
 20
172.50425596494932
 40
0.0608883012790937
  0
CIRCLE
  8
_1-1_
  6
CONTINUOUS
 62
    7
 10
250.73594376847552
 20
172.90916649070948
 40
0.0608883012790937
  0
CIRCLE
  8
_1-1_
  6
CONTINUOUS
 62
    7
 10
250.06107639622044
 20
173.78647675385346
 40
0.0608883012790937
  0
CIRCLE
  8
_1-1_
  6
CONTINUOUS
 62
    7
 10
249.48035987647805
 20
172.0860579207137
 40
0.0608883012790937
  0
CIRCLE
  8
_1-1_
  6
CONTINUOUS
 62
    7
 10
249.25182445629224
 20
171.4004640321474
 40
0.0608883012790937
  0
CIRCLE
  8
_1-1_
  6
CONTINUOUS
 62
    7
 10
248.79477835990289
 20
170.2578116752006
 40
0.0608883012790937
  0
CIRCLE
  8
_1-1_
  6
CONTINUOUS
 62
    7
 10
250.11036640888938
 20
170.51166018924198
 40
0.0608883012790937
  0
CIRCLE
  8
_1-1_
  6
CONTINUOUS
 62
    7
 10
250.2115940403294
 20
170.91657071500211
 40
0.0608883012790937
  0
CIRCLE
  8
_1-1_
  6
CONTINUOUS
 62
    7
 10
249.53672666807435
 20
171.79388097814612
 40
0.0608883012790937
  0
CIRCLE
  8
_1-1_
  6
CONTINUOUS
 62
    7
 10
248.55820114548143
 20
172.09756387246622
 40
0.0608883012790937
  0
CIRCLE
  8
_1-1_
  6
CONTINUOUS
 62
    7
 10
250.10959934543919
 20
169.98859714817357
 40
0.0608883012790937
  0
CIRCLE
  8
_1-1_
  6
CONTINUOUS
 62
    7
 10
249.18744061444258
 20
170.00010309992609
 40
0.0608883012790937
  0
CIRCLE
  8
_1-1_
  6
CONTINUOUS
 62
    7
 10
252.20704774598818
 20
172.61042002085094
 40
0.0608883012790937
  0
CIRCLE
  8
_1-1_
  6
CONTINUOUS
 62
    7
 10
251.97851232580237
 20
171.92482613228464
 40
0.0608883012790937
  0
CIRCLE
  8
_1-1_
  6
CONTINUOUS
 62
    7
 10
251.52146622941302
 20
170.78217377533784
 40
0.0608883012790937
  0
CIRCLE
  8
_1-1_
  6
CONTINUOUS
 62
    7
 10
252.26341453758448
 20
172.31824307828336
 40
0.0608883012790937
  0
CIRCLE
  8
_1-1_
  6
CONTINUOUS
 62
    7
 10
251.28488901499156
 20
172.62192597260346
 40
0.0608883012790937
  0
CIRCLE
  8
_1-1_
  6
CONTINUOUS
 62
    7
 10
246.17738466005068
 20
175.35100163640203
 40
0.0608883012790937
  0
CIRCLE
  8
_1-1_
  6
CONTINUOUS
 62
    7
 10
246.77965318834461
 20
175.34387536951016
 40
0.0608883012790937
  0
CIRCLE
  8
_1-1_
  6
CONTINUOUS
 62
    7
 10
246.6262652422931
 20
175.07466084248313
 40
0.0608883012790937
  0
CIRCLE
  8
_1-1_
  6
CONTINUOUS
 62
    7
 10
246.39772982210727
 20
174.38906695391682
 40
0.0608883012790937
  0
CIRCLE
  8
_1-1_
  6
CONTINUOUS
 62
    7
 10
245.94068372571792
 20
173.24641459697003
 40
0.0608883012790937
  0
CIRCLE
  8
_1-1_
  6
CONTINUOUS
 62
    7
 10
247.2562717747044
 20
173.50026311101141
 40
0.0608883012790937
  0
CIRCLE
  8
_1-1_
  6
CONTINUOUS
 62
    7
 10
247.35749940614443
 20
173.90517363677154
 40
0.0608883012790937
  0
CIRCLE
  8
_1-1_
  6
CONTINUOUS
 62
    7
 10
246.68263203388938
 20
174.78248389991555
 40
0.0608883012790937
  0
CIRCLE
  8
_1-1_
  6
CONTINUOUS
 62
    7
 10
245.70410651129646
 20
175.08616679423565
 40
0.0608883012790937
  0
CIRCLE
  8
_1-1_
  6
CONTINUOUS
 62
    7
 10
249.77246258709883
 20
174.34054400469807
 40
0.0608883012790937
  0
CIRCLE
  8
_1-1_
  6
CONTINUOUS
 62
    7
 10
249.54392716691302
 20
173.65495011613177
 40
0.0608883012790937
  0
CIRCLE
  8
_1-1_
  6
CONTINUOUS
 62
    7
 10
249.08688107052367
 20
172.51229775918497
 40
0.0608883012790937
  0
CIRCLE
  8
_1-1_
  6
CONTINUOUS
 62
    7
 10
249.8288293786951
 20
174.0483670621305
 40
0.0608883012790937
  0
CIRCLE
  8
_1-1_
  6
CONTINUOUS
 62
    7
 10
248.85030385610222
 20
174.3520499564506
 40
0.0608883012790937
  0
CIRCLE
  8
_1-1_
  6
CONTINUOUS
 62
    7
 10
249.92585053315034
 20
174.92437826620568
 40
0.0608883012790937
  0
CIRCLE
  8
_1-1_
  6
CONTINUOUS
 62
    7
 10
247.23669928473396
 20
175.01830642287797
 40
0.0608883012790937
  0
CIRCLE
  8
_1-1_
  6
CONTINUOUS
 62
    7
 10
246.77965318834461
 20
173.87565406593117
 40
0.0608883012790937
  0
CIRCLE
  8
_1-1_
  6
CONTINUOUS
 62
    7
 10
248.09524123733109
 20
174.12950257997255
 40
0.0608883012790937
  0
CIRCLE
  8
_1-1_
  6
CONTINUOUS
 62
    7
 10
248.19646886877112
 20
174.53441310573268
 40
0.0608883012790937
  0
CIRCLE
  8
_1-1_
  6
CONTINUOUS
 62
    7
 10
247.52160149651607
 20
175.41172336887669
 40
0.0608883012790937
  0
CIRCLE
  8
_1-1_
  6
CONTINUOUS
 62
    7
 10
246.94088497677367
 20
173.71130453573693
 40
0.0608883012790937
  0
CIRCLE
  8
_1-1_
  6
CONTINUOUS
 62
    7
 10
246.71234955658784
 20
173.02571064717063
 40
0.0608883012790937
  0
CIRCLE
  8
_1-1_
  6
CONTINUOUS
 62
    7
 10
246.25530346019849
 20
171.88305829022383
 40
0.0608883012790937
  0
CIRCLE
  8
_1-1_
  6
CONTINUOUS
 62
    7
 10
247.57089150918497
 20
172.13690680426521
 40
0.0608883012790937
  0
CIRCLE
  8
_1-1_
  6
CONTINUOUS
 62
    7
 10
247.672119140625
 20
172.54181733002534
 40
0.0608883012790937
  0
CIRCLE
  8
_1-1_
  6
CONTINUOUS
 62
    7
 10
246.99725176836995
 20
173.41912759316935
 40
0.0608883012790937
  0
CIRCLE
  8
_1-1_
  6
CONTINUOUS
 62
    7
 10
246.01872624577703
 20
173.72281048748945
 40
0.0608883012790937
  0
CIRCLE
  8
_1-1_
  6
CONTINUOUS
 62
    7
 10
247.57012444573482
 20
171.6138437631968
 40
0.0608883012790937
  0
CIRCLE
  8
_1-1_
  6
CONTINUOUS
 62
    7
 10
246.64796571473818
 20
171.62534971494932
 40
0.0608883012790937
  0
CIRCLE
  8
_1-1_
  6
CONTINUOUS
 62
    7
 10
249.6675728462838
 20
174.23566663587417
 40
0.0608883012790937
  0
CIRCLE
  8
_1-1_
  6
CONTINUOUS
 62
    7
 10
249.439037426098
 20
173.55007274730787
 40
0.0608883012790937
  0
CIRCLE
  8
_1-1_
  6
CONTINUOUS
 62
    7
 10
248.98199132970862
 20
172.40742039036107
 40
0.0608883012790937
  0
CIRCLE
  8
_1-1_
  6
CONTINUOUS
 62
    7
 10
249.72393963788008
 20
173.94348969330659
 40
0.0608883012790937
  0
CIRCLE
  8
_1-1_
  6
CONTINUOUS
 62
    7
 10
248.74541411528719
 20
174.24717258762669
 40
0.0608883012790937
  0
CIRCLE
  8
_1-1_
  6
CONTINUOUS
 62
    7
 10
243.13006426836995
 20
175.96047066353464
 40
0.0608883012790937
  0
CIRCLE
  8
_1-1_
  6
CONTINUOUS
 62
    7
 10
243.73233279666385
 20
175.95334439664273
 40
0.0608883012790937
  0
CIRCLE
  8
_1-1_
  6
CONTINUOUS
 62
    7
 10
243.57894485061234
 20
175.68412986961573
 40
0.0608883012790937
  0
CIRCLE
  8
_1-1_
  6
CONTINUOUS
 62
    7
 10
243.35040943042654
 20
174.99853598104943
 40
0.0608883012790937
  0
CIRCLE
  8
_1-1_
  6
CONTINUOUS
 62
    7
 10
242.89336333403719
 20
173.85588362410263
 40
0.0608883012790937
  0
CIRCLE
  8
_1-1_
  6
CONTINUOUS
 62
    7
 10
244.20895138302367
 20
174.10973213814401
 40
0.0608883012790937
  0
CIRCLE
  8
_1-1_
  6
CONTINUOUS
 62
    7
 10
244.3101790144637
 20
174.51464266390414
 40
0.0608883012790937
  0
CIRCLE
  8
_1-1_
  6
CONTINUOUS
 62
    7
 10
243.63531164220862
 20
175.39195292704815
 40
0.0608883012790937
  0
CIRCLE
  8
_1-1_
  6
CONTINUOUS
 62
    7
 10
242.65678611961573
 20
175.69563582136826
 40
0.0608883012790937
  0
CIRCLE
  8
_1-1_
  6
CONTINUOUS
 62
    7
 10
246.7251421954181
 20
174.95001303183068
 40
0.0608883012790937
  0
CIRCLE
  8
_1-1_
  6
CONTINUOUS
 62
    7
 10
246.49660677523227
 20
174.26441914326438
 40
0.0608883012790937
  0
CIRCLE
  8
_1-1_
  6
CONTINUOUS
 62
    7
 10
246.03956067884292
 20
173.12176678631758
 40
0.0608883012790937
  0
CIRCLE
  8
_1-1_
  6
CONTINUOUS
 62
    7
 10
246.78150898701438
 20
174.6578360892631
 40
0.0608883012790937
  0
CIRCLE
  8
_1-1_
  6
CONTINUOUS
 62
    7
 10
245.80298346442146
 20
174.9615189835832
 40
0.0608883012790937
  0
CIRCLE
  8
_1-1_
  6
CONTINUOUS
 62
    7
 10
246.87853014146961
 20
175.53384729333828
 40
0.0608883012790937
  0
CIRCLE
  8
_1-1_
  6
CONTINUOUS
 62
    7
 10
244.18937889305323
 20
175.62777545001057
 40
0.0608883012790937
  0
CIRCLE
  8
_1-1_
  6
CONTINUOUS
 62
    7
 10
243.73233279666385
 20
174.48512309306378
 40
0.0608883012790937
  0
CIRCLE
  8
_1-1_
  6
CONTINUOUS
 62
    7
 10
245.04792084565034
 20
174.73897160710516
 40
0.0608883012790937
  0
CIRCLE
  8
_1-1_
  6
CONTINUOUS
 62
    7
 10
245.14914847709039
 20
175.14388213286529
 40
0.0608883012790937
  0
CIRCLE
  8
_1-1_
  6
CONTINUOUS
 62
    7
 10
244.47428110483531
 20
176.0211923960093
 40
0.0608883012790937
  0
CIRCLE
  8
_1-1_
  6
CONTINUOUS
 62
    7
 10
243.89356458509292
 20
174.32077356286953
 40
0.0608883012790937
  0
CIRCLE
  8
_1-1_
  6
CONTINUOUS
 62
    7
 10
243.66502916490711
 20
173.63517967430323
 40
0.0608883012790937
  0
CIRCLE
  8
_1-1_
  6
CONTINUOUS
 62
    7
 10
243.20798306851776
 20
172.49252731735643
 40
0.0608883012790937
  0
CIRCLE
  8
_1-1_
  6
CONTINUOUS
 62
    7
 10
244.52357111750425
 20
172.74637583139781
 40
0.0608883012790937
  0
CIRCLE
  8
_1-1_
  6
CONTINUOUS
 62
    7
 10
244.62479874894427
 20
173.15128635715794
 40
0.0608883012790937
  0
CIRCLE
  8
_1-1_
  6
CONTINUOUS
 62
    7
 10
243.94993137668919
 20
174.02859662030195
 40
0.0608883012790937
  0
CIRCLE
  8
_1-1_
  6
CONTINUOUS
 62
    7
 10
242.9714058540963
 20
174.33227951462206
 40
0.0608883012790937
  0
CIRCLE
  8
_1-1_
  6
CONTINUOUS
 62
    7
 10
244.52280405405406
 20
172.2233127903294
 40
0.0608883012790937
  0
CIRCLE
  8
_1-1_
  6
CONTINUOUS
 62
    7
 10
243.60064532305745
 20
172.23481874208193
 40
0.0608883012790937
  0
CIRCLE
  8
_1-1_
  6
CONTINUOUS
 62
    7
 10
246.62025245460305
 20
174.84513566300677
 40
0.0608883012790937
  0
CIRCLE
  8
_1-1_
  6
CONTINUOUS
 62
    7
 10
246.39171703441724
 20
174.15954177444047
 40
0.0608883012790937
  0
CIRCLE
  8
_1-1_
  6
CONTINUOUS
 62
    7
 10
245.93467093802789
 20
173.01688941749367
 40
0.0608883012790937
  0
CIRCLE
  8
_1-1_
  6
CONTINUOUS
 62
    7
 10
246.67661924619935
 20
174.55295872043919
 40
0.0608883012790937
  0
CIRCLE
  8
_1-1_
  6
CONTINUOUS
 62
    7
 10
245.69809372360643
 20
174.8566416147593
 40
0.0608883012790937
  0
CIRCLE
  8
_1-1_
  6
CONTINUOUS
 62
    7
 10
240.99691030141472
 20
174.94469307564401
 40
0.0608883012790937
  0
CIRCLE
  8
_1-1_
  6
CONTINUOUS
 62
    7
 10
241.59917882970862
 20
174.93756680875211
 40
0.0608883012790937
  0
CIRCLE
  8
_1-1_
  6
CONTINUOUS
 62
    7
 10
241.44579088365711
 20
174.66835228172511
 40
0.0608883012790937
  0
CIRCLE
  8
_1-1_
  6
CONTINUOUS
 62
    7
 10
241.2172554634713
 20
173.9827583931588
 40
0.0608883012790937
  0
CIRCLE
  8
_1-1_
  6
CONTINUOUS
 62
    7
 10
240.76020936708193
 20
172.84010603621201
 40
0.0608883012790937
  0
CIRCLE
  8
_1-1_
  6
CONTINUOUS
 62
    7
 10
242.07579741606841
 20
173.09395455025339
 40
0.0608883012790937
  0
CIRCLE
  8
_1-1_
  6
CONTINUOUS
 62
    7
 10
242.17702504750847
 20
173.49886507601352
 40
0.0608883012790937
  0
CIRCLE
  8
_1-1_
  6
CONTINUOUS
 62
    7
 10
241.50215767525339
 20
174.37617533915753
 40
0.0608883012790937
  0
CIRCLE
  8
_1-1_
  6
CONTINUOUS
 62
    7
 10
240.5236321526605
 20
174.67985823347763
 40
0.0608883012790937
  0
CIRCLE
  8
_1-1_
  6
CONTINUOUS
 62
    7
 10
244.59198822846284
 20
173.93423544394005
 40
0.0608883012790937
  0
CIRCLE
  8
_1-1_
  6
CONTINUOUS
 62
    7
 10
244.36345280827703
 20
173.24864155537375
 40
0.0608883012790937
  0
CIRCLE
  8
_1-1_
  6
CONTINUOUS
 62
    7
 10
243.90640671188768
 20
172.10598919842695
 40
0.0608883012790937
  0
CIRCLE
  8
_1-1_
  6
CONTINUOUS
 62
    7
 10
244.64835502005914
 20
173.64205850137247
 40
0.0608883012790937
  0
CIRCLE
  8
_1-1_
  6
CONTINUOUS
 62
    7
 10
243.66982949746622
 20
173.94574139569258
 40
0.0608883012790937
  0
CIRCLE
  8
_1-1_
  6
CONTINUOUS
 62
    7
 10
244.74537617451438
 20
174.51806970544766
 40
0.0608883012790937
  0
CIRCLE
  8
_1-1_
  6
CONTINUOUS
 62
    7
 10
242.056224926098
 20
174.61199786211995
 40
0.0608883012790937
  0
CIRCLE
  8
_1-1_
  6
CONTINUOUS
 62
    7
 10
241.59917882970862
 20
173.46934550517315
 40
0.0608883012790937
  0
CIRCLE
  8
_1-1_
  6
CONTINUOUS
 62
    7
 10
242.9147668786951
 20
173.72319401921453
 40
0.0608883012790937
  0
CIRCLE
  8
_1-1_
  6
CONTINUOUS
 62
    7
 10
243.01599451013516
 20
174.12810454497466
 40
0.0608883012790937
  0
CIRCLE
  8
_1-1_
  6
CONTINUOUS
 62
    7
 10
242.34112713788008
 20
175.00541480811867
 40
0.0608883012790937
  0
CIRCLE
  8
_1-1_
  6
CONTINUOUS
 62
    7
 10
241.76041061813768
 20
173.30499597497891
 40
0.0608883012790937
  0
CIRCLE
  8
_1-1_
  6
CONTINUOUS
 62
    7
 10
241.53187519795188
 20
172.61940208641261
 40
0.0608883012790937
  0
CIRCLE
  8
_1-1_
  6
CONTINUOUS
 62
    7
 10
241.0748291015625
 20
171.47674972946581
 40
0.0608883012790937
  0
CIRCLE
  8
_1-1_
  6
CONTINUOUS
 62
    7
 10
242.39041715054901
 20
171.73059824350719
 40
0.0608883012790937
  0
CIRCLE
  8
_1-1_
  6
CONTINUOUS
 62
    7
 10
242.49164478198904
 20
172.13550876926732
 40
0.0608883012790937
  0
CIRCLE
  8
_1-1_
  6
CONTINUOUS
 62
    7
 10
241.81677740973396
 20
173.01281903241133
 40
0.0608883012790937
  0
CIRCLE
  8
_1-1_
  6
CONTINUOUS
 62
    7
 10
240.83825188714107
 20
173.31650192673143
 40
0.0608883012790937
  0
CIRCLE
  8
_1-1_
  6
CONTINUOUS
 62
    7
 10
242.38965008709883
 20
171.20753520243878
 40
0.0608883012790937
  0
CIRCLE
  8
_1-1_
  6
CONTINUOUS
 62
    7
 10
241.46749135610222
 20
171.2190411541913
 40
0.0608883012790937
  0
CIRCLE
  8
_1-1_
  6
CONTINUOUS
 62
    7
 10
244.48709848764781
 20
173.82935807511615
 40
0.0608883012790937
  0
CIRCLE
  8
_1-1_
  6
CONTINUOUS
 62
    7
 10
244.25856306746201
 20
173.14376418654984
 40
0.0608883012790937
  0
CIRCLE
  8
_1-1_
  6
CONTINUOUS
 62
    7
 10
243.80151697107266
 20
172.00111182960305
 40
0.0608883012790937
  0
CIRCLE
  8
_1-1_
  6
CONTINUOUS
 62
    7
 10
244.54346527924409
 20
173.53718113254857
 40
0.0608883012790937
  0
CIRCLE
  8
_1-1_
  6
CONTINUOUS
 62
    7
 10
243.5649397566512
 20
173.84086402686867
 40
0.0608883012790937
  0
CIRCLE
  8
_1-1_
  6
CONTINUOUS
 62
    7
 10
242.8253173828125
 20
170.67840988571581
 40
0.0608883012790937
  0
CIRCLE
  8
_1-1_
  6
CONTINUOUS
 62
    7
 10
243.42758591110643
 20
170.67128361882391
 40
0.0608883012790937
  0
CIRCLE
  8
_1-1_
  6
CONTINUOUS
 62
    7
 10
243.27419796505492
 20
170.40206909179687
 40
0.0608883012790937
  0
CIRCLE
  8
_1-1_
  6
CONTINUOUS
 62
    7
 10
243.04566254486909
 20
169.71647520323057
 40
0.0608883012790937
  0
CIRCLE
  8
_1-1_
  6
CONTINUOUS
 62
    7
 10
242.58861644847974
 20
168.5738228462838
 40
0.0608883012790937
  0
CIRCLE
  8
_1-1_
  6
CONTINUOUS
 62
    7
 10
243.90420449746622
 20
168.82767136032518
 40
0.0608883012790937
  0
CIRCLE
  8
_1-1_
  6
CONTINUOUS
 62
    7
 10
244.00543212890625
 20
169.23258188608531
 40
0.0608883012790937
  0
CIRCLE
  8
_1-1_
  6
CONTINUOUS
 62
    7
 10
243.3305647566512
 20
170.10989214922932
 40
0.0608883012790937
  0
CIRCLE
  8
_1-1_
  6
CONTINUOUS
 62
    7
 10
242.35203923405828
 20
170.41357504354943
 40
0.0608883012790937
  0
CIRCLE
  8
_1-1_
  6
CONTINUOUS
 62
    7
 10
246.42039530986065
 20
169.66795225401182
 40
0.0608883012790937
  0
CIRCLE
  8
_1-1_
  6
CONTINUOUS
 62
    7
 10
246.19185988967484
 20
168.98235836544552
 40
0.0608883012790937
  0
CIRCLE
  8
_1-1_
  6
CONTINUOUS
 62
    7
 10
245.7348137932855
 20
167.83970600849875
 40
0.0608883012790937
  0
CIRCLE
  8
_1-1_
  6
CONTINUOUS
 62
    7
 10
246.47676210145693
 20
169.37577531144427
 40
0.0608883012790937
  0
CIRCLE
  8
_1-1_
  6
CONTINUOUS
 62
    7
 10
245.49823657886404
 20
169.67945820576438
 40
0.0608883012790937
  0
CIRCLE
  8
_1-1_
  6
CONTINUOUS
 62
    7
 10
246.57378325591219
 20
170.25178651551943
 40
0.0608883012790937
  0
CIRCLE
  8
_1-1_
  6
CONTINUOUS
 62
    7
 10
243.88463200749578
 20
170.34571467219172
 40
0.0608883012790937
  0
CIRCLE
  8
_1-1_
  6
CONTINUOUS
 62
    7
 10
243.42758591110643
 20
169.20306231524495
 40
0.0608883012790937
  0
CIRCLE
  8
_1-1_
  6
CONTINUOUS
 62
    7
 10
244.74317396009292
 20
169.45691082928633
 40
0.0608883012790937
  0
CIRCLE
  8
_1-1_
  6
CONTINUOUS
 62
    7
 10
244.84440159153294
 20
169.86182135504646
 40
0.0608883012790937
  0
CIRCLE
  8
_1-1_
  6
CONTINUOUS
 62
    7
 10
244.16953421927789
 20
170.73913161819047
 40
0.0608883012790937
  0
CIRCLE
  8
_1-1_
  6
CONTINUOUS
 62
    7
 10
243.5888176995355
 20
169.03871278505068
 40
0.0608883012790937
  0
CIRCLE
  8
_1-1_
  6
CONTINUOUS
 62
    7
 10
243.36028227934969
 20
168.35311889648437
 40
0.0608883012790937
  0
CIRCLE
  8
_1-1_
  6
CONTINUOUS
 62
    7
 10
242.90323618296031
 20
167.21046653953761
 40
0.0608883012790937
  0
CIRCLE
  8
_1-1_
  6
CONTINUOUS
 62
    7
 10
244.2188242319468
 20
167.46431505357899
 40
0.0608883012790937
  0
CIRCLE
  8
_1-1_
  6
CONTINUOUS
 62
    7
 10
244.32005186338685
 20
167.86922557933912
 40
0.0608883012790937
  0
CIRCLE
  8
_1-1_
  6
CONTINUOUS
 62
    7
 10
243.64518449113177
 20
168.74653584248313
 40
0.0608883012790937
  0
CIRCLE
  8
_1-1_
  6
CONTINUOUS
 62
    7
 10
242.66665896853885
 20
169.05021873680323
 40
0.0608883012790937
  0
CIRCLE
  8
_1-1_
  6
CONTINUOUS
 62
    7
 10
244.21805716849664
 20
166.94125201251057
 40
0.0608883012790937
  0
CIRCLE
  8
_1-1_
  6
CONTINUOUS
 62
    7
 10
243.2958984375
 20
166.9527579642631
 40
0.0608883012790937
  0
CIRCLE
  8
_1-1_
  6
CONTINUOUS
 62
    7
 10
246.31550556904563
 20
169.56307488518794
 40
0.0608883012790937
  0
CIRCLE
  8
_1-1_
  6
CONTINUOUS
 62
    7
 10
246.08697014885982
 20
168.87748099662164
 40
0.0608883012790937
  0
CIRCLE
  8
_1-1_
  6
CONTINUOUS
 62
    7
 10
245.62992405247044
 20
167.73482863967484
 40
0.0608883012790937
  0
CIRCLE
  8
_1-1_
  6
CONTINUOUS
 62
    7
 10
246.3718723606419
 20
169.27089794262037
 40
0.0608883012790937
  0
CIRCLE
  8
_1-1_
  6
CONTINUOUS
 62
    7
 10
245.39334683804901
 20
169.57458083694047
 40
0.0608883012790937
  0
CIRCLE
  8
_1-1_
  6
CONTINUOUS
 62
    7
 10
243.13006426836995
 20
168.13895972999367
 40
0.0608883012790937
  0
CIRCLE
  8
_1-1_
  6
CONTINUOUS
 62
    7
 10
243.73233279666385
 20
168.13183346310177
 40
0.0608883012790937
  0
CIRCLE
  8
_1-1_
  6
CONTINUOUS
 62
    7
 10
243.57894485061234
 20
167.86261893607477
 40
0.0608883012790937
  0
CIRCLE
  8
_1-1_
  6
CONTINUOUS
 62
    7
 10
243.35040943042654
 20
167.17702504750847
 40
0.0608883012790937
  0
CIRCLE
  8
_1-1_
  6
CONTINUOUS
 62
    7
 10
242.89336333403719
 20
166.03437269056167
 40
0.0608883012790937
  0
CIRCLE
  8
_1-1_
  6
CONTINUOUS
 62
    7
 10
244.20895138302367
 20
166.28822120460305
 40
0.0608883012790937
  0
CIRCLE
  8
_1-1_
  6
CONTINUOUS
 62
    7
 10
244.3101790144637
 20
166.69313173036318
 40
0.0608883012790937
  0
CIRCLE
  8
_1-1_
  6
CONTINUOUS
 62
    7
 10
243.63531164220862
 20
167.57044199350719
 40
0.0608883012790937
  0
CIRCLE
  8
_1-1_
  6
CONTINUOUS
 62
    7
 10
242.65678611961573
 20
167.87412488782729
 40
0.0608883012790937
  0
CIRCLE
  8
_1-1_
  6
CONTINUOUS
 62
    7
 10
246.7251421954181
 20
167.12850209828972
 40
0.0608883012790937
  0
CIRCLE
  8
_1-1_
  6
CONTINUOUS
 62
    7
 10
246.49660677523227
 20
166.44290820972341
 40
0.0608883012790937
  0
CIRCLE
  8
_1-1_
  6
CONTINUOUS
 62
    7
 10
246.03956067884292
 20
165.30025585277662
 40
0.0608883012790937
  0
CIRCLE
  8
_1-1_
  6
CONTINUOUS
 62
    7
 10
246.78150898701438
 20
166.83632515572214
 40
0.0608883012790937
  0
CIRCLE
  8
_1-1_
  6
CONTINUOUS
 62
    7
 10
245.80298346442146
 20
167.14000805004224
 40
0.0608883012790937
  0
CIRCLE
  8
_1-1_
  6
CONTINUOUS
 62
    7
 10
246.87853014146961
 20
167.71233635979732
 40
0.0608883012790937
  0
CIRCLE
  8
_1-1_
  6
CONTINUOUS
 62
    7
 10
244.18937889305323
 20
167.80626451646961
 40
0.0608883012790937
  0
CIRCLE
  8
_1-1_
  6
CONTINUOUS
 62
    7
 10
243.73233279666385
 20
166.66361215952281
 40
0.0608883012790937
  0
CIRCLE
  8
_1-1_
  6
CONTINUOUS
 62
    7
 10
245.04792084565034
 20
166.91746067356419
 40
0.0608883012790937
  0
CIRCLE
  8
_1-1_
  6
CONTINUOUS
 62
    7
 10
245.14914847709039
 20
167.32237119932432
 40
0.0608883012790937
  0
CIRCLE
  8
_1-1_
  6
CONTINUOUS
 62
    7
 10
244.47428110483531
 20
168.19968146246833
 40
0.0608883012790937
  0
CIRCLE
  8
_1-1_
  6
CONTINUOUS
 62
    7
 10
243.89356458509292
 20
166.49926262932857
 40
0.0608883012790937
  0
CIRCLE
  8
_1-1_
  6
CONTINUOUS
 62
    7
 10
243.66502916490711
 20
165.81366874076227
 40
0.0608883012790937
  0
CIRCLE
  8
_1-1_
  6
CONTINUOUS
 62
    7
 10
243.20798306851776
 20
164.67101638381547
 40
0.0608883012790937
  0
CIRCLE
  8
_1-1_
  6
CONTINUOUS
 62
    7
 10
244.52357111750425
 20
164.92486489785685
 40
0.0608883012790937
  0
CIRCLE
  8
_1-1_
  6
CONTINUOUS
 62
    7
 10
244.62479874894427
 20
165.32977542361698
 40
0.0608883012790937
  0
CIRCLE
  8
_1-1_
  6
CONTINUOUS
 62
    7
 10
243.94993137668919
 20
166.20708568676099
 40
0.0608883012790937
  0
CIRCLE
  8
_1-1_
  6
CONTINUOUS
 62
    7
 10
242.9714058540963
 20
166.51076858108109
 40
0.0608883012790937
  0
CIRCLE
  8
_1-1_
  6
CONTINUOUS
 62
    7
 10
244.52280405405406
 20
164.40180185678844
 40
0.0608883012790937
  0
CIRCLE
  8
_1-1_
  6
CONTINUOUS
 62
    7
 10
243.60064532305745
 20
164.41330780854096
 40
0.0608883012790937
  0
CIRCLE
  8
_1-1_
  6
CONTINUOUS
 62
    7
 10
246.62025245460305
 20
167.02362472946581
 40
0.0608883012790937
  0
CIRCLE
  8
_1-1_
  6
CONTINUOUS
 62
    7
 10
246.39171703441724
 20
166.33803084089951
 40
0.0608883012790937
  0
CIRCLE
  8
_1-1_
  6
CONTINUOUS
 62
    7
 10
245.93467093802789
 20
165.19537848395271
 40
0.0608883012790937
  0
CIRCLE
  8
_1-1_
  6
CONTINUOUS
 62
    7
 10
246.67661924619935
 20
166.73144778689823
 40
0.0608883012790937
  0
CIRCLE
  8
_1-1_
  6
CONTINUOUS
 62
    7
 10
245.69809372360643
 20
167.03513068121833
 40
0.0608883012790937
  0
CIRCLE
  8
_1-1_
  6
CONTINUOUS
 62
    7
 10
242.8253173828125
 20
167.22475618929477
 40
0.0608883012790937
  0
CIRCLE
  8
_1-1_
  6
CONTINUOUS
 62
    7
 10
243.42758591110643
 20
167.21762992240289
 40
0.0608883012790937
  0
CIRCLE
  8
_1-1_
  6
CONTINUOUS
 62
    7
 10
243.27419796505492
 20
166.94841539537586
 40
0.0608883012790937
  0
CIRCLE
  8
_1-1_
  6
CONTINUOUS
 62
    7
 10
243.04566254486909
 20
166.26282150680956
 40
0.0608883012790937
  0
CIRCLE
  8
_1-1_
  6
CONTINUOUS
 62
    7
 10
242.58861644847974
 20
165.12016914986276
 40
0.0608883012790937
  0
CIRCLE
  8
_1-1_
  6
CONTINUOUS
 62
    7
 10
243.90420449746622
 20
165.37401766390414
 40
0.0608883012790937
  0
CIRCLE
  8
_1-1_
  6
CONTINUOUS
 62
    7
 10
244.00543212890625
 20
165.77892818966427
 40
0.0608883012790937
  0
CIRCLE
  8
_1-1_
  6
CONTINUOUS
 62
    7
 10
243.3305647566512
 20
166.65623845280828
 40
0.0608883012790937
  0
CIRCLE
  8
_1-1_
  6
CONTINUOUS
 62
    7
 10
242.35203923405828
 20
166.95992134712839
 40
0.0608883012790937
  0
CIRCLE
  8
_1-1_
  6
CONTINUOUS
 62
    7
 10
246.42039530986065
 20
166.21429855759081
 40
0.0608883012790937
  0
CIRCLE
  8
_1-1_
  6
CONTINUOUS
 62
    7
 10
246.19185988967484
 20
165.52870466902451
 40
0.0608883012790937
  0
CIRCLE
  8
_1-1_
  6
CONTINUOUS
 62
    7
 10
245.7348137932855
 20
164.38605231207771
 40
0.0608883012790937
  0
CIRCLE
  8
_1-1_
  6
CONTINUOUS
 62
    7
 10
246.47676210145693
 20
165.92212161502323
 40
0.0608883012790937
  0
CIRCLE
  8
_1-1_
  6
CONTINUOUS
 62
    7
 10
245.49823657886404
 20
166.22580450934333
 40
0.0608883012790937
  0
CIRCLE
  8
_1-1_
  6
CONTINUOUS
 62
    7
 10
246.57378325591219
 20
166.79813281909841
 40
0.0608883012790937
  0
CIRCLE
  8
_1-1_
  6
CONTINUOUS
 62
    7
 10
243.88463200749578
 20
166.8920609757707
 40
0.0608883012790937
  0
CIRCLE
  8
_1-1_
  6
CONTINUOUS
 62
    7
 10
243.42758591110643
 20
165.74940861882391
 40
0.0608883012790937
  0
CIRCLE
  8
_1-1_
  6
CONTINUOUS
 62
    7
 10
244.74317396009292
 20
166.00325713286529
 40
0.0608883012790937
  0
CIRCLE
  8
_1-1_
  6
CONTINUOUS
 62
    7
 10
244.84440159153294
 20
166.40816765862544
 40
0.0608883012790937
  0
CIRCLE
  8
_1-1_
  6
CONTINUOUS
 62
    7
 10
244.16953421927789
 20
167.28547792176943
 40
0.0608883012790937
  0
CIRCLE
  8
_1-1_
  6
CONTINUOUS
 62
    7
 10
243.5888176995355
 20
165.58505908862966
 40
0.0608883012790937
  0
CIRCLE
  8
_1-1_
  6
CONTINUOUS
 62
    7
 10
243.36028227934969
 20
164.89946520006336
 40
0.0608883012790937
  0
CIRCLE
  8
_1-1_
  6
CONTINUOUS
 62
    7
 10
242.90323618296031
 20
163.75681284311656
 40
0.0608883012790937
  0
CIRCLE
  8
_1-1_
  6
CONTINUOUS
 62
    7
 10
244.2188242319468
 20
164.01066135715794
 40
0.0608883012790937
  0
CIRCLE
  8
_1-1_
  6
CONTINUOUS
 62
    7
 10
244.32005186338685
 20
164.41557188291807
 40
0.0608883012790937
  0
CIRCLE
  8
_1-1_
  6
CONTINUOUS
 62
    7
 10
243.64518449113177
 20
165.29288214606208
 40
0.0608883012790937
  0
CIRCLE
  8
_1-1_
  6
CONTINUOUS
 62
    7
 10
242.66665896853885
 20
165.59656504038219
 40
0.0608883012790937
  0
CIRCLE
  8
_1-1_
  6
CONTINUOUS
 62
    7
 10
244.21805716849664
 20
163.48759831608953
 40
0.0608883012790937
  0
CIRCLE
  8
_1-1_
  6
CONTINUOUS
 62
    7
 10
243.2958984375
 20
163.49910426784206
 40
0.0608883012790937
  0
CIRCLE
  8
_1-1_
  6
CONTINUOUS
 62
    7
 10
246.31550556904563
 20
166.1094211887669
 40
0.0608883012790937
  0
CIRCLE
  8
_1-1_
  6
CONTINUOUS
 62
    7
 10
246.08697014885982
 20
165.4238273002006
 40
0.0608883012790937
  0
CIRCLE
  8
_1-1_
  6
CONTINUOUS
 62
    7
 10
245.62992405247044
 20
164.2811749432538
 40
0.0608883012790937
  0
CIRCLE
  8
_1-1_
  6
CONTINUOUS
 62
    7
 10
246.3718723606419
 20
165.81724424619932
 40
0.0608883012790937
  0
CIRCLE
  8
_1-1_
  6
CONTINUOUS
 62
    7
 10
245.39334683804901
 20
166.12092714051943
 40
0.0608883012790937
  0
CIRCLE
  8
_1-1_
  6
CONTINUOUS
 62
    7
 10
242.21584835567992
 20
166.31055264859586
 40
0.0608883012790937
  0
CIRCLE
  8
_1-1_
  6
CONTINUOUS
 62
    7
 10
242.81811688397383
 20
166.30342638170399
 40
0.0608883012790937
  0
CIRCLE
  8
_1-1_
  6
CONTINUOUS
 62
    7
 10
242.66472893792232
 20
166.03421185467695
 40
0.0608883012790937
  0
CIRCLE
  8
_1-1_
  6
CONTINUOUS
 62
    7
 10
242.43619351773651
 20
165.34861796611065
 40
0.0608883012790937
  0
CIRCLE
  8
_1-1_
  6
CONTINUOUS
 62
    7
 10
241.97914742134714
 20
164.20596560916385
 40
0.0608883012790937
  0
CIRCLE
  8
_1-1_
  6
CONTINUOUS
 62
    7
 10
243.29473547033362
 20
164.45981412320523
 40
0.0608883012790937
  0
CIRCLE
  8
_1-1_
  6
CONTINUOUS
 62
    7
 10
243.39596310177367
 20
164.86472464896539
 40
0.0608883012790937
  0
CIRCLE
  8
_1-1_
  6
CONTINUOUS
 62
    7
 10
242.72109572951859
 20
165.74203491210937
 40
0.0608883012790937
  0
CIRCLE
  8
_1-1_
  6
CONTINUOUS
 62
    7
 10
241.74257020692568
 20
166.04571780642948
 40
0.0608883012790937
  0
CIRCLE
  8
_1-1_
  6
CONTINUOUS
 62
    7
 10
245.81092628272805
 20
165.3000950168919
 40
0.0608883012790937
  0
CIRCLE
  8
_1-1_
  6
CONTINUOUS
 62
    7
 10
245.58239086254224
 20
164.6145011283256
 40
0.0608883012790937
  0
CIRCLE
  8
_1-1_
  6
CONTINUOUS
 62
    7
 10
245.12534476615289
 20
163.4718487713788
 40
0.0608883012790937
  0
CIRCLE
  8
_1-1_
  6
CONTINUOUS
 62
    7
 10
245.86729307432435
 20
165.00791807432432
 40
0.0608883012790937
  0
CIRCLE
  8
_1-1_
  6
CONTINUOUS
 62
    7
 10
244.88876755173143
 20
165.31160096864443
 40
0.0608883012790937
  0
CIRCLE
  8
_1-1_
  6
CONTINUOUS
 62
    7
 10
245.96431422877959
 20
165.88392927839951
 40
0.0608883012790937
  0
CIRCLE
  8
_1-1_
  6
CONTINUOUS
 62
    7
 10
243.27516298036318
 20
165.9778574350718
 40
0.0608883012790937
  0
CIRCLE
  8
_1-1_
  6
CONTINUOUS
 62
    7
 10
242.81811688397383
 20
164.835205078125
 40
0.0608883012790937
  0
CIRCLE
  8
_1-1_
  6
CONTINUOUS
 62
    7
 10
244.13370493296031
 20
165.08905359216641
 40
0.0608883012790937
  0
CIRCLE
  8
_1-1_
  6
CONTINUOUS
 62
    7
 10
244.23493256440034
 20
165.49396411792654
 40
0.0608883012790937
  0
CIRCLE
  8
_1-1_
  6
CONTINUOUS
 62
    7
 10
243.56006519214529
 20
166.37127438107052
 40
0.0608883012790937
  0
CIRCLE
  8
_1-1_
  6
CONTINUOUS
 62
    7
 10
242.97934867240289
 20
164.67085554793076
 40
0.0608883012790937
  0
CIRCLE
  8
_1-1_
  6
CONTINUOUS
 62
    7
 10
242.75081325221709
 20
163.98526165936445
 40
0.0608883012790937
  0
CIRCLE
  8
_1-1_
  6
CONTINUOUS
 62
    7
 10
242.29376715582771
 20
162.84260930241766
 40
0.0608883012790937
  0
CIRCLE
  8
_1-1_
  6
CONTINUOUS
 62
    7
 10
243.60935520481419
 20
163.09645781645904
 40
0.0608883012790937
  0
CIRCLE
  8
_1-1_
  6
CONTINUOUS
 62
    7
 10
243.71058283625425
 20
163.50136834221919
 40
0.0608883012790937
  0
CIRCLE
  8
_1-1_
  6
CONTINUOUS
 62
    7
 10
243.03571546399917
 20
164.37867860536318
 40
0.0608883012790937
  0
CIRCLE
  8
_1-1_
  6
CONTINUOUS
 62
    7
 10
242.05718994140625
 20
164.68236149968328
 40
0.0608883012790937
  0
CIRCLE
  8
_1-1_
  6
CONTINUOUS
 62
    7
 10
243.60858814136404
 20
162.57339477539062
 40
0.0608883012790937
  0
CIRCLE
  8
_1-1_
  6
CONTINUOUS
 62
    7
 10
242.68642941036742
 20
162.58490072714318
 40
0.0608883012790937
  0
CIRCLE
  8
_1-1_
  6
CONTINUOUS
 62
    7
 10
245.70603654191302
 20
165.195217648068
 40
0.0608883012790937
  0
CIRCLE
  8
_1-1_
  6
CONTINUOUS
 62
    7
 10
245.47750112172722
 20
164.50962375950169
 40
0.0608883012790937
  0
CIRCLE
  8
_1-1_
  6
CONTINUOUS
 62
    7
 10
245.02045502533784
 20
163.3669714025549
 40
0.0608883012790937
  0
CIRCLE
  8
_1-1_
  6
CONTINUOUS
 62
    7
 10
245.7624033335093
 20
164.90304070550044
 40
0.0608883012790937
  0
CIRCLE
  8
_1-1_
  6
CONTINUOUS
 62
    7
 10
244.78387781091641
 20
165.20672359982052
 40
0.0608883012790937
  0
CIRCLE
  8
_1-1_
  6
CONTINUOUS
 62
    7
 10
241.5048052813556
 20
165.09161459433068
 40
0.0608883012790937
  0
CIRCLE
  8
_1-1_
  6
CONTINUOUS
 62
    7
 10
242.10707380964951
 20
165.08448832743878
 40
0.0608883012790937
  0
CIRCLE
  8
_1-1_
  6
CONTINUOUS
 62
    7
 10
241.953685863598
 20
164.81527380041175
 40
0.0608883012790937
  0
CIRCLE
  8
_1-1_
  6
CONTINUOUS
 62
    7
 10
241.72515044341216
 20
164.12967991184544
 40
0.0608883012790937
  0
CIRCLE
  8
_1-1_
  6
CONTINUOUS
 62
    7
 10
241.26810434702281
 20
162.98702755489865
 40
0.0608883012790937
  0
CIRCLE
  8
_1-1_
  6
CONTINUOUS
 62
    7
 10
242.5836923960093
 20
163.24087606894005
 40
0.0608883012790937
  0
CIRCLE
  8
_1-1_
  6
CONTINUOUS
 62
    7
 10
242.68492002744935
 20
163.64578659470018
 40
0.0608883012790937
  0
CIRCLE
  8
_1-1_
  6
CONTINUOUS
 62
    7
 10
242.01005265519427
 20
164.52309685784419
 40
0.0608883012790937
  0
CIRCLE
  8
_1-1_
  6
CONTINUOUS
 62
    7
 10
241.03152713260135
 20
164.82677975216427
 40
0.0608883012790937
  0
CIRCLE
  8
_1-1_
  6
CONTINUOUS
 62
    7
 10
245.09988320840372
 20
164.08115696262669
 40
0.0608883012790937
  0
CIRCLE
  8
_1-1_
  6
CONTINUOUS
 62
    7
 10
244.87134778821792
 20
163.39556307406039
 40
0.0608883012790937
  0
CIRCLE
  8
_1-1_
  6
CONTINUOUS
 62
    7
 10
244.41430169182857
 20
162.25291071711359
 40
0.0608883012790937
  0
CIRCLE
  8
_1-1_
  6
CONTINUOUS
 62
    7
 10
245.15625
 20
163.78898002005914
 40
0.0608883012790937
  0
CIRCLE
  8
_1-1_
  6
CONTINUOUS
 62
    7
 10
244.17772447740711
 20
164.09266291437922
 40
0.0608883012790937
  0
CIRCLE
  8
_1-1_
  6
CONTINUOUS
 62
    7
 10
245.25327115445526
 20
164.6649912241343
 40
0.0608883012790937
  0
CIRCLE
  8
_1-1_
  6
CONTINUOUS
 62
    7
 10
242.56411990603885
 20
164.75891938080659
 40
0.0608883012790937
  0
CIRCLE
  8
_1-1_
  6
CONTINUOUS
 62
    7
 10
242.10707380964951
 20
163.61626702385982
 40
0.0608883012790937
  0
CIRCLE
  8
_1-1_
  6
CONTINUOUS
 62
    7
 10
243.42266185863599
 20
163.8701155379012
 40
0.0608883012790937
  0
CIRCLE
  8
_1-1_
  6
CONTINUOUS
 62
    7
 10
243.52388949007602
 20
164.27502606366133
 40
0.0608883012790937
  0
CIRCLE
  8
_1-1_
  6
CONTINUOUS
 62
    7
 10
242.84902211782097
 20
165.15233632680534
 40
0.0608883012790937
  0
CIRCLE
  8
_1-1_
  6
CONTINUOUS
 62
    7
 10
242.26830559807857
 20
163.45191749366555
 40
0.0608883012790937
  0
CIRCLE
  8
_1-1_
  6
CONTINUOUS
 62
    7
 10
242.03977017789276
 20
162.76632360509925
 40
0.0608883012790937
  0
CIRCLE
  8
_1-1_
  6
CONTINUOUS
 62
    7
 10
241.58272408150339
 20
161.62367124815245
 40
0.0608883012790937
  0
CIRCLE
  8
_1-1_
  6
CONTINUOUS
 62
    7
 10
242.89831213048987
 20
161.87751976219386
 40
0.0608883012790937
  0
CIRCLE
  8
_1-1_
  6
CONTINUOUS
 62
    7
 10
242.99953976192992
 20
162.28243028795399
 40
0.0608883012790937
  0
CIRCLE
  8
_1-1_
  6
CONTINUOUS
 62
    7
 10
242.32467238967484
 20
163.15974055109797
 40
0.0608883012790937
  0
CIRCLE
  8
_1-1_
  6
CONTINUOUS
 62
    7
 10
241.34614686708193
 20
163.46342344541807
 40
0.0608883012790937
  0
CIRCLE
  8
_1-1_
  6
CONTINUOUS
 62
    7
 10
242.89754506703972
 20
161.35445672112544
 40
0.0608883012790937
  0
CIRCLE
  8
_1-1_
  6
CONTINUOUS
 62
    7
 10
241.9753863360431
 20
161.36596267287797
 40
0.0608883012790937
  0
CIRCLE
  8
_1-1_
  6
CONTINUOUS
 62
    7
 10
244.9949934675887
 20
163.97627959380279
 40
0.0608883012790937
  0
CIRCLE
  8
_1-1_
  6
CONTINUOUS
 62
    7
 10
244.76645804740289
 20
163.29068570523648
 40
0.0608883012790937
  0
CIRCLE
  8
_1-1_
  6
CONTINUOUS
 62
    7
 10
244.30941195101352
 20
162.14803334828972
 40
0.0608883012790937
  0
CIRCLE
  8
_1-1_
  6
CONTINUOUS
 62
    7
 10
245.05136025918497
 20
163.68410265123524
 40
0.0608883012790937
  0
CIRCLE
  8
_1-1_
  6
CONTINUOUS
 62
    7
 10
244.07283473659209
 20
163.98778554555534
 40
0.0608883012790937
  0
CIRCLE
  8
_1-1_
  6
CONTINUOUS
 62
    7
 10
242.52057049725508
 20
164.17741105363177
 40
0.0608883012790937
  0
CIRCLE
  8
_1-1_
  6
CONTINUOUS
 62
    7
 10
243.12283902554901
 20
164.17028478673987
 40
0.0608883012790937
  0
CIRCLE
  8
_1-1_
  6
CONTINUOUS
 62
    7
 10
242.96945107949747
 20
163.90107025971284
 40
0.0608883012790937
  0
CIRCLE
  8
_1-1_
  6
CONTINUOUS
 62
    7
 10
242.74091565931167
 20
163.21547637114654
 40
0.0608883012790937
  0
CIRCLE
  8
_1-1_
  6
CONTINUOUS
 62
    7
 10
242.28386956292232
 20
162.07282401419977
 40
0.0608883012790937
  0
CIRCLE
  8
_1-1_
  6
CONTINUOUS
 62
    7
 10
243.5994576119088
 20
162.32667252824115
 40
0.0608883012790937
  0
CIRCLE
  8
_1-1_
  6
CONTINUOUS
 62
    7
 10
243.70068524334883
 20
162.73158305400128
 40
0.0608883012790937
  0
CIRCLE
  8
_1-1_
  6
CONTINUOUS
 62
    7
 10
243.02581787109375
 20
163.60889331714529
 40
0.0608883012790937
  0
CIRCLE
  8
_1-1_
  6
CONTINUOUS
 62
    7
 10
242.04729234850086
 20
163.91257621146539
 40
0.0608883012790937
  0
CIRCLE
  8
_1-1_
  6
CONTINUOUS
 62
    7
 10
246.11564842430323
 20
163.16695342192779
 40
0.0608883012790937
  0
CIRCLE
  8
_1-1_
  6
CONTINUOUS
 62
    7
 10
245.88711300411742
 20
162.48135953336148
 40
0.0608883012790937
  0
CIRCLE
  8
_1-1_
  6
CONTINUOUS
 62
    7
 10
245.43006690772805
 20
161.33870717641472
 40
0.0608883012790937
  0
CIRCLE
  8
_1-1_
  6
CONTINUOUS
 62
    7
 10
246.17201521589951
 20
162.87477647936024
 40
0.0608883012790937
  0
CIRCLE
  8
_1-1_
  6
CONTINUOUS
 62
    7
 10
245.19348969330659
 20
163.17845937368034
 40
0.0608883012790937
  0
CIRCLE
  8
_1-1_
  6
CONTINUOUS
 62
    7
 10
246.26903637035474
 20
163.75078768343539
 40
0.0608883012790937
  0
CIRCLE
  8
_1-1_
  6
CONTINUOUS
 62
    7
 10
243.57988512193836
 20
163.84471584010768
 40
0.0608883012790937
  0
CIRCLE
  8
_1-1_
  6
CONTINUOUS
 62
    7
 10
243.12283902554901
 20
162.70206348316091
 40
0.0608883012790937
  0
CIRCLE
  8
_1-1_
  6
CONTINUOUS
 62
    7
 10
244.4384270745355
 20
162.95591199720229
 40
0.0608883012790937
  0
CIRCLE
  8
_1-1_
  6
CONTINUOUS
 62
    7
 10
244.53965470597552
 20
163.36082252296242
 40
0.0608883012790937
  0
CIRCLE
  8
_1-1_
  6
CONTINUOUS
 62
    7
 10
243.86478733372044
 20
164.23813278610643
 40
0.0608883012790937
  0
CIRCLE
  8
_1-1_
  6
CONTINUOUS
 62
    7
 10
243.28407081397805
 20
162.53771395296664
 40
0.0608883012790937
  0
CIRCLE
  8
_1-1_
  6
CONTINUOUS
 62
    7
 10
243.05553539379224
 20
161.85212006440034
 40
0.0608883012790937
  0
CIRCLE
  8
_1-1_
  6
CONTINUOUS
 62
    7
 10
242.59848929740289
 20
160.70946770745357
 40
0.0608883012790937
  0
CIRCLE
  8
_1-1_
  6
CONTINUOUS
 62
    7
 10
243.91407734638938
 20
160.96331622149495
 40
0.0608883012790937
  0
CIRCLE
  8
_1-1_
  6
CONTINUOUS
 62
    7
 10
244.0153049778294
 20
161.36822674725508
 40
0.0608883012790937
  0
CIRCLE
  8
_1-1_
  6
CONTINUOUS
 62
    7
 10
243.34043760557435
 20
162.24553701039909
 40
0.0608883012790937
  0
CIRCLE
  8
_1-1_
  6
CONTINUOUS
 62
    7
 10
242.36191208298143
 20
162.54921990471919
 40
0.0608883012790937
  0
CIRCLE
  8
_1-1_
  6
CONTINUOUS
 62
    7
 10
243.91331028293919
 20
160.44025318042654
 40
0.0608883012790937
  0
CIRCLE
  8
_1-1_
  6
CONTINUOUS
 62
    7
 10
242.99115155194258
 20
160.45175913217906
 40
0.0608883012790937
  0
CIRCLE
  8
_1-1_
  6
CONTINUOUS
 62
    7
 10
246.01075868348818
 20
163.06207605310391
 40
0.0608883012790937
  0
CIRCLE
  8
_1-1_
  6
CONTINUOUS
 62
    7
 10
245.78222326330237
 20
162.37648216453761
 40
0.0608883012790937
  0
CIRCLE
  8
_1-1_
  6
CONTINUOUS
 62
    7
 10
245.32517716691302
 20
161.23382980759081
 40
0.0608883012790937
  0
CIRCLE
  8
_1-1_
  6
CONTINUOUS
 62
    7
 10
246.06712547508448
 20
162.76989911053633
 40
0.0608883012790937
  0
CIRCLE
  8
_1-1_
  6
CONTINUOUS
 62
    7
 10
245.08859995249156
 20
163.07358200485643
 40
0.0608883012790937
  0
CIRCLE
  8
_1-1_
  6
CONTINUOUS
 62
    7
 10
245.97423656566724
 20
163.97426295924831
 40
0.0608883012790937
  0
CIRCLE
  8
_1-1_
  6
CONTINUOUS
 62
    7
 10
246.57650509396117
 20
163.96713669235643
 40
0.0608883012790937
  0
CIRCLE
  8
_1-1_
  6
CONTINUOUS
 62
    7
 10
246.42311714790964
 20
163.6979221653294
 40
0.0608883012790937
  0
CIRCLE
  8
_1-1_
  6
CONTINUOUS
 62
    7
 10
246.19458172772383
 20
163.0123282767631
 40
0.0608883012790937
  0
CIRCLE
  8
_1-1_
  6
CONTINUOUS
 62
    7
 10
245.73753563133448
 20
161.8696759198163
 40
0.0608883012790937
  0
CIRCLE
  8
_1-1_
  6
CONTINUOUS
 62
    7
 10
247.05312368032097
 20
162.12352443385768
 40
0.0608883012790937
  0
CIRCLE
  8
_1-1_
  6
CONTINUOUS
 62
    7
 10
247.15435131176099
 20
162.52843495961784
 40
0.0608883012790937
  0
CIRCLE
  8
_1-1_
  6
CONTINUOUS
 62
    7
 10
246.47948393950594
 20
163.40574522276182
 40
0.0608883012790937
  0
CIRCLE
  8
_1-1_
  6
CONTINUOUS
 62
    7
 10
245.50095841691302
 20
163.70942811708193
 40
0.0608883012790937
  0
CIRCLE
  8
_1-1_
  6
CONTINUOUS
 62
    7
 10
249.56931449271539
 20
162.96380532754435
 40
0.0608883012790937
  0
CIRCLE
  8
_1-1_
  6
CONTINUOUS
 62
    7
 10
249.34077907252959
 20
162.27821143897805
 40
0.0608883012790937
  0
CIRCLE
  8
_1-1_
  6
CONTINUOUS
 62
    7
 10
249.62568128431167
 20
162.67162838497677
 40
0.0608883012790937
  0
CIRCLE
  8
_1-1_
  6
CONTINUOUS
 62
    7
 10
248.64715576171875
 20
162.97531127929687
 40
0.0608883012790937
  0
CIRCLE
  8
_1-1_
  6
CONTINUOUS
 62
    7
 10
249.7227024387669
 20
163.54763958905195
 40
0.0608883012790937
  0
CIRCLE
  8
_1-1_
  6
CONTINUOUS
 62
    7
 10
247.03355119035052
 20
163.64156774572425
 40
0.0608883012790937
  0
CIRCLE
  8
_1-1_
  6
CONTINUOUS
 62
    7
 10
246.57650509396117
 20
162.49891538877745
 40
0.0608883012790937
  0
CIRCLE
  8
_1-1_
  6
CONTINUOUS
 62
    7
 10
247.89209314294766
 20
162.75276390281886
 40
0.0608883012790937
  0
CIRCLE
  8
_1-1_
  6
CONTINUOUS
 62
    7
 10
247.99332077438768
 20
163.15767442857899
 40
0.0608883012790937
  0
CIRCLE
  8
_1-1_
  6
CONTINUOUS
 62
    7
 10
247.3184534021326
 20
164.03498469172297
 40
0.0608883012790937
  0
CIRCLE
  8
_1-1_
  6
CONTINUOUS
 62
    7
 10
246.73773688239021
 20
162.3345658585832
 40
0.0608883012790937
  0
CIRCLE
  8
_1-1_
  6
CONTINUOUS
 62
    7
 10
246.5092014622044
 20
161.6489719700169
 40
0.0608883012790937
  0
CIRCLE
  8
_1-1_
  6
CONTINUOUS
 62
    7
 10
246.05215536581505
 20
160.5063196130701
 40
0.0608883012790937
  0
CIRCLE
  8
_1-1_
  6
CONTINUOUS
 62
    7
 10
247.46897104624156
 20
161.16507865287164
 40
0.0608883012790937
  0
CIRCLE
  8
_1-1_
  6
CONTINUOUS
 62
    7
 10
246.79410367398651
 20
162.04238891601562
 40
0.0608883012790937
  0
CIRCLE
  8
_1-1_
  6
CONTINUOUS
 62
    7
 10
245.81557815139359
 20
162.34607181033573
 40
0.0608883012790937
  0
CIRCLE
  8
_1-1_
  6
CONTINUOUS
 62
    7
 10
249.46442475190034
 20
162.85892795872044
 40
0.0608883012790937
  0
CIRCLE
  8
_1-1_
  6
CONTINUOUS
 62
    7
 10
249.23588933171453
 20
162.17333407015414
 40
0.0608883012790937
  0
CIRCLE
  8
_1-1_
  6
CONTINUOUS
 62
    7
 10
249.52079154349664
 20
162.56675101615289
 40
0.0608883012790937
  0
CIRCLE
  8
_1-1_
  6
CONTINUOUS
 62
    7
 10
248.54226602090372
 20
162.87043391047297
 40
0.0608883012790937
  0
CIRCLE
  8
_1-1_
  6
CONTINUOUS
 62
    7
 10
247.19317461993245
 20
163.16163346574115
 40
0.0608883012790937
  0
CIRCLE
  8
_1-1_
  6
CONTINUOUS
 62
    7
 10
247.79544314822635
 20
163.15450719884925
 40
0.0608883012790937
  0
CIRCLE
  8
_1-1_
  6
CONTINUOUS
 62
    7
 10
247.64205520217484
 20
162.88529267182221
 40
0.0608883012790937
  0
CIRCLE
  8
_1-1_
  6
CONTINUOUS
 62
    7
 10
247.41351978198904
 20
162.19969878325591
 40
0.0608883012790937
  0
CIRCLE
  8
_1-1_
  6
CONTINUOUS
 62
    7
 10
248.27206173458617
 20
161.31089494035052
 40
0.0608883012790937
  0
CIRCLE
  8
_1-1_
  6
CONTINUOUS
 62
    7
 10
248.3732893660262
 20
161.71580546611065
 40
0.0608883012790937
  0
CIRCLE
  8
_1-1_
  6
CONTINUOUS
 62
    7
 10
247.69842199377112
 20
162.59311572925466
 40
0.0608883012790937
  0
CIRCLE
  8
_1-1_
  6
CONTINUOUS
 62
    7
 10
246.71989647117823
 20
162.89679862357477
 40
0.0608883012790937
  0
CIRCLE
  8
_1-1_
  6
CONTINUOUS
 62
    7
 10
250.7882525469806
 20
162.15117583403716
 40
0.0608883012790937
  0
CIRCLE
  8
_1-1_
  6
CONTINUOUS
 62
    7
 10
250.55971712679477
 20
161.46558194547086
 40
0.0608883012790937
  0
CIRCLE
  8
_1-1_
  6
CONTINUOUS
 62
    7
 10
250.84461933857688
 20
161.85899889146961
 40
0.0608883012790937
  0
CIRCLE
  8
_1-1_
  6
CONTINUOUS
 62
    7
 10
249.86609381598396
 20
162.16268178578972
 40
0.0608883012790937
  0
CIRCLE
  8
_1-1_
  6
CONTINUOUS
 62
    7
 10
250.94164049303211
 20
162.73501009554477
 40
0.0608883012790937
  0
CIRCLE
  8
_1-1_
  6
CONTINUOUS
 62
    7
 10
248.25248924461573
 20
162.82893825221706
 40
0.0608883012790937
  0
CIRCLE
  8
_1-1_
  6
CONTINUOUS
 62
    7
 10
247.79544314822635
 20
161.68628589527029
 40
0.0608883012790937
  0
CIRCLE
  8
_1-1_
  6
CONTINUOUS
 62
    7
 10
249.11103119721284
 20
161.94013440931167
 40
0.0608883012790937
  0
CIRCLE
  8
_1-1_
  6
CONTINUOUS
 62
    7
 10
249.21225882865289
 20
162.3450449350718
 40
0.0608883012790937
  0
CIRCLE
  8
_1-1_
  6
CONTINUOUS
 62
    7
 10
248.53739145639781
 20
163.22235519821581
 40
0.0608883012790937
  0
CIRCLE
  8
_1-1_
  6
CONTINUOUS
 62
    7
 10
247.95667493665542
 20
161.52193636507602
 40
0.0608883012790937
  0
CIRCLE
  8
_1-1_
  6
CONTINUOUS
 62
    7
 10
248.01304172825169
 20
161.22975942250847
 40
0.0608883012790937
  0
CIRCLE
  8
_1-1_
  6
CONTINUOUS
 62
    7
 10
247.0345162056588
 20
161.53344231682857
 40
0.0608883012790937
  0
CIRCLE
  8
_1-1_
  6
CONTINUOUS
 62
    7
 10
250.68336280616555
 20
162.04629846521328
 40
0.0608883012790937
  0
CIRCLE
  8
_1-1_
  6
CONTINUOUS
 62
    7
 10
250.45482738597974
 20
161.36070457664698
 40
0.0608883012790937
  0
CIRCLE
  8
_1-1_
  6
CONTINUOUS
 62
    7
 10
250.73972959776185
 20
161.7541215226457
 40
0.0608883012790937
  0
CIRCLE
  8
_1-1_
  6
CONTINUOUS
 62
    7
 10
249.76120407516893
 20
162.05780441696581
 40
0.0608883012790937
  0
CIRCLE
  8
_1-1_
  6
CONTINUOUS
 62
    7
 10
248.51368672138938
 20
166.31055264859586
 40
0.0608883012790937
  0
CIRCLE
  8
_1-1_
  6
CONTINUOUS
 62
    7
 10
249.11595524968328
 20
166.30342638170399
 40
0.0608883012790937
  0
CIRCLE
  8
_1-1_
  6
CONTINUOUS
 62
    7
 10
248.96256730363177
 20
166.03421185467695
 40
0.0608883012790937
  0
CIRCLE
  8
_1-1_
  6
CONTINUOUS
 62
    7
 10
248.73403188344597
 20
165.34861796611065
 40
0.0608883012790937
  0
CIRCLE
  8
_1-1_
  6
CONTINUOUS
 62
    7
 10
248.27698578705659
 20
164.20596560916385
 40
0.0608883012790937
  0
CIRCLE
  8
_1-1_
  6
CONTINUOUS
 62
    7
 10
249.5925738360431
 20
164.45981412320523
 40
0.0608883012790937
  0
CIRCLE
  8
_1-1_
  6
CONTINUOUS
 62
    7
 10
249.69380146748313
 20
164.86472464896539
 40
0.0608883012790937
  0
CIRCLE
  8
_1-1_
  6
CONTINUOUS
 62
    7
 10
249.01893409522805
 20
165.74203491210937
 40
0.0608883012790937
  0
CIRCLE
  8
_1-1_
  6
CONTINUOUS
 62
    7
 10
248.04040857263516
 20
166.04571780642948
 40
0.0608883012790937
  0
CIRCLE
  8
_1-1_
  6
CONTINUOUS
 62
    7
 10
252.1087646484375
 20
165.3000950168919
 40
0.0608883012790937
  0
CIRCLE
  8
_1-1_
  6
CONTINUOUS
 62
    7
 10
251.88022922825169
 20
164.6145011283256
 40
0.0608883012790937
  0
CIRCLE
  8
_1-1_
  6
CONTINUOUS
 62
    7
 10
251.42318313186234
 20
163.4718487713788
 40
0.0608883012790937
  0
CIRCLE
  8
_1-1_
  6
CONTINUOUS
 62
    7
 10
252.1651314400338
 20
165.00791807432432
 40
0.0608883012790937
  0
CIRCLE
  8
_1-1_
  6
CONTINUOUS
 62
    7
 10
251.18660591744089
 20
165.31160096864443
 40
0.0608883012790937
  0
CIRCLE
  8
_1-1_
  6
CONTINUOUS
 62
    7
 10
252.26215259448904
 20
165.88392927839951
 40
0.0608883012790937
  0
CIRCLE
  8
_1-1_
  6
CONTINUOUS
 62
    7
 10
249.57300134607266
 20
165.9778574350718
 40
0.0608883012790937
  0
CIRCLE
  8
_1-1_
  6
CONTINUOUS
 62
    7
 10
249.11595524968328
 20
164.835205078125
 40
0.0608883012790937
  0
CIRCLE
  8
_1-1_
  6
CONTINUOUS
 62
    7
 10
250.43154329866977
 20
165.08905359216641
 40
0.0608883012790937
  0
CIRCLE
  8
_1-1_
  6
CONTINUOUS
 62
    7
 10
250.53277093010982
 20
165.49396411792654
 40
0.0608883012790937
  0
CIRCLE
  8
_1-1_
  6
CONTINUOUS
 62
    7
 10
249.85790355785474
 20
166.37127438107052
 40
0.0608883012790937
  0
CIRCLE
  8
_1-1_
  6
CONTINUOUS
 62
    7
 10
249.27718703811234
 20
164.67085554793076
 40
0.0608883012790937
  0
CIRCLE
  8
_1-1_
  6
CONTINUOUS
 62
    7
 10
249.04865161792654
 20
163.98526165936445
 40
0.0608883012790937
  0
CIRCLE
  8
_1-1_
  6
CONTINUOUS
 62
    7
 10
248.59160552153719
 20
162.84260930241766
 40
0.0608883012790937
  0
CIRCLE
  8
_1-1_
  6
CONTINUOUS
 62
    7
 10
249.90719357052367
 20
163.09645781645904
 40
0.0608883012790937
  0
CIRCLE
  8
_1-1_
  6
CONTINUOUS
 62
    7
 10
250.0084212019637
 20
163.50136834221919
 40
0.0608883012790937
  0
CIRCLE
  8
_1-1_
  6
CONTINUOUS
 62
    7
 10
249.33355382970862
 20
164.37867860536318
 40
0.0608883012790937
  0
CIRCLE
  8
_1-1_
  6
CONTINUOUS
 62
    7
 10
248.35502830711573
 20
164.68236149968328
 40
0.0608883012790937
  0
CIRCLE
  8
_1-1_
  6
CONTINUOUS
 62
    7
 10
249.90642650707349
 20
162.57339477539062
 40
0.0608883012790937
  0
CIRCLE
  8
_1-1_
  6
CONTINUOUS
 62
    7
 10
248.98426777607688
 20
162.58490072714318
 40
0.0608883012790937
  0
CIRCLE
  8
_1-1_
  6
CONTINUOUS
 62
    7
 10
252.00387490762247
 20
165.195217648068
 40
0.0608883012790937
  0
CIRCLE
  8
_1-1_
  6
CONTINUOUS
 62
    7
 10
251.77533948743667
 20
164.50962375950169
 40
0.0608883012790937
  0
CIRCLE
  8
_1-1_
  6
CONTINUOUS
 62
    7
 10
251.31829339104732
 20
163.3669714025549
 40
0.0608883012790937
  0
CIRCLE
  8
_1-1_
  6
CONTINUOUS
 62
    7
 10
252.06024169921875
 20
164.90304070550044
 40
0.0608883012790937
  0
CIRCLE
  8
_1-1_
  6
CONTINUOUS
 62
    7
 10
251.08171617662586
 20
165.20672359982052
 40
0.0608883012790937
  0
CIRCLE
  8
_1-1_
  6
CONTINUOUS
 62
    7
 10
248.71685955975508
 20
171.59261342641472
 40
0.0608883012790937
  0
CIRCLE
  8
_1-1_
  6
CONTINUOUS
 62
    7
 10
249.31912808804901
 20
171.58548715952281
 40
0.0608883012790937
  0
CIRCLE
  8
_1-1_
  6
CONTINUOUS
 62
    7
 10
249.16574014199747
 20
171.31627263249578
 40
0.0608883012790937
  0
CIRCLE
  8
_1-1_
  6
CONTINUOUS
 62
    7
 10
248.93720472181167
 20
170.63067874392948
 40
0.0608883012790937
  0
CIRCLE
  8
_1-1_
  6
CONTINUOUS
 62
    7
 10
248.48015862542232
 20
169.48802638698268
 40
0.0608883012790937
  0
CIRCLE
  8
_1-1_
  6
CONTINUOUS
 62
    7
 10
249.7957466744088
 20
169.74187490102409
 40
0.0608883012790937
  0
CIRCLE
  8
_1-1_
  6
CONTINUOUS
 62
    7
 10
249.89697430584883
 20
170.14678542678422
 40
0.0608883012790937
  0
CIRCLE
  8
_1-1_
  6
CONTINUOUS
 62
    7
 10
249.22210693359375
 20
171.02409568992823
 40
0.0608883012790937
  0
CIRCLE
  8
_1-1_
  6
CONTINUOUS
 62
    7
 10
248.24358141100086
 20
171.32777858424831
 40
0.0608883012790937
  0
CIRCLE
  8
_1-1_
  6
CONTINUOUS
 62
    7
 10
252.31193748680323
 20
170.58215579471073
 40
0.0608883012790937
  0
CIRCLE
  8
_1-1_
  6
CONTINUOUS
 62
    7
 10
252.08340206661742
 20
169.89656190614443
 40
0.0608883012790937
  0
CIRCLE
  8
_1-1_
  6
CONTINUOUS
 62
    7
 10
251.62635597022805
 20
168.75390954919766
 40
0.0608883012790937
  0
CIRCLE
  8
_1-1_
  6
CONTINUOUS
 62
    7
 10
252.36830427839951
 20
170.28997885214318
 40
0.0608883012790937
  0
CIRCLE
  8
_1-1_
  6
CONTINUOUS
 62
    7
 10
251.38977875580659
 20
170.59366174646328
 40
0.0608883012790937
  0
CIRCLE
  8
_1-1_
  6
CONTINUOUS
 62
    7
 10
252.46532543285474
 20
171.16599005621833
 40
0.0608883012790937
  0
CIRCLE
  8
_1-1_
  6
CONTINUOUS
 62
    7
 10
249.77617418443836
 20
171.25991821289062
 40
0.0608883012790937
  0
CIRCLE
  8
_1-1_
  6
CONTINUOUS
 62
    7
 10
249.31912808804901
 20
170.11726585594386
 40
0.0608883012790937
  0
CIRCLE
  8
_1-1_
  6
CONTINUOUS
 62
    7
 10
250.6347161370355
 20
170.37111436998524
 40
0.0608883012790937
  0
CIRCLE
  8
_1-1_
  6
CONTINUOUS
 62
    7
 10
250.73594376847552
 20
170.77602489574537
 40
0.0608883012790937
  0
CIRCLE
  8
_1-1_
  6
CONTINUOUS
 62
    7
 10
250.06107639622044
 20
171.65333515888938
 40
0.0608883012790937
  0
CIRCLE
  8
_1-1_
  6
CONTINUOUS
 62
    7
 10
249.48035987647805
 20
169.95291632574958
 40
0.0608883012790937
  0
CIRCLE
  8
_1-1_
  6
CONTINUOUS
 62
    7
 10
249.25182445629224
 20
169.26732243718328
 40
0.0608883012790937
  0
CIRCLE
  8
_1-1_
  6
CONTINUOUS
 62
    7
 10
248.79477835990289
 20
168.12467008023648
 40
0.0608883012790937
  0
CIRCLE
  8
_1-1_
  6
CONTINUOUS
 62
    7
 10
250.11036640888938
 20
168.37851859427789
 40
0.0608883012790937
  0
CIRCLE
  8
_1-1_
  6
CONTINUOUS
 62
    7
 10
250.2115940403294
 20
168.78342912003802
 40
0.0608883012790937
  0
CIRCLE
  8
_1-1_
  6
CONTINUOUS
 62
    7
 10
249.53672666807435
 20
169.66073938318203
 40
0.0608883012790937
  0
CIRCLE
  8
_1-1_
  6
CONTINUOUS
 62
    7
 10
248.55820114548143
 20
169.96442227750211
 40
0.0608883012790937
  0
CIRCLE
  8
_1-1_
  6
CONTINUOUS
 62
    7
 10
250.10959934543919
 20
167.85545555320948
 40
0.0608883012790937
  0
CIRCLE
  8
_1-1_
  6
CONTINUOUS
 62
    7
 10
249.18744061444258
 20
167.86696150496201
 40
0.0608883012790937
  0
CIRCLE
  8
_1-1_
  6
CONTINUOUS
 62
    7
 10
252.20704774598818
 20
170.47727842588682
 40
0.0608883012790937
  0
CIRCLE
  8
_1-1_
  6
CONTINUOUS
 62
    7
 10
251.97851232580237
 20
169.79168453732052
 40
0.0608883012790937
  0
CIRCLE
  8
_1-1_
  6
CONTINUOUS
 62
    7
 10
251.52146622941302
 20
168.64903218037375
 40
0.0608883012790937
  0
CIRCLE
  8
_1-1_
  6
CONTINUOUS
 62
    7
 10
252.26341453758448
 20
170.18510148331927
 40
0.0608883012790937
  0
CIRCLE
  8
_1-1_
  6
CONTINUOUS
 62
    7
 10
251.28488901499156
 20
170.48878437763938
 40
0.0608883012790937
  0
CIRCLE
  8
_1-1_
  6
CONTINUOUS
 62
    7
 10
249.2247297957137
 20
176.36677922429266
 40
0.0608883012790937
  0
CIRCLE
  8
_1-1_
  6
CONTINUOUS
 62
    7
 10
249.8269983240076
 20
176.35965295740078
 40
0.0608883012790937
  0
CIRCLE
  8
_1-1_
  6
CONTINUOUS
 62
    7
 10
249.67361037795609
 20
176.09043843037375
 40
0.0608883012790937
  0
CIRCLE
  8
_1-1_
  6
CONTINUOUS
 62
    7
 10
249.44507495777029
 20
175.40484454180745
 40
0.0608883012790937
  0
CIRCLE
  8
_1-1_
  6
CONTINUOUS
 62
    7
 10
248.98802886138094
 20
174.26219218486065
 40
0.0608883012790937
  0
CIRCLE
  8
_1-1_
  6
CONTINUOUS
 62
    7
 10
250.30361691036742
 20
174.51604069890203
 40
0.0608883012790937
  0
CIRCLE
  8
_1-1_
  6
CONTINUOUS
 62
    7
 10
250.40484454180745
 20
174.92095122466216
 40
0.0608883012790937
  0
CIRCLE
  8
_1-1_
  6
CONTINUOUS
 62
    7
 10
249.72997716955237
 20
175.79826148780617
 40
0.0608883012790937
  0
CIRCLE
  8
_1-1_
  6
CONTINUOUS
 62
    7
 10
248.75145164695948
 20
176.10194438212628
 40
0.0608883012790937
  0
CIRCLE
  8
_1-1_
  6
CONTINUOUS
 62
    7
 10
252.81980772276185
 20
175.3563215925887
 40
0.0608883012790937
  0
CIRCLE
  8
_1-1_
  6
CONTINUOUS
 62
    7
 10
252.59127230257602
 20
174.6707277040224
 40
0.0608883012790937
  0
CIRCLE
  8
_1-1_
  6
CONTINUOUS
 62
    7
 10
252.13422620618667
 20
173.5280753470756
 40
0.0608883012790937
  0
CIRCLE
  8
_1-1_
  6
CONTINUOUS
 62
    7
 10
252.87617451435813
 20
175.06414465002112
 40
0.0608883012790937
  0
CIRCLE
  8
_1-1_
  6
CONTINUOUS
 62
    7
 10
251.89764899176521
 20
175.36782754434122
 40
0.0608883012790937
  0
CIRCLE
  8
_1-1_
  6
CONTINUOUS
 62
    7
 10
252.97319566881336
 20
175.9401558540963
 40
0.0608883012790937
  0
CIRCLE
  8
_1-1_
  6
CONTINUOUS
 62
    7
 10
250.28404442039698
 20
176.03408401076859
 40
0.0608883012790937
  0
CIRCLE
  8
_1-1_
  6
CONTINUOUS
 62
    7
 10
249.8269983240076
 20
174.8914316538218
 40
0.0608883012790937
  0
CIRCLE
  8
_1-1_
  6
CONTINUOUS
 62
    7
 10
251.14258637299409
 20
175.14528016786318
 40
0.0608883012790937
  0
CIRCLE
  8
_1-1_
  6
CONTINUOUS
 62
    7
 10
251.24381400443414
 20
175.55019069362331
 40
0.0608883012790937
  0
CIRCLE
  8
_1-1_
  6
CONTINUOUS
 62
    7
 10
250.56894663217906
 20
176.42750095676732
 40
0.0608883012790937
  0
CIRCLE
  8
_1-1_
  6
CONTINUOUS
 62
    7
 10
249.98823011243667
 20
174.72708212362755
 40
0.0608883012790937
  0
CIRCLE
  8
_1-1_
  6
CONTINUOUS
 62
    7
 10
249.75969469225086
 20
174.04148823506125
 40
0.0608883012790937
  0
CIRCLE
  8
_1-1_
  6
CONTINUOUS
 62
    7
 10
249.30264859586151
 20
172.89883587811445
 40
0.0608883012790937
  0
CIRCLE
  8
_1-1_
  6
CONTINUOUS
 62
    7
 10
250.618236644848
 20
173.15268439215583
 40
0.0608883012790937
  0
CIRCLE
  8
_1-1_
  6
CONTINUOUS
 62
    7
 10
250.71946427628802
 20
173.55759491791596
 40
0.0608883012790937
  0
CIRCLE
  8
_1-1_
  6
CONTINUOUS
 62
    7
 10
250.04459690403294
 20
174.43490518105997
 40
0.0608883012790937
  0
CIRCLE
  8
_1-1_
  6
CONTINUOUS
 62
    7
 10
249.06607138144005
 20
174.73858807538008
 40
0.0608883012790937
  0
CIRCLE
  8
_1-1_
  6
CONTINUOUS
 62
    7
 10
250.61746958139781
 20
172.62962135108742
 40
0.0608883012790937
  0
CIRCLE
  8
_1-1_
  6
CONTINUOUS
 62
    7
 10
249.6953108504012
 20
172.64112730283995
 40
0.0608883012790937
  0
CIRCLE
  8
_1-1_
  6
CONTINUOUS
 62
    7
 10
252.7149179819468
 20
175.25144422376479
 40
0.0608883012790937
  0
CIRCLE
  8
_1-1_
  6
CONTINUOUS
 62
    7
 10
252.48638256176099
 20
174.56585033519849
 40
0.0608883012790937
  0
CIRCLE
  8
_1-1_
  6
CONTINUOUS
 62
    7
 10
252.02933646537164
 20
173.42319797825169
 40
0.0608883012790937
  0
CIRCLE
  8
_1-1_
  6
CONTINUOUS
 62
    7
 10
252.7712847735431
 20
174.95926728119721
 40
0.0608883012790937
  0
CIRCLE
  8
_1-1_
  6
CONTINUOUS
 62
    7
 10
251.79275925095018
 20
175.26295017551732
 40
0.0608883012790937
  0
CIRCLE
  8
_1-1_
  6
CONTINUOUS
 62
    7
 10
249.63105072846284
 20
179.71885887352198
 40
0.0608883012790937
  0
CIRCLE
  8
_1-1_
  6
CONTINUOUS
 62
    7
 10
250.23331925675677
 20
179.71173260663008
 40
0.0608883012790937
  0
CIRCLE
  8
_1-1_
  6
CONTINUOUS
 62
    7
 10
250.07993131070526
 20
179.44251807960305
 40
0.0608883012790937
  0
CIRCLE
  8
_1-1_
  6
CONTINUOUS
 62
    7
 10
249.85139589051943
 20
178.75692419103675
 40
0.0608883012790937
  0
CIRCLE
  8
_1-1_
  6
CONTINUOUS
 62
    7
 10
249.39434979413008
 20
177.61427183408995
 40
0.0608883012790937
  0
CIRCLE
  8
_1-1_
  6
CONTINUOUS
 62
    7
 10
250.70993784311656
 20
177.86812034813136
 40
0.0608883012790937
  0
CIRCLE
  8
_1-1_
  6
CONTINUOUS
 62
    7
 10
250.81116547455659
 20
178.27303087389149
 40
0.0608883012790937
  0
CIRCLE
  8
_1-1_
  6
CONTINUOUS
 62
    7
 10
250.13629810230154
 20
179.1503411370355
 40
0.0608883012790937
  0
CIRCLE
  8
_1-1_
  6
CONTINUOUS
 62
    7
 10
249.15777257970862
 20
179.45402403135557
 40
0.0608883012790937
  0
CIRCLE
  8
_1-1_
  6
CONTINUOUS
 62
    7
 10
253.22612865551099
 20
178.708401241818
 40
0.0608883012790937
  0
CIRCLE
  8
_1-1_
  6
CONTINUOUS
 62
    7
 10
252.99759323532518
 20
178.02280735325169
 40
0.0608883012790937
  0
CIRCLE
  8
_1-1_
  6
CONTINUOUS
 62
    7
 10
252.54054713893584
 20
176.8801549963049
 40
0.0608883012790937
  0
CIRCLE
  8
_1-1_
  6
CONTINUOUS
 62
    7
 10
253.28249544710727
 20
178.41622429925044
 40
0.0608883012790937
  0
CIRCLE
  8
_1-1_
  6
CONTINUOUS
 62
    7
 10
252.30396992451438
 20
178.71990719357052
 40
0.0608883012790937
  0
CIRCLE
  8
_1-1_
  6
CONTINUOUS
 62
    7
 10
253.3795166015625
 20
179.2922355033256
 40
0.0608883012790937
  0
CIRCLE
  8
_1-1_
  6
CONTINUOUS
 62
    7
 10
250.69036535314612
 20
179.38616365999789
 40
0.0608883012790937
  0
CIRCLE
  8
_1-1_
  6
CONTINUOUS
 62
    7
 10
250.23331925675677
 20
178.24351130305112
 40
0.0608883012790937
  0
CIRCLE
  8
_1-1_
  6
CONTINUOUS
 62
    7
 10
251.54890730574326
 20
178.4973598170925
 40
0.0608883012790937
  0
CIRCLE
  8
_1-1_
  6
CONTINUOUS
 62
    7
 10
251.65013493718328
 20
178.90227034285263
 40
0.0608883012790937
  0
CIRCLE
  8
_1-1_
  6
CONTINUOUS
 62
    7
 10
250.97526756492823
 20
179.77958060599664
 40
0.0608883012790937
  0
CIRCLE
  8
_1-1_
  6
CONTINUOUS
 62
    7
 10
250.39455104518584
 20
178.07916177285685
 40
0.0608883012790937
  0
CIRCLE
  8
_1-1_
  6
CONTINUOUS
 62
    7
 10
250.166015625
 20
177.39356788429055
 40
0.0608883012790937
  0
CIRCLE
  8
_1-1_
  6
CONTINUOUS
 62
    7
 10
249.70896952861065
 20
176.25091552734375
 40
0.0608883012790937
  0
CIRCLE
  8
_1-1_
  6
CONTINUOUS
 62
    7
 10
251.02455757759714
 20
176.50476404138516
 40
0.0608883012790937
  0
CIRCLE
  8
_1-1_
  6
CONTINUOUS
 62
    7
 10
251.12578520903719
 20
176.90967456714529
 40
0.0608883012790937
  0
CIRCLE
  8
_1-1_
  6
CONTINUOUS
 62
    7
 10
250.45091783678211
 20
177.78698483028927
 40
0.0608883012790937
  0
CIRCLE
  8
_1-1_
  6
CONTINUOUS
 62
    7
 10
249.47239231418919
 20
178.09066772460937
 40
0.0608883012790937
  0
CIRCLE
  8
_1-1_
  6
CONTINUOUS
 62
    7
 10
251.02379051414698
 20
175.98170100031675
 40
0.0608883012790937
  0
CIRCLE
  8
_1-1_
  6
CONTINUOUS
 62
    7
 10
250.10163178315034
 20
175.99320695206927
 40
0.0608883012790937
  0
CIRCLE
  8
_1-1_
  6
CONTINUOUS
 62
    7
 10
253.12123891469597
 20
178.60352387299409
 40
0.0608883012790937
  0
CIRCLE
  8
_1-1_
  6
CONTINUOUS
 62
    7
 10
252.89270349451016
 20
177.91792998442779
 40
0.0608883012790937
  0
CIRCLE
  8
_1-1_
  6
CONTINUOUS
 62
    7
 10
252.43565739812078
 20
176.77527762748102
 40
0.0608883012790937
  0
CIRCLE
  8
_1-1_
  6
CONTINUOUS
 62
    7
 10
253.17760570629224
 20
178.31134693042654
 40
0.0608883012790937
  0
CIRCLE
  8
_1-1_
  6
CONTINUOUS
 62
    7
 10
252.19908018369935
 20
178.61502982474664
 40
0.0608883012790937
  0
CIRCLE
  8
_1-1_
  6
CONTINUOUS
 62
    7
 10
250.74841473553633
 20
183.98514206345018
 40
0.0608883012790937
  0
CIRCLE
  8
_1-1_
  6
CONTINUOUS
 62
    7
 10
251.35068326383026
 20
183.97801579655828
 40
0.0608883012790937
  0
CIRCLE
  8
_1-1_
  6
CONTINUOUS
 62
    7
 10
251.19729531777872
 20
183.70880126953125
 40
0.0608883012790937
  0
CIRCLE
  8
_1-1_
  6
CONTINUOUS
 62
    7
 10
250.96875989759292
 20
183.02320738096495
 40
0.0608883012790937
  0
CIRCLE
  8
_1-1_
  6
CONTINUOUS
 62
    7
 10
250.51171380120357
 20
181.88055502401818
 40
0.0608883012790937
  0
CIRCLE
  8
_1-1_
  6
CONTINUOUS
 62
    7
 10
251.82730185019005
 20
182.13440353805956
 40
0.0608883012790937
  0
CIRCLE
  8
_1-1_
  6
CONTINUOUS
 62
    7
 10
251.92852948163008
 20
182.53931406381969
 40
0.0608883012790937
  0
CIRCLE
  8
_1-1_
  6
CONTINUOUS
 62
    7
 10
251.253662109375
 20
183.4166243269637
 40
0.0608883012790937
  0
CIRCLE
  8
_1-1_
  6
CONTINUOUS
 62
    7
 10
250.27513658678211
 20
183.7203072212838
 40
0.0608883012790937
  0
CIRCLE
  8
_1-1_
  6
CONTINUOUS
 62
    7
 10
254.34349266258448
 20
182.9746844317462
 40
0.0608883012790937
  0
CIRCLE
  8
_1-1_
  6
CONTINUOUS
 62
    7
 10
254.11495724239867
 20
182.2890905431799
 40
0.0608883012790937
  0
CIRCLE
  8
_1-1_
  6
CONTINUOUS
 62
    7
 10
253.6579111460093
 20
181.14643818623313
 40
0.0608883012790937
  0
CIRCLE
  8
_1-1_
  6
CONTINUOUS
 62
    7
 10
254.39985945418076
 20
182.68250748917865
 40
0.0608883012790937
  0
CIRCLE
  8
_1-1_
  6
CONTINUOUS
 62
    7
 10
253.42133393158784
 20
182.98619038349875
 40
0.0608883012790937
  0
CIRCLE
  8
_1-1_
  6
CONTINUOUS
 62
    7
 10
254.49688060863599
 20
183.5585186932538
 40
0.0608883012790937
  0
CIRCLE
  8
_1-1_
  6
CONTINUOUS
 62
    7
 10
251.80772936021961
 20
183.65244684992612
 40
0.0608883012790937
  0
CIRCLE
  8
_1-1_
  6
CONTINUOUS
 62
    7
 10
251.35068326383026
 20
182.50979449297932
 40
0.0608883012790937
  0
CIRCLE
  8
_1-1_
  6
CONTINUOUS
 62
    7
 10
252.66627131281675
 20
182.7636430070207
 40
0.0608883012790937
  0
CIRCLE
  8
_1-1_
  6
CONTINUOUS
 62
    7
 10
252.76749894425677
 20
183.16855353278083
 40
0.0608883012790937
  0
CIRCLE
  8
_1-1_
  6
CONTINUOUS
 62
    7
 10
252.09263157200169
 20
184.04586379592484
 40
0.0608883012790937
  0
CIRCLE
  8
_1-1_
  6
CONTINUOUS
 62
    7
 10
251.5119150522593
 20
182.34544496278505
 40
0.0608883012790937
  0
CIRCLE
  8
_1-1_
  6
CONTINUOUS
 62
    7
 10
251.28337963207349
 20
181.65985107421875
 40
0.0608883012790937
  0
CIRCLE
  8
_1-1_
  6
CONTINUOUS
 62
    7
 10
250.82633353568414
 20
180.51719871727198
 40
0.0608883012790937
  0
CIRCLE
  8
_1-1_
  6
CONTINUOUS
 62
    7
 10
252.14192158467063
 20
180.77104723131336
 40
0.0608883012790937
  0
CIRCLE
  8
_1-1_
  6
CONTINUOUS
 62
    7
 10
252.24314921611065
 20
181.17595775707349
 40
0.0608883012790937
  0
CIRCLE
  8
_1-1_
  6
CONTINUOUS
 62
    7
 10
251.5682818438556
 20
182.0532680202175
 40
0.0608883012790937
  0
CIRCLE
  8
_1-1_
  6
CONTINUOUS
 62
    7
 10
250.58975632126268
 20
182.35695091453761
 40
0.0608883012790937
  0
CIRCLE
  8
_1-1_
  6
CONTINUOUS
 62
    7
 10
252.14115452122044
 20
180.24798419024495
 40
0.0608883012790937
  0
CIRCLE
  8
_1-1_
  6
CONTINUOUS
 62
    7
 10
251.21899579022383
 20
180.25949014199747
 40
0.0608883012790937
  0
CIRCLE
  8
_1-1_
  6
CONTINUOUS
 62
    7
 10
254.23860292176943
 20
182.86980706292232
 40
0.0608883012790937
  0
CIRCLE
  8
_1-1_
  6
CONTINUOUS
 62
    7
 10
254.01006750158362
 20
182.18421317435602
 40
0.0608883012790937
  0
CIRCLE
  8
_1-1_
  6
CONTINUOUS
 62
    7
 10
253.55302140519427
 20
181.04156081740922
 40
0.0608883012790937
  0
CIRCLE
  8
_1-1_
  6
CONTINUOUS
 62
    7
 10
254.29496971336573
 20
182.57763012035474
 40
0.0608883012790937
  0
CIRCLE
  8
_1-1_
  6
CONTINUOUS
 62
    7
 10
253.31644419077281
 20
182.88131301467484
 40
0.0608883012790937
  0
CIRCLE
  8
_1-1_
  6
CONTINUOUS
 62
    7
 10
250.74841473553633
 20
184.89934560414909
 40
0.0608883012790937
  0
CIRCLE
  8
_1-1_
  6
CONTINUOUS
 62
    7
 10
251.35068326383026
 20
184.89221933725719
 40
0.0608883012790937
  0
CIRCLE
  8
_1-1_
  6
CONTINUOUS
 62
    7
 10
251.19729531777872
 20
184.62300481023016
 40
0.0608883012790937
  0
CIRCLE
  8
_1-1_
  6
CONTINUOUS
 62
    7
 10
250.96875989759292
 20
183.93741092166385
 40
0.0608883012790937
  0
CIRCLE
  8
_1-1_
  6
CONTINUOUS
 62
    7
 10
250.51171380120357
 20
182.79475856471706
 40
0.0608883012790937
  0
CIRCLE
  8
_1-1_
  6
CONTINUOUS
 62
    7
 10
251.82730185019005
 20
183.04860707875847
 40
0.0608883012790937
  0
CIRCLE
  8
_1-1_
  6
CONTINUOUS
 62
    7
 10
251.92852948163008
 20
183.45351760451859
 40
0.0608883012790937
  0
CIRCLE
  8
_1-1_
  6
CONTINUOUS
 62
    7
 10
251.253662109375
 20
184.33082786766261
 40
0.0608883012790937
  0
CIRCLE
  8
_1-1_
  6
CONTINUOUS
 62
    7
 10
250.27513658678211
 20
184.63451076198268
 40
0.0608883012790937
  0
CIRCLE
  8
_1-1_
  6
CONTINUOUS
 62
    7
 10
254.34349266258448
 20
183.8888879724451
 40
0.0608883012790937
  0
CIRCLE
  8
_1-1_
  6
CONTINUOUS
 62
    7
 10
254.11495724239867
 20
183.2032940838788
 40
0.0608883012790937
  0
CIRCLE
  8
_1-1_
  6
CONTINUOUS
 62
    7
 10
253.6579111460093
 20
182.06064172693203
 40
0.0608883012790937
  0
CIRCLE
  8
_1-1_
  6
CONTINUOUS
 62
    7
 10
254.39985945418076
 20
183.59671102987755
 40
0.0608883012790937
  0
CIRCLE
  8
_1-1_
  6
CONTINUOUS
 62
    7
 10
253.42133393158784
 20
183.90039392419766
 40
0.0608883012790937
  0
CIRCLE
  8
_1-1_
  6
CONTINUOUS
 62
    7
 10
254.49688060863599
 20
184.47272223395271
 40
0.0608883012790937
  0
CIRCLE
  8
_1-1_
  6
CONTINUOUS
 62
    7
 10
251.80772936021961
 20
184.566650390625
 40
0.0608883012790937
  0
CIRCLE
  8
_1-1_
  6
CONTINUOUS
 62
    7
 10
251.35068326383026
 20
183.42399803367823
 40
0.0608883012790937
  0
CIRCLE
  8
_1-1_
  6
CONTINUOUS
 62
    7
 10
252.66627131281675
 20
183.67784654771961
 40
0.0608883012790937
  0
CIRCLE
  8
_1-1_
  6
CONTINUOUS
 62
    7
 10
252.76749894425677
 20
184.08275707347974
 40
0.0608883012790937
  0
CIRCLE
  8
_1-1_
  6
CONTINUOUS
 62
    7
 10
252.09263157200169
 20
184.96006733662375
 40
0.0608883012790937
  0
CIRCLE
  8
_1-1_
  6
CONTINUOUS
 62
    7
 10
251.5119150522593
 20
183.25964850348396
 40
0.0608883012790937
  0
CIRCLE
  8
_1-1_
  6
CONTINUOUS
 62
    7
 10
251.28337963207349
 20
182.57405461491766
 40
0.0608883012790937
  0
CIRCLE
  8
_1-1_
  6
CONTINUOUS
 62
    7
 10
250.82633353568414
 20
181.43140225797086
 40
0.0608883012790937
  0
CIRCLE
  8
_1-1_
  6
CONTINUOUS
 62
    7
 10
252.14192158467063
 20
181.68525077201227
 40
0.0608883012790937
  0
CIRCLE
  8
_1-1_
  6
CONTINUOUS
 62
    7
 10
252.24314921611065
 20
182.0901612977724
 40
0.0608883012790937
  0
CIRCLE
  8
_1-1_
  6
CONTINUOUS
 62
    7
 10
251.5682818438556
 20
182.96747156091641
 40
0.0608883012790937
  0
CIRCLE
  8
_1-1_
  6
CONTINUOUS
 62
    7
 10
250.58975632126268
 20
183.27115445523648
 40
0.0608883012790937
  0
CIRCLE
  8
_1-1_
  6
CONTINUOUS
 62
    7
 10
252.14115452122044
 20
181.16218773094386
 40
0.0608883012790937
  0
CIRCLE
  8
_1-1_
  6
CONTINUOUS
 62
    7
 10
251.21899579022383
 20
181.17369368269638
 40
0.0608883012790937
  0
CIRCLE
  8
_1-1_
  6
CONTINUOUS
 62
    7
 10
254.23860292176943
 20
183.7840106036212
 40
0.0608883012790937
  0
CIRCLE
  8
_1-1_
  6
CONTINUOUS
 62
    7
 10
254.01006750158362
 20
183.0984167150549
 40
0.0608883012790937
  0
CIRCLE
  8
_1-1_
  6
CONTINUOUS
 62
    7
 10
253.55302140519427
 20
181.95576435810813
 40
0.0608883012790937
  0
CIRCLE
  8
_1-1_
  6
CONTINUOUS
 62
    7
 10
254.29496971336573
 20
183.49183366105365
 40
0.0608883012790937
  0
CIRCLE
  8
_1-1_
  6
CONTINUOUS
 62
    7
 10
253.31644419077281
 20
183.79551655537375
 40
0.0608883012790937
  0
CIRCLE
  8
_1-1_
  6
CONTINUOUS
 62
    7
 10
250.74841473553633
 20
186.11828365841427
 40
0.0608883012790937
  0
CIRCLE
  8
_1-1_
  6
CONTINUOUS
 62
    7
 10
251.35068326383026
 20
186.1111573915224
 40
0.0608883012790937
  0
CIRCLE
  8
_1-1_
  6
CONTINUOUS
 62
    7
 10
251.19729531777872
 20
185.84194286449537
 40
0.0608883012790937
  0
CIRCLE
  8
_1-1_
  6
CONTINUOUS
 62
    7
 10
250.96875989759292
 20
185.15634897592906
 40
0.0608883012790937
  0
CIRCLE
  8
_1-1_
  6
CONTINUOUS
 62
    7
 10
250.51171380120357
 20
184.01369661898227
 40
0.0608883012790937
  0
CIRCLE
  8
_1-1_
  6
CONTINUOUS
 62
    7
 10
251.82730185019005
 20
184.26754513302365
 40
0.0608883012790937
  0
CIRCLE
  8
_1-1_
  6
CONTINUOUS
 62
    7
 10
251.92852948163008
 20
184.6724556587838
 40
0.0608883012790937
  0
CIRCLE
  8
_1-1_
  6
CONTINUOUS
 62
    7
 10
251.253662109375
 20
185.54976592192779
 40
0.0608883012790937
  0
CIRCLE
  8
_1-1_
  6
CONTINUOUS
 62
    7
 10
250.27513658678211
 20
185.85344881624789
 40
0.0608883012790937
  0
CIRCLE
  8
_1-1_
  6
CONTINUOUS
 62
    7
 10
254.34349266258448
 20
185.10782602671031
 40
0.0608883012790937
  0
CIRCLE
  8
_1-1_
  6
CONTINUOUS
 62
    7
 10
254.11495724239867
 20
184.42223213814401
 40
0.0608883012790937
  0
CIRCLE
  8
_1-1_
  6
CONTINUOUS
 62
    7
 10
253.6579111460093
 20
183.27957978119721
 40
0.0608883012790937
  0
CIRCLE
  8
_1-1_
  6
CONTINUOUS
 62
    7
 10
254.39985945418076
 20
184.81564908414273
 40
0.0608883012790937
  0
CIRCLE
  8
_1-1_
  6
CONTINUOUS
 62
    7
 10
253.42133393158784
 20
185.11933197846284
 40
0.0608883012790937
  0
CIRCLE
  8
_1-1_
  6
CONTINUOUS
 62
    7
 10
254.49688060863599
 20
185.69166028821792
 40
0.0608883012790937
  0
CIRCLE
  8
_1-1_
  6
CONTINUOUS
 62
    7
 10
251.80772936021961
 20
185.78558844489021
 40
0.0608883012790937
  0
CIRCLE
  8
_1-1_
  6
CONTINUOUS
 62
    7
 10
251.35068326383026
 20
184.64293608794341
 40
0.0608883012790937
  0
CIRCLE
  8
_1-1_
  6
CONTINUOUS
 62
    7
 10
252.66627131281675
 20
184.89678460198482
 40
0.0608883012790937
  0
CIRCLE
  8
_1-1_
  6
CONTINUOUS
 62
    7
 10
252.76749894425677
 20
185.30169512774495
 40
0.0608883012790937
  0
CIRCLE
  8
_1-1_
  6
CONTINUOUS
 62
    7
 10
252.09263157200169
 20
186.17900539088893
 40
0.0608883012790937
  0
CIRCLE
  8
_1-1_
  6
CONTINUOUS
 62
    7
 10
251.5119150522593
 20
184.47858655774917
 40
0.0608883012790937
  0
CIRCLE
  8
_1-1_
  6
CONTINUOUS
 62
    7
 10
251.28337963207349
 20
183.79299266918287
 40
0.0608883012790937
  0
CIRCLE
  8
_1-1_
  6
CONTINUOUS
 62
    7
 10
250.82633353568414
 20
182.65034031223607
 40
0.0608883012790937
  0
CIRCLE
  8
_1-1_
  6
CONTINUOUS
 62
    7
 10
252.14192158467063
 20
182.90418882627745
 40
0.0608883012790937
  0
CIRCLE
  8
_1-1_
  6
CONTINUOUS
 62
    7
 10
252.24314921611065
 20
183.30909935203761
 40
0.0608883012790937
  0
CIRCLE
  8
_1-1_
  6
CONTINUOUS
 62
    7
 10
251.5682818438556
 20
184.18640961518159
 40
0.0608883012790937
  0
CIRCLE
  8
_1-1_
  6
CONTINUOUS
 62
    7
 10
250.58975632126268
 20
184.49009250950169
 40
0.0608883012790937
  0
CIRCLE
  8
_1-1_
  6
CONTINUOUS
 62
    7
 10
252.14115452122044
 20
182.38112578520904
 40
0.0608883012790937
  0
CIRCLE
  8
_1-1_
  6
CONTINUOUS
 62
    7
 10
251.21899579022383
 20
182.39263173696159
 40
0.0608883012790937
  0
CIRCLE
  8
_1-1_
  6
CONTINUOUS
 62
    7
 10
254.23860292176943
 20
185.00294865788641
 40
0.0608883012790937
  0
CIRCLE
  8
_1-1_
  6
CONTINUOUS
 62
    7
 10
254.01006750158362
 20
184.3173547693201
 40
0.0608883012790937
  0
CIRCLE
  8
_1-1_
  6
CONTINUOUS
 62
    7
 10
253.55302140519427
 20
183.17470241237331
 40
0.0608883012790937
  0
CIRCLE
  8
_1-1_
  6
CONTINUOUS
 62
    7
 10
254.29496971336573
 20
184.71077171531886
 40
0.0608883012790937
  0
CIRCLE
  8
_1-1_
  6
CONTINUOUS
 62
    7
 10
253.31644419077281
 20
185.01445460963893
 40
0.0608883012790937
  0
CIRCLE
  8
_1-1_
  6
CONTINUOUS
 62
    7
 10
243.13006426836995
 20
176.16363112990922
 40
0.0608883012790937
  0
CIRCLE
  8
_1-1_
  6
CONTINUOUS
 62
    7
 10
243.73233279666385
 20
176.15650486301732
 40
0.0608883012790937
  0
CIRCLE
  8
_1-1_
  6
CONTINUOUS
 62
    7
 10
243.57894485061234
 20
175.88729033599029
 40
0.0608883012790937
  0
CIRCLE
  8
_1-1_
  6
CONTINUOUS
 62
    7
 10
243.35040943042654
 20
175.20169644742398
 40
0.0608883012790937
  0
CIRCLE
  8
_1-1_
  6
CONTINUOUS
 62
    7
 10
242.89336333403719
 20
174.05904409047722
 40
0.0608883012790937
  0
CIRCLE
  8
_1-1_
  6
CONTINUOUS
 62
    7
 10
244.20895138302367
 20
174.31289260451859
 40
0.0608883012790937
  0
CIRCLE
  8
_1-1_
  6
CONTINUOUS
 62
    7
 10
244.3101790144637
 20
174.71780313027872
 40
0.0608883012790937
  0
CIRCLE
  8
_1-1_
  6
CONTINUOUS
 62
    7
 10
243.63531164220862
 20
175.59511339342274
 40
0.0608883012790937
  0
CIRCLE
  8
_1-1_
  6
CONTINUOUS
 62
    7
 10
242.65678611961573
 20
175.89879628774284
 40
0.0608883012790937
  0
CIRCLE
  8
_1-1_
  6
CONTINUOUS
 62
    7
 10
246.7251421954181
 20
175.15317349820523
 40
0.0608883012790937
  0
CIRCLE
  8
_1-1_
  6
CONTINUOUS
 62
    7
 10
246.49660677523227
 20
174.46757960963893
 40
0.0608883012790937
  0
CIRCLE
  8
_1-1_
  6
CONTINUOUS
 62
    7
 10
246.03956067884292
 20
173.32492725269216
 40
0.0608883012790937
  0
CIRCLE
  8
_1-1_
  6
CONTINUOUS
 62
    7
 10
246.78150898701438
 20
174.86099655563768
 40
0.0608883012790937
  0
CIRCLE
  8
_1-1_
  6
CONTINUOUS
 62
    7
 10
245.80298346442146
 20
175.16467944995779
 40
0.0608883012790937
  0
CIRCLE
  8
_1-1_
  6
CONTINUOUS
 62
    7
 10
246.87853014146961
 20
175.73700775971284
 40
0.0608883012790937
  0
CIRCLE
  8
_1-1_
  6
CONTINUOUS
 62
    7
 10
244.18937889305323
 20
175.83093591638516
 40
0.0608883012790937
  0
CIRCLE
  8
_1-1_
  6
CONTINUOUS
 62
    7
 10
243.73233279666385
 20
174.68828355943836
 40
0.0608883012790937
  0
CIRCLE
  8
_1-1_
  6
CONTINUOUS
 62
    7
 10
245.04792084565034
 20
174.94213207347974
 40
0.0608883012790937
  0
CIRCLE
  8
_1-1_
  6
CONTINUOUS
 62
    7
 10
245.14914847709039
 20
175.34704259923987
 40
0.0608883012790937
  0
CIRCLE
  8
_1-1_
  6
CONTINUOUS
 62
    7
 10
244.47428110483531
 20
176.22435286238388
 40
0.0608883012790937
  0
CIRCLE
  8
_1-1_
  6
CONTINUOUS
 62
    7
 10
243.89356458509292
 20
174.52393402924409
 40
0.0608883012790937
  0
CIRCLE
  8
_1-1_
  6
CONTINUOUS
 62
    7
 10
243.66502916490711
 20
173.83834014067779
 40
0.0608883012790937
  0
CIRCLE
  8
_1-1_
  6
CONTINUOUS
 62
    7
 10
243.20798306851776
 20
172.69568778373102
 40
0.0608883012790937
  0
CIRCLE
  8
_1-1_
  6
CONTINUOUS
 62
    7
 10
244.52357111750425
 20
172.9495362977724
 40
0.0608883012790937
  0
CIRCLE
  8
_1-1_
  6
CONTINUOUS
 62
    7
 10
244.62479874894427
 20
173.35444682353253
 40
0.0608883012790937
  0
CIRCLE
  8
_1-1_
  6
CONTINUOUS
 62
    7
 10
243.94993137668919
 20
174.23175708667654
 40
0.0608883012790937
  0
CIRCLE
  8
_1-1_
  6
CONTINUOUS
 62
    7
 10
242.9714058540963
 20
174.53543998099664
 40
0.0608883012790937
  0
CIRCLE
  8
_1-1_
  6
CONTINUOUS
 62
    7
 10
244.52280405405406
 20
172.42647325670399
 40
0.0608883012790937
  0
CIRCLE
  8
_1-1_
  6
CONTINUOUS
 62
    7
 10
243.60064532305745
 20
172.43797920845651
 40
0.0608883012790937
  0
CIRCLE
  8
_1-1_
  6
CONTINUOUS
 62
    7
 10
246.62025245460305
 20
175.04829612938136
 40
0.0608883012790937
  0
CIRCLE
  8
_1-1_
  6
CONTINUOUS
 62
    7
 10
246.39171703441724
 20
174.36270224081505
 40
0.0608883012790937
  0
CIRCLE
  8
_1-1_
  6
CONTINUOUS
 62
    7
 10
245.93467093802789
 20
173.22004988386826
 40
0.0608883012790937
  0
CIRCLE
  8
_1-1_
  6
CONTINUOUS
 62
    7
 10
246.67661924619935
 20
174.75611918681378
 40
0.0608883012790937
  0
CIRCLE
  8
_1-1_
  6
CONTINUOUS
 62
    7
 10
245.69809372360643
 20
175.05980208113388
 40
0.0608883012790937
  0
CIRCLE
  8
_1-1_
  6
CONTINUOUS
 62
    7
 10
244.75529851140203
 20
177.17940871779984
 40
0.0608883012790937
  0
CIRCLE
  8
_1-1_
  6
CONTINUOUS
 62
    7
 10
245.35756703969597
 20
177.17228245090794
 40
0.0608883012790937
  0
CIRCLE
  8
_1-1_
  6
CONTINUOUS
 62
    7
 10
245.20417909364443
 20
176.90306792388091
 40
0.0608883012790937
  0
CIRCLE
  8
_1-1_
  6
CONTINUOUS
 62
    7
 10
244.97564367345862
 20
176.21747403531461
 40
0.0608883012790937
  0
CIRCLE
  8
_1-1_
  6
CONTINUOUS
 62
    7
 10
244.51859757706927
 20
175.07482167836784
 40
0.0608883012790937
  0
CIRCLE
  8
_1-1_
  6
CONTINUOUS
 62
    7
 10
245.83418562605576
 20
175.32867019240922
 40
0.0608883012790937
  0
CIRCLE
  8
_1-1_
  6
CONTINUOUS
 62
    7
 10
245.93541325749578
 20
175.73358071816935
 40
0.0608883012790937
  0
CIRCLE
  8
_1-1_
  6
CONTINUOUS
 62
    7
 10
245.26054588524073
 20
176.61089098131336
 40
0.0608883012790937
  0
CIRCLE
  8
_1-1_
  6
CONTINUOUS
 62
    7
 10
244.28202036264781
 20
176.91457387563347
 40
0.0608883012790937
  0
CIRCLE
  8
_1-1_
  6
CONTINUOUS
 62
    7
 10
248.35037643845018
 20
176.16895108609586
 40
0.0608883012790937
  0
CIRCLE
  8
_1-1_
  6
CONTINUOUS
 62
    7
 10
248.12184101826438
 20
175.48335719752956
 40
0.0608883012790937
  0
CIRCLE
  8
_1-1_
  6
CONTINUOUS
 62
    7
 10
247.664794921875
 20
174.34070484058279
 40
0.0608883012790937
  0
CIRCLE
  8
_1-1_
  6
CONTINUOUS
 62
    7
 10
248.40674323004646
 20
175.87677414352831
 40
0.0608883012790937
  0
CIRCLE
  8
_1-1_
  6
CONTINUOUS
 62
    7
 10
247.42821770745357
 20
176.18045703784841
 40
0.0608883012790937
  0
CIRCLE
  8
_1-1_
  6
CONTINUOUS
 62
    7
 10
248.50376438450169
 20
176.75278534760346
 40
0.0608883012790937
  0
CIRCLE
  8
_1-1_
  6
CONTINUOUS
 62
    7
 10
245.81461313608531
 20
176.84671350427578
 40
0.0608883012790937
  0
CIRCLE
  8
_1-1_
  6
CONTINUOUS
 62
    7
 10
245.35756703969597
 20
175.70406114732899
 40
0.0608883012790937
  0
CIRCLE
  8
_1-1_
  6
CONTINUOUS
 62
    7
 10
246.67315508868245
 20
175.95790966137037
 40
0.0608883012790937
  0
CIRCLE
  8
_1-1_
  6
CONTINUOUS
 62
    7
 10
246.77438272012247
 20
176.3628201871305
 40
0.0608883012790937
  0
CIRCLE
  8
_1-1_
  6
CONTINUOUS
 62
    7
 10
246.09951534786742
 20
177.24013045027451
 40
0.0608883012790937
  0
CIRCLE
  8
_1-1_
  6
CONTINUOUS
 62
    7
 10
245.518798828125
 20
175.53971161713471
 40
0.0608883012790937
  0
CIRCLE
  8
_1-1_
  6
CONTINUOUS
 62
    7
 10
245.29026340793919
 20
174.85411772856841
 40
0.0608883012790937
  0
CIRCLE
  8
_1-1_
  6
CONTINUOUS
 62
    7
 10
244.83321731154984
 20
173.71146537162164
 40
0.0608883012790937
  0
CIRCLE
  8
_1-1_
  6
CONTINUOUS
 62
    7
 10
246.14880536053633
 20
173.96531388566302
 40
0.0608883012790937
  0
CIRCLE
  8
_1-1_
  6
CONTINUOUS
 62
    7
 10
246.25003299197635
 20
174.37022441142315
 40
0.0608883012790937
  0
CIRCLE
  8
_1-1_
  6
CONTINUOUS
 62
    7
 10
245.5751656197213
 20
175.24753467456716
 40
0.0608883012790937
  0
CIRCLE
  8
_1-1_
  6
CONTINUOUS
 62
    7
 10
244.59664009712839
 20
175.55121756888727
 40
0.0608883012790937
  0
CIRCLE
  8
_1-1_
  6
CONTINUOUS
 62
    7
 10
246.14803829708617
 20
173.44225084459461
 40
0.0608883012790937
  0
CIRCLE
  8
_1-1_
  6
CONTINUOUS
 62
    7
 10
245.22587956608953
 20
173.45375679634714
 40
0.0608883012790937
  0
CIRCLE
  8
_1-1_
  6
CONTINUOUS
 62
    7
 10
248.24548669763516
 20
176.06407371727198
 40
0.0608883012790937
  0
CIRCLE
  8
_1-1_
  6
CONTINUOUS
 62
    7
 10
248.01695127744935
 20
175.37847982870568
 40
0.0608883012790937
  0
CIRCLE
  8
_1-1_
  6
CONTINUOUS
 62
    7
 10
247.55990518105997
 20
174.23582747175888
 40
0.0608883012790937
  0
CIRCLE
  8
_1-1_
  6
CONTINUOUS
 62
    7
 10
248.30185348923143
 20
175.7718967747044
 40
0.0608883012790937
  0
CIRCLE
  8
_1-1_
  6
CONTINUOUS
 62
    7
 10
247.32332796663852
 20
176.07557966902451
 40
0.0608883012790937
  0
CIRCLE
  8
_1-1_
  6
CONTINUOUS
 62
    7
 10
244.85687255859375
 20
177.48414323136615
 40
0.0608883012790937
  0
CIRCLE
  8
_1-1_
  6
CONTINUOUS
 62
    7
 10
245.45914108688768
 20
177.47701696447425
 40
0.0608883012790937
  0
CIRCLE
  8
_1-1_
  6
CONTINUOUS
 62
    7
 10
245.30575314083617
 20
177.20780243744721
 40
0.0608883012790937
  0
CIRCLE
  8
_1-1_
  6
CONTINUOUS
 62
    7
 10
245.07721772065034
 20
176.52220854888091
 40
0.0608883012790937
  0
CIRCLE
  8
_1-1_
  6
CONTINUOUS
 62
    7
 10
244.62017162426099
 20
175.37955619193414
 40
0.0608883012790937
  0
CIRCLE
  8
_1-1_
  6
CONTINUOUS
 62
    7
 10
245.93575967324747
 20
175.63340470597552
 40
0.0608883012790937
  0
CIRCLE
  8
_1-1_
  6
CONTINUOUS
 62
    7
 10
246.0369873046875
 20
176.03831523173565
 40
0.0608883012790937
  0
CIRCLE
  8
_1-1_
  6
CONTINUOUS
 62
    7
 10
245.36211993243245
 20
176.91562549487966
 40
0.0608883012790937
  0
CIRCLE
  8
_1-1_
  6
CONTINUOUS
 62
    7
 10
244.38359440983953
 20
177.21930838919977
 40
0.0608883012790937
  0
CIRCLE
  8
_1-1_
  6
CONTINUOUS
 62
    7
 10
248.4519504856419
 20
176.47368559966216
 40
0.0608883012790937
  0
CIRCLE
  8
_1-1_
  6
CONTINUOUS
 62
    7
 10
248.22341506545609
 20
175.78809171109586
 40
0.0608883012790937
  0
CIRCLE
  8
_1-1_
  6
CONTINUOUS
 62
    7
 10
247.76636896906675
 20
174.64543935414909
 40
0.0608883012790937
  0
CIRCLE
  8
_1-1_
  6
CONTINUOUS
 62
    7
 10
248.50831727723818
 20
176.18150865709461
 40
0.0608883012790937
  0
CIRCLE
  8
_1-1_
  6
CONTINUOUS
 62
    7
 10
247.52979175464529
 20
176.48519155141472
 40
0.0608883012790937
  0
CIRCLE
  8
_1-1_
  6
CONTINUOUS
 62
    7
 10
248.60533843169344
 20
177.05751986116977
 40
0.0608883012790937
  0
CIRCLE
  8
_1-1_
  6
CONTINUOUS
 62
    7
 10
245.91618718327703
 20
177.15144801784206
 40
0.0608883012790937
  0
CIRCLE
  8
_1-1_
  6
CONTINUOUS
 62
    7
 10
245.45914108688768
 20
176.00879566089529
 40
0.0608883012790937
  0
CIRCLE
  8
_1-1_
  6
CONTINUOUS
 62
    7
 10
246.77472913587417
 20
176.26264417493667
 40
0.0608883012790937
  0
CIRCLE
  8
_1-1_
  6
CONTINUOUS
 62
    7
 10
246.87595676731419
 20
176.6675547006968
 40
0.0608883012790937
  0
CIRCLE
  8
_1-1_
  6
CONTINUOUS
 62
    7
 10
246.20108939505914
 20
177.54486496384081
 40
0.0608883012790937
  0
CIRCLE
  8
_1-1_
  6
CONTINUOUS
 62
    7
 10
245.62037287531675
 20
175.84444613070102
 40
0.0608883012790937
  0
CIRCLE
  8
_1-1_
  6
CONTINUOUS
 62
    7
 10
245.39183745513094
 20
175.15885224213471
 40
0.0608883012790937
  0
CIRCLE
  8
_1-1_
  6
CONTINUOUS
 62
    7
 10
244.93479135874156
 20
174.01619988518794
 40
0.0608883012790937
  0
CIRCLE
  8
_1-1_
  6
CONTINUOUS
 62
    7
 10
246.25037940772805
 20
174.27004839922932
 40
0.0608883012790937
  0
CIRCLE
  8
_1-1_
  6
CONTINUOUS
 62
    7
 10
246.3516070391681
 20
174.67495892498945
 40
0.0608883012790937
  0
CIRCLE
  8
_1-1_
  6
CONTINUOUS
 62
    7
 10
245.67673966691302
 20
175.55226918813347
 40
0.0608883012790937
  0
CIRCLE
  8
_1-1_
  6
CONTINUOUS
 62
    7
 10
244.6982141443201
 20
175.85595208245357
 40
0.0608883012790937
  0
CIRCLE
  8
_1-1_
  6
CONTINUOUS
 62
    7
 10
246.24961234427789
 20
173.74698535816091
 40
0.0608883012790937
  0
CIRCLE
  8
_1-1_
  6
CONTINUOUS
 62
    7
 10
245.32745361328125
 20
173.75849130991344
 40
0.0608883012790937
  0
CIRCLE
  8
_1-1_
  6
CONTINUOUS
 62
    7
 10
248.34706074482688
 20
176.36880823083828
 40
0.0608883012790937
  0
CIRCLE
  8
_1-1_
  6
CONTINUOUS
 62
    7
 10
248.11852532464107
 20
175.68321434227198
 40
0.0608883012790937
  0
CIRCLE
  8
_1-1_
  6
CONTINUOUS
 62
    7
 10
247.66147922825169
 20
174.54056198532518
 40
0.0608883012790937
  0
CIRCLE
  8
_1-1_
  6
CONTINUOUS
 62
    7
 10
248.40342753642315
 20
176.0766312882707
 40
0.0608883012790937
  0
CIRCLE
  8
_1-1_
  6
CONTINUOUS
 62
    7
 10
247.42490201383026
 20
176.38031418259081
 40
0.0608883012790937
  0
CIRCLE
  8
_1-1_
  6
CONTINUOUS
 62
    7
 10
239.77797224714951
 20
175.96047066353464
 40
0.0608883012790937
  0
CIRCLE
  8
_1-1_
  6
CONTINUOUS
 62
    7
 10
240.38024077544341
 20
175.95334439664273
 40
0.0608883012790937
  0
CIRCLE
  8
_1-1_
  6
CONTINUOUS
 62
    7
 10
240.2268528293919
 20
175.68412986961573
 40
0.0608883012790937
  0
CIRCLE
  8
_1-1_
  6
CONTINUOUS
 62
    7
 10
239.99831740920609
 20
174.99853598104943
 40
0.0608883012790937
  0
CIRCLE
  8
_1-1_
  6
CONTINUOUS
 62
    7
 10
239.54127131281675
 20
173.85588362410263
 40
0.0608883012790937
  0
CIRCLE
  8
_1-1_
  6
CONTINUOUS
 62
    7
 10
240.85685936180323
 20
174.10973213814401
 40
0.0608883012790937
  0
CIRCLE
  8
_1-1_
  6
CONTINUOUS
 62
    7
 10
240.95808699324326
 20
174.51464266390414
 40
0.0608883012790937
  0
CIRCLE
  8
_1-1_
  6
CONTINUOUS
 62
    7
 10
240.28321962098818
 20
175.39195292704815
 40
0.0608883012790937
  0
CIRCLE
  8
_1-1_
  6
CONTINUOUS
 62
    7
 10
239.30469409839529
 20
175.69563582136826
 40
0.0608883012790937
  0
CIRCLE
  8
_1-1_
  6
CONTINUOUS
 62
    7
 10
243.37305017419766
 20
174.95001303183068
 40
0.0608883012790937
  0
CIRCLE
  8
_1-1_
  6
CONTINUOUS
 62
    7
 10
243.14451475401185
 20
174.26441914326438
 40
0.0608883012790937
  0
CIRCLE
  8
_1-1_
  6
CONTINUOUS
 62
    7
 10
242.68746865762247
 20
173.12176678631758
 40
0.0608883012790937
  0
CIRCLE
  8
_1-1_
  6
CONTINUOUS
 62
    7
 10
243.42941696579393
 20
174.6578360892631
 40
0.0608883012790937
  0
CIRCLE
  8
_1-1_
  6
CONTINUOUS
 62
    7
 10
242.45089144320102
 20
174.9615189835832
 40
0.0608883012790937
  0
CIRCLE
  8
_1-1_
  6
CONTINUOUS
 62
    7
 10
243.52643812024917
 20
175.53384729333828
 40
0.0608883012790937
  0
CIRCLE
  8
_1-1_
  6
CONTINUOUS
 62
    7
 10
240.83728687183279
 20
175.62777545001057
 40
0.0608883012790937
  0
CIRCLE
  8
_1-1_
  6
CONTINUOUS
 62
    7
 10
240.38024077544341
 20
174.48512309306378
 40
0.0608883012790937
  0
CIRCLE
  8
_1-1_
  6
CONTINUOUS
 62
    7
 10
241.69582882442992
 20
174.73897160710516
 40
0.0608883012790937
  0
CIRCLE
  8
_1-1_
  6
CONTINUOUS
 62
    7
 10
241.79705645586995
 20
175.14388213286529
 40
0.0608883012790937
  0
CIRCLE
  8
_1-1_
  6
CONTINUOUS
 62
    7
 10
241.12218908361487
 20
176.0211923960093
 40
0.0608883012790937
  0
CIRCLE
  8
_1-1_
  6
CONTINUOUS
 62
    7
 10
240.54147256387247
 20
174.32077356286953
 40
0.0608883012790937
  0
CIRCLE
  8
_1-1_
  6
CONTINUOUS
 62
    7
 10
240.31293714368667
 20
173.63517967430323
 40
0.0608883012790937
  0
CIRCLE
  8
_1-1_
  6
CONTINUOUS
 62
    7
 10
239.85589104729732
 20
172.49252731735643
 40
0.0608883012790937
  0
CIRCLE
  8
_1-1_
  6
CONTINUOUS
 62
    7
 10
241.1714790962838
 20
172.74637583139781
 40
0.0608883012790937
  0
CIRCLE
  8
_1-1_
  6
CONTINUOUS
 62
    7
 10
241.27270672772383
 20
173.15128635715794
 40
0.0608883012790937
  0
CIRCLE
  8
_1-1_
  6
CONTINUOUS
 62
    7
 10
240.59783935546875
 20
174.02859662030195
 40
0.0608883012790937
  0
CIRCLE
  8
_1-1_
  6
CONTINUOUS
 62
    7
 10
239.61931383287586
 20
174.33227951462206
 40
0.0608883012790937
  0
CIRCLE
  8
_1-1_
  6
CONTINUOUS
 62
    7
 10
241.17071203283362
 20
172.2233127903294
 40
0.0608883012790937
  0
CIRCLE
  8
_1-1_
  6
CONTINUOUS
 62
    7
 10
240.24855330183701
 20
172.23481874208193
 40
0.0608883012790937
  0
CIRCLE
  8
_1-1_
  6
CONTINUOUS
 62
    7
 10
243.2681604333826
 20
174.84513566300677
 40
0.0608883012790937
  0
CIRCLE
  8
_1-1_
  6
CONTINUOUS
 62
    7
 10
243.0396250131968
 20
174.15954177444047
 40
0.0608883012790937
  0
CIRCLE
  8
_1-1_
  6
CONTINUOUS
 62
    7
 10
242.58257891680745
 20
173.01688941749367
 40
0.0608883012790937
  0
CIRCLE
  8
_1-1_
  6
CONTINUOUS
 62
    7
 10
243.32452722497891
 20
174.55295872043919
 40
0.0608883012790937
  0
CIRCLE
  8
_1-1_
  6
CONTINUOUS
 62
    7
 10
242.34600170238599
 20
174.8566416147593
 40
0.0608883012790937
  0
CIRCLE
  8
_1-1_
  6
CONTINUOUS
 62
    7
 10
240.895336254223
 20
172.8115514806799
 40
0.0608883012790937
  0
CIRCLE
  8
_1-1_
  6
CONTINUOUS
 62
    7
 10
241.4976047825169
 20
172.80442521378802
 40
0.0608883012790937
  0
CIRCLE
  8
_1-1_
  6
CONTINUOUS
 62
    7
 10
241.34421683646539
 20
172.53521068676099
 40
0.0608883012790937
  0
CIRCLE
  8
_1-1_
  6
CONTINUOUS
 62
    7
 10
241.11568141627959
 20
171.84961679819469
 40
0.0608883012790937
  0
CIRCLE
  8
_1-1_
  6
CONTINUOUS
 62
    7
 10
240.65863531989021
 20
170.70696444124789
 40
0.0608883012790937
  0
CIRCLE
  8
_1-1_
  6
CONTINUOUS
 62
    7
 10
241.97422336887669
 20
170.96081295528927
 40
0.0608883012790937
  0
CIRCLE
  8
_1-1_
  6
CONTINUOUS
 62
    7
 10
242.07545100031675
 20
171.36572348104943
 40
0.0608883012790937
  0
CIRCLE
  8
_1-1_
  6
CONTINUOUS
 62
    7
 10
241.40058362806167
 20
172.24303374419341
 40
0.0608883012790937
  0
CIRCLE
  8
_1-1_
  6
CONTINUOUS
 62
    7
 10
240.42205810546875
 20
172.54671663851352
 40
0.0608883012790937
  0
CIRCLE
  8
_1-1_
  6
CONTINUOUS
 62
    7
 10
244.49041418127112
 20
171.80109384897594
 40
0.0608883012790937
  0
CIRCLE
  8
_1-1_
  6
CONTINUOUS
 62
    7
 10
244.26187876108531
 20
171.11549996040964
 40
0.0608883012790937
  0
CIRCLE
  8
_1-1_
  6
CONTINUOUS
 62
    7
 10
243.80483266469597
 20
169.97284760346284
 40
0.0608883012790937
  0
CIRCLE
  8
_1-1_
  6
CONTINUOUS
 62
    7
 10
244.54678097286742
 20
171.50891690640836
 40
0.0608883012790937
  0
CIRCLE
  8
_1-1_
  6
CONTINUOUS
 62
    7
 10
243.56825545027451
 20
171.81259980072846
 40
0.0608883012790937
  0
CIRCLE
  8
_1-1_
  6
CONTINUOUS
 62
    7
 10
244.64380212732266
 20
172.38492811048354
 40
0.0608883012790937
  0
CIRCLE
  8
_1-1_
  6
CONTINUOUS
 62
    7
 10
241.95465087890625
 20
172.47885626715583
 40
0.0608883012790937
  0
CIRCLE
  8
_1-1_
  6
CONTINUOUS
 62
    7
 10
241.4976047825169
 20
171.33620391020904
 40
0.0608883012790937
  0
CIRCLE
  8
_1-1_
  6
CONTINUOUS
 62
    7
 10
242.81319283150339
 20
171.59005242425044
 40
0.0608883012790937
  0
CIRCLE
  8
_1-1_
  6
CONTINUOUS
 62
    7
 10
242.91442046294344
 20
171.99496295001057
 40
0.0608883012790937
  0
CIRCLE
  8
_1-1_
  6
CONTINUOUS
 62
    7
 10
242.23955309068836
 20
172.87227321315456
 40
0.0608883012790937
  0
CIRCLE
  8
_1-1_
  6
CONTINUOUS
 62
    7
 10
241.65883657094597
 20
171.17185438001479
 40
0.0608883012790937
  0
CIRCLE
  8
_1-1_
  6
CONTINUOUS
 62
    7
 10
241.43030115076016
 20
170.48626049144849
 40
0.0608883012790937
  0
CIRCLE
  8
_1-1_
  6
CONTINUOUS
 62
    7
 10
240.97325505437078
 20
169.34360813450169
 40
0.0608883012790937
  0
CIRCLE
  8
_1-1_
  6
CONTINUOUS
 62
    7
 10
242.28884310335727
 20
169.59745664854307
 40
0.0608883012790937
  0
CIRCLE
  8
_1-1_
  6
CONTINUOUS
 62
    7
 10
242.39007073479732
 20
170.00236717430323
 40
0.0608883012790937
  0
CIRCLE
  8
_1-1_
  6
CONTINUOUS
 62
    7
 10
241.71520336254224
 20
170.87967743744721
 40
0.0608883012790937
  0
CIRCLE
  8
_1-1_
  6
CONTINUOUS
 62
    7
 10
240.73667783994935
 20
171.18336033176732
 40
0.0608883012790937
  0
CIRCLE
  8
_1-1_
  6
CONTINUOUS
 62
    7
 10
242.28807603990711
 20
169.07439360747466
 40
0.0608883012790937
  0
CIRCLE
  8
_1-1_
  6
CONTINUOUS
 62
    7
 10
241.3659173089105
 20
169.08589955922722
 40
0.0608883012790937
  0
CIRCLE
  8
_1-1_
  6
CONTINUOUS
 62
    7
 10
244.38552444045609
 20
171.69621648015203
 40
0.0608883012790937
  0
CIRCLE
  8
_1-1_
  6
CONTINUOUS
 62
    7
 10
244.15698902027029
 20
171.01062259158573
 40
0.0608883012790937
  0
CIRCLE
  8
_1-1_
  6
CONTINUOUS
 62
    7
 10
243.69994292388094
 20
169.86797023463893
 40
0.0608883012790937
  0
CIRCLE
  8
_1-1_
  6
CONTINUOUS
 62
    7
 10
244.44189123205237
 20
171.40403953758448
 40
0.0608883012790937
  0
CIRCLE
  8
_1-1_
  6
CONTINUOUS
 62
    7
 10
243.46336570945948
 20
171.70772243190456
 40
0.0608883012790937
  0
CIRCLE
  8
_1-1_
  6
CONTINUOUS
 62
    7
 10
244.85687255859375
 20
169.66263229782518
 40
0.0608883012790937
  0
CIRCLE
  8
_1-1_
  6
CONTINUOUS
 62
    7
 10
245.45914108688768
 20
169.65550603093328
 40
0.0608883012790937
  0
CIRCLE
  8
_1-1_
  6
CONTINUOUS
 62
    7
 10
245.30575314083617
 20
169.38629150390625
 40
0.0608883012790937
  0
CIRCLE
  8
_1-1_
  6
CONTINUOUS
 62
    7
 10
245.07721772065034
 20
168.70069761533995
 40
0.0608883012790937
  0
CIRCLE
  8
_1-1_
  6
CONTINUOUS
 62
    7
 10
244.62017162426099
 20
167.55804525839318
 40
0.0608883012790937
  0
CIRCLE
  8
_1-1_
  6
CONTINUOUS
 62
    7
 10
245.93575967324747
 20
167.81189377243456
 40
0.0608883012790937
  0
CIRCLE
  8
_1-1_
  6
CONTINUOUS
 62
    7
 10
246.0369873046875
 20
168.21680429819469
 40
0.0608883012790937
  0
CIRCLE
  8
_1-1_
  6
CONTINUOUS
 62
    7
 10
245.36211993243245
 20
169.0941145613387
 40
0.0608883012790937
  0
CIRCLE
  8
_1-1_
  6
CONTINUOUS
 62
    7
 10
244.38359440983953
 20
169.3977974556588
 40
0.0608883012790937
  0
CIRCLE
  8
_1-1_
  6
CONTINUOUS
 62
    7
 10
248.4519504856419
 20
168.6521746661212
 40
0.0608883012790937
  0
CIRCLE
  8
_1-1_
  6
CONTINUOUS
 62
    7
 10
248.22341506545609
 20
167.9665807775549
 40
0.0608883012790937
  0
CIRCLE
  8
_1-1_
  6
CONTINUOUS
 62
    7
 10
247.76636896906675
 20
166.82392842060813
 40
0.0608883012790937
  0
CIRCLE
  8
_1-1_
  6
CONTINUOUS
 62
    7
 10
248.50831727723818
 20
168.35999772355365
 40
0.0608883012790937
  0
CIRCLE
  8
_1-1_
  6
CONTINUOUS
 62
    7
 10
247.52979175464529
 20
168.66368061787375
 40
0.0608883012790937
  0
CIRCLE
  8
_1-1_
  6
CONTINUOUS
 62
    7
 10
248.60533843169344
 20
169.2360089276288
 40
0.0608883012790937
  0
CIRCLE
  8
_1-1_
  6
CONTINUOUS
 62
    7
 10
245.91618718327703
 20
169.32993708430109
 40
0.0608883012790937
  0
CIRCLE
  8
_1-1_
  6
CONTINUOUS
 62
    7
 10
245.45914108688768
 20
168.18728472735432
 40
0.0608883012790937
  0
CIRCLE
  8
_1-1_
  6
CONTINUOUS
 62
    7
 10
246.77472913587417
 20
168.4411332413957
 40
0.0608883012790937
  0
CIRCLE
  8
_1-1_
  6
CONTINUOUS
 62
    7
 10
246.87595676731419
 20
168.84604376715583
 40
0.0608883012790937
  0
CIRCLE
  8
_1-1_
  6
CONTINUOUS
 62
    7
 10
246.20108939505914
 20
169.72335403029984
 40
0.0608883012790937
  0
CIRCLE
  8
_1-1_
  6
CONTINUOUS
 62
    7
 10
245.62037287531675
 20
168.02293519716005
 40
0.0608883012790937
  0
CIRCLE
  8
_1-1_
  6
CONTINUOUS
 62
    7
 10
245.39183745513094
 20
167.33734130859375
 40
0.0608883012790937
  0
CIRCLE
  8
_1-1_
  6
CONTINUOUS
 62
    7
 10
244.93479135874156
 20
166.19468895164698
 40
0.0608883012790937
  0
CIRCLE
  8
_1-1_
  6
CONTINUOUS
 62
    7
 10
246.25037940772805
 20
166.44853746568836
 40
0.0608883012790937
  0
CIRCLE
  8
_1-1_
  6
CONTINUOUS
 62
    7
 10
246.3516070391681
 20
166.85344799144849
 40
0.0608883012790937
  0
CIRCLE
  8
_1-1_
  6
CONTINUOUS
 62
    7
 10
245.67673966691302
 20
167.7307582545925
 40
0.0608883012790937
  0
CIRCLE
  8
_1-1_
  6
CONTINUOUS
 62
    7
 10
244.6982141443201
 20
168.03444114891261
 40
0.0608883012790937
  0
CIRCLE
  8
_1-1_
  6
CONTINUOUS
 62
    7
 10
246.24961234427789
 20
165.92547442461995
 40
0.0608883012790937
  0
CIRCLE
  8
_1-1_
  6
CONTINUOUS
 62
    7
 10
245.32745361328125
 20
165.93698037637247
 40
0.0608883012790937
  0
CIRCLE
  8
_1-1_
  6
CONTINUOUS
 62
    7
 10
248.34706074482688
 20
168.54729729729732
 40
0.0608883012790937
  0
CIRCLE
  8
_1-1_
  6
CONTINUOUS
 62
    7
 10
248.11852532464107
 20
167.86170340873102
 40
0.0608883012790937
  0
CIRCLE
  8
_1-1_
  6
CONTINUOUS
 62
    7
 10
247.66147922825169
 20
166.71905105178422
 40
0.0608883012790937
  0
CIRCLE
  8
_1-1_
  6
CONTINUOUS
 62
    7
 10
248.40342753642315
 20
168.25512035472974
 40
0.0608883012790937
  0
CIRCLE
  8
_1-1_
  6
CONTINUOUS
 62
    7
 10
247.42490201383026
 20
168.55880324904984
 40
0.0608883012790937
  0
CIRCLE
  8
_1-1_
  6
CONTINUOUS
 62
    7
 10
247.19317461993245
 20
169.05316327069258
 40
0.0608883012790937
  0
CIRCLE
  8
_1-1_
  6
CONTINUOUS
 62
    7
 10
247.79544314822635
 20
169.04603700380068
 40
0.0608883012790937
  0
CIRCLE
  8
_1-1_
  6
CONTINUOUS
 62
    7
 10
247.64205520217484
 20
168.77682247677365
 40
0.0608883012790937
  0
CIRCLE
  8
_1-1_
  6
CONTINUOUS
 62
    7
 10
247.41351978198904
 20
168.09122858820734
 40
0.0608883012790937
  0
CIRCLE
  8
_1-1_
  6
CONTINUOUS
 62
    7
 10
246.95647368559969
 20
166.94857623126057
 40
0.0608883012790937
  0
CIRCLE
  8
_1-1_
  6
CONTINUOUS
 62
    7
 10
248.27206173458617
 20
167.20242474530195
 40
0.0608883012790937
  0
CIRCLE
  8
_1-1_
  6
CONTINUOUS
 62
    7
 10
248.3732893660262
 20
167.60733527106208
 40
0.0608883012790937
  0
CIRCLE
  8
_1-1_
  6
CONTINUOUS
 62
    7
 10
247.69842199377112
 20
168.48464553420609
 40
0.0608883012790937
  0
CIRCLE
  8
_1-1_
  6
CONTINUOUS
 62
    7
 10
246.71989647117823
 20
168.7883284285262
 40
0.0608883012790937
  0
CIRCLE
  8
_1-1_
  6
CONTINUOUS
 62
    7
 10
250.7882525469806
 20
168.04270563898859
 40
0.0608883012790937
  0
CIRCLE
  8
_1-1_
  6
CONTINUOUS
 62
    7
 10
250.55971712679477
 20
167.35711175042232
 40
0.0608883012790937
  0
CIRCLE
  8
_1-1_
  6
CONTINUOUS
 62
    7
 10
250.10267103040542
 20
166.21445939347552
 40
0.0608883012790937
  0
CIRCLE
  8
_1-1_
  6
CONTINUOUS
 62
    7
 10
250.84461933857688
 20
167.75052869642104
 40
0.0608883012790937
  0
CIRCLE
  8
_1-1_
  6
CONTINUOUS
 62
    7
 10
249.86609381598396
 20
168.05421159074115
 40
0.0608883012790937
  0
CIRCLE
  8
_1-1_
  6
CONTINUOUS
 62
    7
 10
250.94164049303211
 20
168.6265399004962
 40
0.0608883012790937
  0
CIRCLE
  8
_1-1_
  6
CONTINUOUS
 62
    7
 10
248.25248924461573
 20
168.72046805716852
 40
0.0608883012790937
  0
CIRCLE
  8
_1-1_
  6
CONTINUOUS
 62
    7
 10
247.79544314822635
 20
167.57781570022172
 40
0.0608883012790937
  0
CIRCLE
  8
_1-1_
  6
CONTINUOUS
 62
    7
 10
249.11103119721284
 20
167.8316642142631
 40
0.0608883012790937
  0
CIRCLE
  8
_1-1_
  6
CONTINUOUS
 62
    7
 10
249.21225882865289
 20
168.23657474002323
 40
0.0608883012790937
  0
CIRCLE
  8
_1-1_
  6
CONTINUOUS
 62
    7
 10
248.53739145639781
 20
169.11388500316724
 40
0.0608883012790937
  0
CIRCLE
  8
_1-1_
  6
CONTINUOUS
 62
    7
 10
247.95667493665542
 20
167.41346617002745
 40
0.0608883012790937
  0
CIRCLE
  8
_1-1_
  6
CONTINUOUS
 62
    7
 10
247.72813951646961
 20
166.72787228146115
 40
0.0608883012790937
  0
CIRCLE
  8
_1-1_
  6
CONTINUOUS
 62
    7
 10
247.27109342008026
 20
165.58521992451438
 40
0.0608883012790937
  0
CIRCLE
  8
_1-1_
  6
CONTINUOUS
 62
    7
 10
248.58668146906675
 20
165.83906843855576
 40
0.0608883012790937
  0
CIRCLE
  8
_1-1_
  6
CONTINUOUS
 62
    7
 10
248.68790910050677
 20
166.24397896431589
 40
0.0608883012790937
  0
CIRCLE
  8
_1-1_
  6
CONTINUOUS
 62
    7
 10
248.01304172825169
 20
167.1212892274599
 40
0.0608883012790937
  0
CIRCLE
  8
_1-1_
  6
CONTINUOUS
 62
    7
 10
247.0345162056588
 20
167.42497212178
 40
0.0608883012790937
  0
CIRCLE
  8
_1-1_
  6
CONTINUOUS
 62
    7
 10
248.58591440561656
 20
165.31600539748734
 40
0.0608883012790937
  0
CIRCLE
  8
_1-1_
  6
CONTINUOUS
 62
    7
 10
247.66375567461995
 20
165.32751134923987
 40
0.0608883012790937
  0
CIRCLE
  8
_1-1_
  6
CONTINUOUS
 62
    7
 10
250.68336280616555
 20
167.93782827016472
 40
0.0608883012790937
  0
CIRCLE
  8
_1-1_
  6
CONTINUOUS
 62
    7
 10
250.45482738597974
 20
167.25223438159841
 40
0.0608883012790937
  0
CIRCLE
  8
_1-1_
  6
CONTINUOUS
 62
    7
 10
249.99778128959039
 20
166.10958202465162
 40
0.0608883012790937
  0
CIRCLE
  8
_1-1_
  6
CONTINUOUS
 62
    7
 10
250.73972959776185
 20
167.64565132759714
 40
0.0608883012790937
  0
CIRCLE
  8
_1-1_
  6
CONTINUOUS
 62
    7
 10
249.76120407516893
 20
167.94933422191724
 40
0.0608883012790937
  0
CIRCLE
  8
_1-1_
  6
CONTINUOUS
 62
    7
 10
240.79376220703125
 20
168.95158922350086
 40
0.0608883012790937
  0
CIRCLE
  8
_1-1_
  6
CONTINUOUS
 62
    7
 10
241.39603073532518
 20
168.94446295660896
 40
0.0608883012790937
  0
CIRCLE
  8
_1-1_
  6
CONTINUOUS
 62
    7
 10
241.24264278927367
 20
168.67524842958193
 40
0.0608883012790937
  0
CIRCLE
  8
_1-1_
  6
CONTINUOUS
 62
    7
 10
241.01410736908784
 20
167.98965454101562
 40
0.0608883012790937
  0
CIRCLE
  8
_1-1_
  6
CONTINUOUS
 62
    7
 10
240.55706127269849
 20
166.84700218406886
 40
0.0608883012790937
  0
CIRCLE
  8
_1-1_
  6
CONTINUOUS
 62
    7
 10
241.87264932168497
 20
167.10085069811024
 40
0.0608883012790937
  0
CIRCLE
  8
_1-1_
  6
CONTINUOUS
 62
    7
 10
241.973876953125
 20
167.50576122387037
 40
0.0608883012790937
  0
CIRCLE
  8
_1-1_
  6
CONTINUOUS
 62
    7
 10
241.29900958086995
 20
168.38307148701438
 40
0.0608883012790937
  0
CIRCLE
  8
_1-1_
  6
CONTINUOUS
 62
    7
 10
240.32048405827703
 20
168.68675438133448
 40
0.0608883012790937
  0
CIRCLE
  8
_1-1_
  6
CONTINUOUS
 62
    7
 10
244.3888401340794
 20
167.94113159179687
 40
0.0608883012790937
  0
CIRCLE
  8
_1-1_
  6
CONTINUOUS
 62
    7
 10
244.16030471389359
 20
167.25553770323057
 40
0.0608883012790937
  0
CIRCLE
  8
_1-1_
  6
CONTINUOUS
 62
    7
 10
243.70325861750425
 20
166.1128853462838
 40
0.0608883012790937
  0
CIRCLE
  8
_1-1_
  6
CONTINUOUS
 62
    7
 10
244.44520692567568
 20
167.64895464922932
 40
0.0608883012790937
  0
CIRCLE
  8
_1-1_
  6
CONTINUOUS
 62
    7
 10
243.46668140308279
 20
167.95263754354943
 40
0.0608883012790937
  0
CIRCLE
  8
_1-1_
  6
CONTINUOUS
 62
    7
 10
244.54222808013094
 20
168.52496585330448
 40
0.0608883012790937
  0
CIRCLE
  8
_1-1_
  6
CONTINUOUS
 62
    7
 10
241.85307683171453
 20
168.61889400997677
 40
0.0608883012790937
  0
CIRCLE
  8
_1-1_
  6
CONTINUOUS
 62
    7
 10
241.39603073532518
 20
167.47624165303
 40
0.0608883012790937
  0
CIRCLE
  8
_1-1_
  6
CONTINUOUS
 62
    7
 10
242.71161878431167
 20
167.73009016707138
 40
0.0608883012790937
  0
CIRCLE
  8
_1-1_
  6
CONTINUOUS
 62
    7
 10
242.81284641575169
 20
168.13500069283151
 40
0.0608883012790937
  0
CIRCLE
  8
_1-1_
  6
CONTINUOUS
 62
    7
 10
242.13797904349664
 20
169.01231095597552
 40
0.0608883012790937
  0
CIRCLE
  8
_1-1_
  6
CONTINUOUS
 62
    7
 10
241.55726252375425
 20
167.31189212283573
 40
0.0608883012790937
  0
CIRCLE
  8
_1-1_
  6
CONTINUOUS
 62
    7
 10
241.32872710356841
 20
166.62629823426943
 40
0.0608883012790937
  0
CIRCLE
  8
_1-1_
  6
CONTINUOUS
 62
    7
 10
240.87168100717906
 20
165.48364587732266
 40
0.0608883012790937
  0
CIRCLE
  8
_1-1_
  6
CONTINUOUS
 62
    7
 10
242.18726905616555
 20
165.73749439136404
 40
0.0608883012790937
  0
CIRCLE
  8
_1-1_
  6
CONTINUOUS
 62
    7
 10
242.2884966876056
 20
166.14240491712417
 40
0.0608883012790937
  0
CIRCLE
  8
_1-1_
  6
CONTINUOUS
 62
    7
 10
241.61362931535052
 20
167.01971518026818
 40
0.0608883012790937
  0
CIRCLE
  8
_1-1_
  6
CONTINUOUS
 62
    7
 10
240.6351037927576
 20
167.32339807458828
 40
0.0608883012790937
  0
CIRCLE
  8
_1-1_
  6
CONTINUOUS
 62
    7
 10
242.18650199271539
 20
165.21443135029563
 40
0.0608883012790937
  0
CIRCLE
  8
_1-1_
  6
CONTINUOUS
 62
    7
 10
241.26434326171875
 20
165.22593730204815
 40
0.0608883012790937
  0
CIRCLE
  8
_1-1_
  6
CONTINUOUS
 62
    7
 10
244.28395039326438
 20
167.83625422297297
 40
0.0608883012790937
  0
CIRCLE
  8
_1-1_
  6
CONTINUOUS
 62
    7
 10
244.05541497307857
 20
167.15066033440669
 40
0.0608883012790937
  0
CIRCLE
  8
_1-1_
  6
CONTINUOUS
 62
    7
 10
243.59836887668919
 20
166.0080079774599
 40
0.0608883012790937
  0
CIRCLE
  8
_1-1_
  6
CONTINUOUS
 62
    7
 10
244.34031718486065
 20
167.54407728040542
 40
0.0608883012790937
  0
CIRCLE
  8
_1-1_
  6
CONTINUOUS
 62
    7
 10
243.36179166226776
 20
167.84776017472552
 40
0.0608883012790937
  0
CIRCLE
  8
_1-1_
  6
CONTINUOUS
 62
    7
 10
241.80952742293076
 20
163.56794202649917
 40
0.0608883012790937
  0
CIRCLE
  8
_1-1_
  6
CONTINUOUS
 62
    7
 10
242.41179595122469
 20
163.56081575960727
 40
0.0608883012790937
  0
CIRCLE
  8
_1-1_
  6
CONTINUOUS
 62
    7
 10
242.25840800517315
 20
163.29160123258023
 40
0.0608883012790937
  0
CIRCLE
  8
_1-1_
  6
CONTINUOUS
 62
    7
 10
242.02987258498734
 20
162.60600734401393
 40
0.0608883012790937
  0
CIRCLE
  8
_1-1_
  6
CONTINUOUS
 62
    7
 10
241.572826488598
 20
161.46335498706716
 40
0.0608883012790937
  0
CIRCLE
  8
_1-1_
  6
CONTINUOUS
 62
    7
 10
242.88841453758448
 20
161.71720350110854
 40
0.0608883012790937
  0
CIRCLE
  8
_1-1_
  6
CONTINUOUS
 62
    7
 10
242.98964216902451
 20
162.12211402686867
 40
0.0608883012790937
  0
CIRCLE
  8
_1-1_
  6
CONTINUOUS
 62
    7
 10
242.31477479676943
 20
162.99942429001268
 40
0.0608883012790937
  0
CIRCLE
  8
_1-1_
  6
CONTINUOUS
 62
    7
 10
241.33624927417654
 20
163.30310718433279
 40
0.0608883012790937
  0
CIRCLE
  8
_1-1_
  6
CONTINUOUS
 62
    7
 10
245.40460534997891
 20
162.55748439479518
 40
0.0608883012790937
  0
CIRCLE
  8
_1-1_
  6
CONTINUOUS
 62
    7
 10
245.1760699297931
 20
161.87189050622891
 40
0.0608883012790937
  0
CIRCLE
  8
_1-1_
  6
CONTINUOUS
 62
    7
 10
244.71902383340372
 20
160.72923814928211
 40
0.0608883012790937
  0
CIRCLE
  8
_1-1_
  6
CONTINUOUS
 62
    7
 10
245.46097214157518
 20
162.26530745222763
 40
0.0608883012790937
  0
CIRCLE
  8
_1-1_
  6
CONTINUOUS
 62
    7
 10
244.48244661898227
 20
162.56899034654774
 40
0.0608883012790937
  0
CIRCLE
  8
_1-1_
  6
CONTINUOUS
 62
    7
 10
245.55799329603042
 20
163.14131865630279
 40
0.0608883012790937
  0
CIRCLE
  8
_1-1_
  6
CONTINUOUS
 62
    7
 10
242.86884204761404
 20
163.23524681297511
 40
0.0608883012790937
  0
CIRCLE
  8
_1-1_
  6
CONTINUOUS
 62
    7
 10
242.41179595122469
 20
162.09259445602831
 40
0.0608883012790937
  0
CIRCLE
  8
_1-1_
  6
CONTINUOUS
 62
    7
 10
243.72738400021117
 20
162.34644297006969
 40
0.0608883012790937
  0
CIRCLE
  8
_1-1_
  6
CONTINUOUS
 62
    7
 10
243.8286116316512
 20
162.75135349582982
 40
0.0608883012790937
  0
CIRCLE
  8
_1-1_
  6
CONTINUOUS
 62
    7
 10
243.15374425939612
 20
163.62866375897383
 40
0.0608883012790937
  0
CIRCLE
  8
_1-1_
  6
CONTINUOUS
 62
    7
 10
242.57302773965372
 20
161.92824492583404
 40
0.0608883012790937
  0
CIRCLE
  8
_1-1_
  6
CONTINUOUS
 62
    7
 10
242.34449231946792
 20
161.24265103726773
 40
0.0608883012790937
  0
CIRCLE
  8
_1-1_
  6
CONTINUOUS
 62
    7
 10
241.88744622307857
 20
160.09999868032097
 40
0.0608883012790937
  0
CIRCLE
  8
_1-1_
  6
CONTINUOUS
 62
    7
 10
243.20303427206505
 20
160.35384719436234
 40
0.0608883012790937
  0
CIRCLE
  8
_1-1_
  6
CONTINUOUS
 62
    7
 10
243.30426190350508
 20
160.75875772012247
 40
0.0608883012790937
  0
CIRCLE
  8
_1-1_
  6
CONTINUOUS
 62
    7
 10
242.62939453125
 20
161.63606798326649
 40
0.0608883012790937
  0
CIRCLE
  8
_1-1_
  6
CONTINUOUS
 62
    7
 10
241.65086900865711
 20
161.93975087758659
 40
0.0608883012790937
  0
CIRCLE
  8
_1-1_
  6
CONTINUOUS
 62
    7
 10
243.20226720861487
 20
159.83078415329393
 40
0.0608883012790937
  0
CIRCLE
  8
_1-1_
  6
CONTINUOUS
 62
    7
 10
242.28010847761826
 20
159.84229010504646
 40
0.0608883012790937
  0
CIRCLE
  8
_1-1_
  6
CONTINUOUS
 62
    7
 10
245.29971560916385
 20
162.4526070259713
 40
0.0608883012790937
  0
CIRCLE
  8
_1-1_
  6
CONTINUOUS
 62
    7
 10
245.07118018897805
 20
161.767013137405
 40
0.0608883012790937
  0
CIRCLE
  8
_1-1_
  6
CONTINUOUS
 62
    7
 10
244.6141340925887
 20
160.6243607804582
 40
0.0608883012790937
  0
CIRCLE
  8
_1-1_
  6
CONTINUOUS
 62
    7
 10
245.35608240076016
 20
162.16043008340372
 40
0.0608883012790937
  0
CIRCLE
  8
_1-1_
  6
CONTINUOUS
 62
    7
 10
244.37755687816724
 20
162.46411297772383
 40
0.0608883012790937
  0
CIRCLE
  8
_1-1_
  6
CONTINUOUS
 62
    7
 10
241.5048052813556
 20
161.4348128035262
 40
0.0608883012790937
  0
CIRCLE
  8
_1-1_
  6
CONTINUOUS
 62
    7
 10
242.10707380964951
 20
161.4276865366343
 40
0.0608883012790937
  0
CIRCLE
  8
_1-1_
  6
CONTINUOUS
 62
    7
 10
241.953685863598
 20
161.15847200960727
 40
0.0608883012790937
  0
CIRCLE
  8
_1-1_
  6
CONTINUOUS
 62
    7
 10
241.72515044341216
 20
160.47287812104096
 40
0.0608883012790937
  0
CIRCLE
  8
_1-1_
  6
CONTINUOUS
 62
    7
 10
241.26810434702281
 20
159.33022576409419
 40
0.0608883012790937
  0
CIRCLE
  8
_1-1_
  6
CONTINUOUS
 62
    7
 10
242.5836923960093
 20
159.58407427813557
 40
0.0608883012790937
  0
CIRCLE
  8
_1-1_
  6
CONTINUOUS
 62
    7
 10
242.68492002744935
 20
159.9889848038957
 40
0.0608883012790937
  0
CIRCLE
  8
_1-1_
  6
CONTINUOUS
 62
    7
 10
242.01005265519427
 20
160.86629506703972
 40
0.0608883012790937
  0
CIRCLE
  8
_1-1_
  6
CONTINUOUS
 62
    7
 10
241.03152713260135
 20
161.16997796135982
 40
0.0608883012790937
  0
CIRCLE
  8
_1-1_
  6
CONTINUOUS
 62
    7
 10
245.09988320840372
 20
160.42435517182221
 40
0.0608883012790937
  0
CIRCLE
  8
_1-1_
  6
CONTINUOUS
 62
    7
 10
244.17772447740711
 20
160.43586112357477
 40
0.0608883012790937
  0
CIRCLE
  8
_1-1_
  6
CONTINUOUS
 62
    7
 10
245.25327115445526
 20
161.00818943332982
 40
0.0608883012790937
  0
CIRCLE
  8
_1-1_
  6
CONTINUOUS
 62
    7
 10
242.56411990603885
 20
161.10211759000211
 40
0.0608883012790937
  0
CIRCLE
  8
_1-1_
  6
CONTINUOUS
 62
    7
 10
242.10707380964951
 20
159.95946523305534
 40
0.0608883012790937
  0
CIRCLE
  8
_1-1_
  6
CONTINUOUS
 62
    7
 10
243.42266185863599
 20
160.21331374709672
 40
0.0608883012790937
  0
CIRCLE
  8
_1-1_
  6
CONTINUOUS
 62
    7
 10
243.52388949007602
 20
160.61822427285685
 40
0.0608883012790937
  0
CIRCLE
  8
_1-1_
  6
CONTINUOUS
 62
    7
 10
242.84902211782097
 20
161.49553453600086
 40
0.0608883012790937
  0
CIRCLE
  8
_1-1_
  6
CONTINUOUS
 62
    7
 10
242.26830559807857
 20
159.79511570286107
 40
0.0608883012790937
  0
CIRCLE
  8
_1-1_
  6
CONTINUOUS
 62
    7
 10
242.03977017789276
 20
159.10952181429477
 40
0.0608883012790937
  0
CIRCLE
  8
_1-1_
  6
CONTINUOUS
 62
    7
 10
242.32467238967484
 20
159.50293876029352
 40
0.0608883012790937
  0
CIRCLE
  8
_1-1_
  6
CONTINUOUS
 62
    7
 10
241.34614686708193
 20
159.80662165461359
 40
0.0608883012790937
  0
CIRCLE
  8
_1-1_
  6
CONTINUOUS
 62
    7
 10
244.9949934675887
 20
160.31947780299831
 40
0.0608883012790937
  0
CIRCLE
  8
_1-1_
  6
CONTINUOUS
 62
    7
 10
244.07283473659209
 20
160.33098375475086
 40
0.0608883012790937
  0
CIRCLE
  8
_1-1_
  6
CONTINUOUS
 62
    7
 10
253.12455460831927
 20
158.59594809042443
 40
0.0608883012790937
  0
CIRCLE
  8
_1-1_
  6
CONTINUOUS
 62
    7
 10
252.89601918813347
 20
157.91035420185813
 40
0.0608883012790937
  0
CIRCLE
  8
_1-1_
  6
CONTINUOUS
 62
    7
 10
252.43897309174409
 20
156.76770184491133
 40
0.0608883012790937
  0
CIRCLE
  8
_1-1_
  6
CONTINUOUS
 62
    7
 10
253.18092139991555
 20
158.30377114785685
 40
0.0608883012790937
  0
CIRCLE
  8
_1-1_
  6
CONTINUOUS
 62
    7
 10
252.20239587732266
 20
158.60745404217695
 40
0.0608883012790937
  0
CIRCLE
  8
_1-1_
  6
CONTINUOUS
 62
    7
 10
253.27794255437078
 20
159.17978235193203
 40
0.0608883012790937
  0
CIRCLE
  8
_1-1_
  6
CONTINUOUS
 62
    7
 10
251.44733325855154
 20
158.38490666569891
 40
0.0608883012790937
  0
CIRCLE
  8
_1-1_
  6
CONTINUOUS
 62
    7
 10
251.54856088999156
 20
158.78981719145904
 40
0.0608883012790937
  0
CIRCLE
  8
_1-1_
  6
CONTINUOUS
 62
    7
 10
250.87369351773651
 20
159.66712745460305
 40
0.0608883012790937
  0
CIRCLE
  8
_1-1_
  6
CONTINUOUS
 62
    7
 10
253.01966486750425
 20
158.49107072160052
 40
0.0608883012790937
  0
CIRCLE
  8
_1-1_
  6
CONTINUOUS
 62
    7
 10
252.79112944731844
 20
157.80547683303422
 40
0.0608883012790937
  0
CIRCLE
  8
_1-1_
  6
CONTINUOUS
 62
    7
 10
252.33408335092906
 20
156.66282447608742
 40
0.0608883012790937
  0
CIRCLE
  8
_1-1_
  6
CONTINUOUS
 62
    7
 10
253.07603165910052
 20
158.19889377903294
 40
0.0608883012790937
  0
CIRCLE
  8
_1-1_
  6
CONTINUOUS
 62
    7
 10
252.0975061365076
 20
158.50257667335305
 40
0.0608883012790937
  0
CIRCLE
  8
_1-1_
  6
CONTINUOUS
 62
    7
 10
250.03737166121201
 20
164.48214556719807
 40
0.0608883012790937
  0
CIRCLE
  8
_1-1_
  6
CONTINUOUS
 62
    7
 10
250.63964018950594
 20
164.47501930030617
 40
0.0608883012790937
  0
CIRCLE
  8
_1-1_
  6
CONTINUOUS
 62
    7
 10
250.4862522434544
 20
164.20580477327914
 40
0.0608883012790937
  0
CIRCLE
  8
_1-1_
  6
CONTINUOUS
 62
    7
 10
250.25771682326859
 20
163.52021088471284
 40
0.0608883012790937
  0
CIRCLE
  8
_1-1_
  6
CONTINUOUS
 62
    7
 10
249.80067072687925
 20
162.37755852776607
 40
0.0608883012790937
  0
CIRCLE
  8
_1-1_
  6
CONTINUOUS
 62
    7
 10
251.11625877586573
 20
162.63140704180745
 40
0.0608883012790937
  0
CIRCLE
  8
_1-1_
  6
CONTINUOUS
 62
    7
 10
251.21748640730576
 20
163.03631756756758
 40
0.0608883012790937
  0
CIRCLE
  8
_1-1_
  6
CONTINUOUS
 62
    7
 10
250.54261903505068
 20
163.91362783071159
 40
0.0608883012790937
  0
CIRCLE
  8
_1-1_
  6
CONTINUOUS
 62
    7
 10
249.56409351245779
 20
164.21731072503169
 40
0.0608883012790937
  0
CIRCLE
  8
_1-1_
  6
CONTINUOUS
 62
    7
 10
253.63244958826016
 20
163.47168793549409
 40
0.0608883012790937
  0
CIRCLE
  8
_1-1_
  6
CONTINUOUS
 62
    7
 10
253.40391416807435
 20
162.78609404692779
 40
0.0608883012790937
  0
CIRCLE
  8
_1-1_
  6
CONTINUOUS
 62
    7
 10
252.94686807168497
 20
161.64344168998102
 40
0.0608883012790937
  0
CIRCLE
  8
_1-1_
  6
CONTINUOUS
 62
    7
 10
253.68881637985643
 20
163.17951099292654
 40
0.0608883012790937
  0
CIRCLE
  8
_1-1_
  6
CONTINUOUS
 62
    7
 10
252.71029085726352
 20
163.48319388724664
 40
0.0608883012790937
  0
CIRCLE
  8
_1-1_
  6
CONTINUOUS
 62
    7
 10
253.78583753431167
 20
164.05552219700169
 40
0.0608883012790937
  0
CIRCLE
  8
_1-1_
  6
CONTINUOUS
 62
    7
 10
251.09668628589529
 20
164.14945035367398
 40
0.0608883012790937
  0
CIRCLE
  8
_1-1_
  6
CONTINUOUS
 62
    7
 10
250.63964018950594
 20
163.00679799672722
 40
0.0608883012790937
  0
CIRCLE
  8
_1-1_
  6
CONTINUOUS
 62
    7
 10
251.95522823849242
 20
163.26064651076859
 40
0.0608883012790937
  0
CIRCLE
  8
_1-1_
  6
CONTINUOUS
 62
    7
 10
252.05645586993245
 20
163.66555703652872
 40
0.0608883012790937
  0
CIRCLE
  8
_1-1_
  6
CONTINUOUS
 62
    7
 10
251.38158849767737
 20
164.54286729967274
 40
0.0608883012790937
  0
CIRCLE
  8
_1-1_
  6
CONTINUOUS
 62
    7
 10
250.80087197793497
 20
162.84244846653294
 40
0.0608883012790937
  0
CIRCLE
  8
_1-1_
  6
CONTINUOUS
 62
    7
 10
250.57233655774917
 20
162.15685457796664
 40
0.0608883012790937
  0
CIRCLE
  8
_1-1_
  6
CONTINUOUS
 62
    7
 10
251.4308785103463
 20
161.26805073506125
 40
0.0608883012790937
  0
CIRCLE
  8
_1-1_
  6
CONTINUOUS
 62
    7
 10
251.53210614178633
 20
161.67296126082138
 40
0.0608883012790937
  0
CIRCLE
  8
_1-1_
  6
CONTINUOUS
 62
    7
 10
250.85723876953125
 20
162.55027152396539
 40
0.0608883012790937
  0
CIRCLE
  8
_1-1_
  6
CONTINUOUS
 62
    7
 10
249.87871324693836
 20
162.85395441828547
 40
0.0608883012790937
  0
CIRCLE
  8
_1-1_
  6
CONTINUOUS
 62
    7
 10
251.43011144689612
 20
160.74498769399284
 40
0.0608883012790937
  0
CIRCLE
  8
_1-1_
  6
CONTINUOUS
 62
    7
 10
253.5275598474451
 20
163.36681056667018
 40
0.0608883012790937
  0
CIRCLE
  8
_1-1_
  6
CONTINUOUS
 62
    7
 10
253.2990244272593
 20
162.68121667810391
 40
0.0608883012790937
  0
CIRCLE
  8
_1-1_
  6
CONTINUOUS
 62
    7
 10
252.84197833086995
 20
161.53856432115711
 40
0.0608883012790937
  0
CIRCLE
  8
_1-1_
  6
CONTINUOUS
 62
    7
 10
253.58392663904141
 20
163.07463362410263
 40
0.0608883012790937
  0
CIRCLE
  8
_1-1_
  6
CONTINUOUS
 62
    7
 10
252.60540111644849
 20
163.37831651842274
 40
0.0608883012790937
  0
CIRCLE
  8
_1-1_
  6
CONTINUOUS
 62
    7
 10
81.882501550622891
 20
68.640301678631758
 40
0.2213674703159847
  0
CIRCLE
  8
_1-1_
  6
CONTINUOUS
 62
    7
 10
79.221539884000208
 20
68.640301678631758
 40
0.2213674703159847
  0
CIRCLE
  8
_1-1_
  6
CONTINUOUS
 62
    7
 10
82.352086660024284
 20
67.388089154217695
 40
0.2213674703159847
  0
CIRCLE
  8
_1-1_
  6
CONTINUOUS
 62
    7
 10
81.412922627217085
 20
68.327247001029349
 40
0.2213674703159847
  0
CIRCLE
  8
_1-1_
  6
CONTINUOUS
 62
    7
 10
81.569453059016041
 20
70.362105498442787
 40
0.2213674703159847
  0
CIRCLE
  8
_1-1_
  6
CONTINUOUS
 62
    7
 10
84.699993649044558
 20
70.049044634844805
 40
0.2213674703159847
  0
CIRCLE
  8
_1-1_
  6
CONTINUOUS
 62
    7
 10
85.169578758445951
 20
69.579465711438985
 40
0.2213674703159847
  0
CIRCLE
  8
_1-1_
  6
CONTINUOUS
 62
    7
 10
81.72597730481948
 20
70.049044634844805
 40
0.2213674703159847
  0
CIRCLE
  8
_1-1_
  6
CONTINUOUS
 62
    7
 10
77.969327359586146
 20
70.362105498442787
 40
0.2213674703159847
  0
CIRCLE
  8
_1-1_
  6
CONTINUOUS
 62
    7
 10
75.308359506967918
 20
70.049044634844805
 40
0.2213674703159847
  0
CIRCLE
  8
_1-1_
  6
CONTINUOUS
 62
    7
 10
80.786813272012239
 20
71.301263345254441
 40
0.2213674703159847
  0
CIRCLE
  8
_1-1_
  6
CONTINUOUS
 62
    7
 10
87.674009993269635
 20
75.05791947648332
 40
0.2213674703159847
  0
CIRCLE
  8
_1-1_
  6
CONTINUOUS
 62
    7
 10
88.769698271880287
 20
75.37096796809017
 40
0.2213674703159847
  0
CIRCLE
  8
_1-1_
  6
CONTINUOUS
 62
    7
 10
94.404676282728047
 20
76.466662432696367
 40
0.2213674703159847
  0
CIRCLE
  8
_1-1_
  6
CONTINUOUS
 62
    7
 10
85.326103004249376
 20
72.866536733266472
 40
0.2213674703159847
  0
CIRCLE
  8
_1-1_
  6
CONTINUOUS
 62
    7
 10
87.517485747466225
 20
71.927372700459259
 40
0.2213674703159847
  0
CIRCLE
  8
_1-1_
  6
CONTINUOUS
 62
    7
 10
85.795681927655195
 20
71.301263345254441
 40
0.2213674703159847
  0
CIRCLE
  8
_1-1_
  6
CONTINUOUS
 62
    7
 10
90.178441228093334
 20
71.61431802285685
 40
0.2213674703159847
  0
CIRCLE
  8
_1-1_
  6
CONTINUOUS
 62
    7
 10
92.682878648912592
 20
73.179591410868881
 40
0.2213674703159847
  0
CIRCLE
  8
_1-1_
  6
CONTINUOUS
 62
    7
 10
82.352086660024284
 20
68.170716569230365
 40
0.2213674703159847
  0
CIRCLE
  8
_1-1_
  6
CONTINUOUS
 62
    7
 10
81.412922627217085
 20
66.292394689611484
 40
0.2213674703159847
  0
CIRCLE
  8
_1-1_
  6
CONTINUOUS
 62
    7
 10
77.812796927787161
 20
65.353230656804271
 40
0.2213674703159847
  0
CIRCLE
  8
_1-1_
  6
CONTINUOUS
 62
    7
 10
79.065015638196797
 20
65.822809580210091
 40
0.2213674703159847
  0
CIRCLE
  8
_1-1_
  6
CONTINUOUS
 62
    7
 10
78.125851605389585
 20
67.701137645824545
 40
0.2213674703159847
  0
CIRCLE
  8
_1-1_
  6
CONTINUOUS
 62
    7
 10
103.32673150139887
 20
76.623186678499792
 40
0.2213674703159847
  0
CIRCLE
  8
_1-1_
  6
CONTINUOUS
 62
    7
 10
100.66576983477619
 20
76.623186678499792
 40
0.2213674703159847
  0
CIRCLE
  8
_1-1_
  6
CONTINUOUS
 62
    7
 10
102.85715257799303
 20
76.310132000897383
 40
0.2213674703159847
  0
CIRCLE
  8
_1-1_
  6
CONTINUOUS
 62
    7
 10
103.01368300979202
 20
78.344990498310821
 40
0.2213674703159847
  0
CIRCLE
  8
_1-1_
  6
CONTINUOUS
 62
    7
 10
106.14422359982053
 20
78.031929634712839
 40
0.2213674703159847
  0
CIRCLE
  8
_1-1_
  6
CONTINUOUS
 62
    7
 10
106.61380252322635
 20
77.562350711307019
 40
0.2213674703159847
  0
CIRCLE
  8
_1-1_
  6
CONTINUOUS
 62
    7
 10
103.17020725559544
 20
78.031929634712839
 40
0.2213674703159847
  0
CIRCLE
  8
_1-1_
  6
CONTINUOUS
 62
    7
 10
98.004801982157943
 20
77.405826465503594
 40
0.2213674703159847
  0
CIRCLE
  8
_1-1_
  6
CONTINUOUS
 62
    7
 10
95.34384031553526
 20
77.405826465503594
 40
0.2213674703159847
  0
CIRCLE
  8
_1-1_
  6
CONTINUOUS
 62
    7
 10
97.535223058752123
 20
77.092771787901185
 40
0.2213674703159847
  0
CIRCLE
  8
_1-1_
  6
CONTINUOUS
 62
    7
 10
97.691753490551108
 20
79.127630285314609
 40
0.2213674703159847
  0
CIRCLE
  8
_1-1_
  6
CONTINUOUS
 62
    7
 10
100.82229408057961
 20
78.814569421716641
 40
0.2213674703159847
  0
CIRCLE
  8
_1-1_
  6
CONTINUOUS
 62
    7
 10
101.291879189981
 20
78.344990498310821
 40
0.2213674703159847
  0
CIRCLE
  8
_1-1_
  6
CONTINUOUS
 62
    7
 10
97.848277736354518
 20
78.814569421716641
 40
0.2213674703159847
  0
CIRCLE
  8
_1-1_
  6
CONTINUOUS
 62
    7
 10
95.969949670740078
 20
71.457793777053425
 40
0.2213674703159847
  0
CIRCLE
  8
_1-1_
  6
CONTINUOUS
 62
    7
 10
93.30898800411741
 20
71.457793777053425
 40
0.2213674703159847
  0
CIRCLE
  8
_1-1_
  6
CONTINUOUS
 62
    7
 10
95.500370747334259
 20
71.144739099451016
 40
0.2213674703159847
  0
CIRCLE
  8
_1-1_
  6
CONTINUOUS
 62
    7
 10
95.656901179133243
 20
73.17959759686444
 40
0.2213674703159847
  0
CIRCLE
  8
_1-1_
  6
CONTINUOUS
 62
    7
 10
98.787441769161745
 20
72.866536733266472
 40
0.2213674703159847
  0
CIRCLE
  8
_1-1_
  6
CONTINUOUS
 62
    7
 10
99.257026878563138
 20
72.396957809860652
 40
0.2213674703159847
  0
CIRCLE
  8
_1-1_
  6
CONTINUOUS
 62
    7
 10
95.813425424936668
 20
72.866536733266472
 40
0.2213674703159847
  0
CIRCLE
  8
_1-1_
  6
CONTINUOUS
 62
    7
 10
89.082752949482696
 20
69.109886788033151
 40
0.2213674703159847
  0
CIRCLE
  8
_1-1_
  6
CONTINUOUS
 62
    7
 10
86.421791282860013
 20
69.109886788033151
 40
0.2213674703159847
  0
CIRCLE
  8
_1-1_
  6
CONTINUOUS
 62
    7
 10
88.613174026076862
 20
68.796832110430742
 40
0.2213674703159847
  0
CIRCLE
  8
_1-1_
  6
CONTINUOUS
 62
    7
 10
88.769704457875847
 20
70.83169060784418
 40
0.2213674703159847
  0
CIRCLE
  8
_1-1_
  6
CONTINUOUS
 62
    7
 10
91.900245047904349
 20
70.518629744246198
 40
0.2213674703159847
  0
CIRCLE
  8
_1-1_
  6
CONTINUOUS
 62
    7
 10
92.369830157305742
 20
70.049050820840378
 40
0.2213674703159847
  0
CIRCLE
  8
_1-1_
  6
CONTINUOUS
 62
    7
 10
88.926228703679271
 20
70.518629744246198
 40
0.2213674703159847
  0
CIRCLE
  8
_1-1_
  6
CONTINUOUS
 62
    7
 10
110.68351951805322
 20
80.223312377929688
 40
0.2213674703159847
  0
CIRCLE
  8
_1-1_
  6
CONTINUOUS
 62
    7
 10
108.02255166543497
 20
80.223312377929688
 40
0.2213674703159847
  0
CIRCLE
  8
_1-1_
  6
CONTINUOUS
 62
    7
 10
110.21392822265625
 20
79.910257700327278
 40
0.2213674703159847
  0
CIRCLE
  8
_1-1_
  6
CONTINUOUS
 62
    7
 10
110.37045865445525
 20
81.945116197740717
 40
0.2213674703159847
  0
CIRCLE
  8
_1-1_
  6
CONTINUOUS
 62
    7
 10
113.50100543047931
 20
81.632055334142734
 40
0.2213674703159847
  0
CIRCLE
  8
_1-1_
  6
CONTINUOUS
 62
    7
 10
113.97058435388514
 20
81.162476410736915
 40
0.2213674703159847
  0
CIRCLE
  8
_1-1_
  6
CONTINUOUS
 62
    7
 10
110.52698908625423
 20
81.632055334142734
 40
0.2213674703159847
  0
CIRCLE
  8
_1-1_
  6
CONTINUOUS
 62
    7
 10
126.64927714579815
 20
86.327875498178841
 40
0.2213674703159847
  0
CIRCLE
  8
_1-1_
  6
CONTINUOUS
 62
    7
 10
123.98830929317991
 20
86.327875498178841
 40
0.2213674703159847
  0
CIRCLE
  8
_1-1_
  6
CONTINUOUS
 62
    7
 10
126.17968585040119
 20
86.014820820576446
 40
0.2213674703159847
  0
CIRCLE
  8
_1-1_
  6
CONTINUOUS
 62
    7
 10
126.33621628220017
 20
88.04967931798987
 40
0.2213674703159847
  0
CIRCLE
  8
_1-1_
  6
CONTINUOUS
 62
    7
 10
129.46676305822425
 20
87.736618454391902
 40
0.2213674703159847
  0
CIRCLE
  8
_1-1_
  6
CONTINUOUS
 62
    7
 10
129.93634198163008
 20
87.267039530986068
 40
0.2213674703159847
  0
CIRCLE
  8
_1-1_
  6
CONTINUOUS
 62
    7
 10
126.49274671399917
 20
87.736618454391902
 40
0.2213674703159847
  0
CIRCLE
  8
_1-1_
  6
CONTINUOUS
 62
    7
 10
120.0751474741343
 20
83.823438077359597
 40
0.2213674703159847
  0
CIRCLE
  8
_1-1_
  6
CONTINUOUS
 62
    7
 10
117.41417962151606
 20
83.823438077359597
 40
0.2213674703159847
  0
CIRCLE
  8
_1-1_
  6
CONTINUOUS
 62
    7
 10
119.60555617873733
 20
83.510383399757188
 40
0.2213674703159847
  0
CIRCLE
  8
_1-1_
  6
CONTINUOUS
 62
    7
 10
119.76208661053633
 20
85.545241897170612
 40
0.2213674703159847
  0
CIRCLE
  8
_1-1_
  6
CONTINUOUS
 62
    7
 10
122.89263338656039
 20
85.232181033572644
 40
0.2213674703159847
  0
CIRCLE
  8
_1-1_
  6
CONTINUOUS
 62
    7
 10
123.36221230996622
 20
84.76260211016681
 40
0.2213674703159847
  0
CIRCLE
  8
_1-1_
  6
CONTINUOUS
 62
    7
 10
119.91861704233531
 20
85.232181033572644
 40
0.2213674703159847
  0
CIRCLE
  8
_1-1_
  6
CONTINUOUS
 62
    7
 10
113.81405392208616
 20
85.075656787769219
 40
0.2213674703159847
  0
CIRCLE
  8
_1-1_
  6
CONTINUOUS
 62
    7
 10
111.15308606946792
 20
85.075656787769219
 40
0.2213674703159847
  0
CIRCLE
  8
_1-1_
  6
CONTINUOUS
 62
    7
 10
113.34446262668919
 20
84.76260211016681
 40
0.2213674703159847
  0
CIRCLE
  8
_1-1_
  6
CONTINUOUS
 62
    7
 10
113.50099305848818
 20
86.797460607580248
 40
0.2213674703159847
  0
CIRCLE
  8
_1-1_
  6
CONTINUOUS
 62
    7
 10
116.63153983451225
 20
86.484399743982266
 40
0.2213674703159847
  0
CIRCLE
  8
_1-1_
  6
CONTINUOUS
 62
    7
 10
117.10111875791809
 20
86.014820820576446
 40
0.2213674703159847
  0
CIRCLE
  8
_1-1_
  6
CONTINUOUS
 62
    7
 10
113.65752349028716
 20
86.484399743982266
 40
0.2213674703159847
  0
CIRCLE
  8
_1-1_
  6
CONTINUOUS
 62
    7
 10
106.77033295502534
 20
83.353859153953763
 40
0.2213674703159847
  0
CIRCLE
  8
_1-1_
  6
CONTINUOUS
 62
    7
 10
104.1093651024071
 20
83.353859153953763
 40
0.2213674703159847
  0
CIRCLE
  8
_1-1_
  6
CONTINUOUS
 62
    7
 10
106.30074165962839
 20
83.040804476351354
 40
0.2213674703159847
  0
CIRCLE
  8
_1-1_
  6
CONTINUOUS
 62
    7
 10
106.45727209142737
 20
85.075662973764778
 40
0.2213674703159847
  0
CIRCLE
  8
_1-1_
  6
CONTINUOUS
 62
    7
 10
109.58781886745145
 20
84.76260211016681
 40
0.2213674703159847
  0
CIRCLE
  8
_1-1_
  6
CONTINUOUS
 62
    7
 10
110.05739779085727
 20
84.29302318676099
 40
0.2213674703159847
  0
CIRCLE
  8
_1-1_
  6
CONTINUOUS
 62
    7
 10
106.61380252322635
 20
84.76260211016681
 40
0.2213674703159847
  0
CIRCLE
  8
_1-1_
  6
CONTINUOUS
 62
    7
 10
101.29187300398543
 20
80.536367055532097
 40
0.2213674703159847
  0
CIRCLE
  8
_1-1_
  6
CONTINUOUS
 62
    7
 10
98.630911337362761
 20
80.536367055532097
 40
0.2213674703159847
  0
CIRCLE
  8
_1-1_
  6
CONTINUOUS
 62
    7
 10
100.82229408057961
 20
80.223312377929688
 40
0.2213674703159847
  0
CIRCLE
  8
_1-1_
  6
CONTINUOUS
 62
    7
 10
100.97882451237859
 20
82.258170875343126
 40
0.2213674703159847
  0
CIRCLE
  8
_1-1_
  6
CONTINUOUS
 62
    7
 10
104.1093651024071
 20
81.945110011745143
 40
0.2213674703159847
  0
CIRCLE
  8
_1-1_
  6
CONTINUOUS
 62
    7
 10
104.57895639780406
 20
81.475531088339324
 40
0.2213674703159847
  0
CIRCLE
  8
_1-1_
  6
CONTINUOUS
 62
    7
 10
101.13534875818202
 20
81.945110011745143
 40
0.2213674703159847
  0
CIRCLE
  8
_1-1_
  6
CONTINUOUS
 62
    7
 10
122.42305446315457
 20
88.049673131994311
 40
0.2213674703159847
  0
CIRCLE
  8
_1-1_
  6
CONTINUOUS
 62
    7
 10
119.76208661053633
 20
88.049673131994311
 40
0.2213674703159847
  0
CIRCLE
  8
_1-1_
  6
CONTINUOUS
 62
    7
 10
121.9534631677576
 20
87.736618454391902
 40
0.2213674703159847
  0
CIRCLE
  8
_1-1_
  6
CONTINUOUS
 62
    7
 10
122.10999359955659
 20
89.771476951805326
 40
0.2213674703159847
  0
CIRCLE
  8
_1-1_
  6
CONTINUOUS
 62
    7
 10
125.24054037558066
 20
89.458416088207358
 40
0.2213674703159847
  0
CIRCLE
  8
_1-1_
  6
CONTINUOUS
 62
    7
 10
125.7101192989865
 20
88.988837164801524
 40
0.2213674703159847
  0
CIRCLE
  8
_1-1_
  6
CONTINUOUS
 62
    7
 10
122.26652403135559
 20
89.458416088207358
 40
0.2213674703159847
  0
CIRCLE
  8
_1-1_
  6
CONTINUOUS
 62
    7
 10
126.33621628220017
 20
90.554110552813555
 40
0.2213674703159847
  0
CIRCLE
  8
_1-1_
  6
CONTINUOUS
 62
    7
 10
123.67526080157306
 20
90.554110552813555
 40
0.2213674703159847
  0
CIRCLE
  8
_1-1_
  6
CONTINUOUS
 62
    7
 10
125.86664973078548
 20
90.24105587521116
 40
0.2213674703159847
  0
CIRCLE
  8
_1-1_
  6
CONTINUOUS
 62
    7
 10
126.02318016258447
 20
92.275914372624584
 40
0.2213674703159847
  0
CIRCLE
  8
_1-1_
  6
CONTINUOUS
 62
    7
 10
129.1537145666174
 20
91.962853509026615
 40
0.2213674703159847
  0
CIRCLE
  8
_1-1_
  6
CONTINUOUS
 62
    7
 10
129.62330586201438
 20
91.493274585620782
 40
0.2213674703159847
  0
CIRCLE
  8
_1-1_
  6
CONTINUOUS
 62
    7
 10
126.17969822239232
 20
91.962853509026615
 40
0.2213674703159847
  0
CIRCLE
  8
_1-1_
  6
CONTINUOUS
 62
    7
 10
135.25827768686656
 20
92.745487110034844
 40
0.2213674703159847
  0
CIRCLE
  8
_1-1_
  6
CONTINUOUS
 62
    7
 10
132.59730983424831
 20
92.745487110034844
 40
0.2213674703159847
  0
CIRCLE
  8
_1-1_
  6
CONTINUOUS
 62
    7
 10
134.78868639146961
 20
92.432432432432435
 40
0.2213674703159847
  0
CIRCLE
  8
_1-1_
  6
CONTINUOUS
 62
    7
 10
134.94521682326859
 20
94.467290929845873
 40
0.2213674703159847
  0
CIRCLE
  8
_1-1_
  6
CONTINUOUS
 62
    7
 10
138.07576359929266
 20
94.154230066247891
 40
0.2213674703159847
  0
CIRCLE
  8
_1-1_
  6
CONTINUOUS
 62
    7
 10
138.54534252269849
 20
93.684651142842071
 40
0.2213674703159847
  0
CIRCLE
  8
_1-1_
  6
CONTINUOUS
 62
    7
 10
135.10174725506758
 20
94.154230066247891
 40
0.2213674703159847
  0
CIRCLE
  8
_1-1_
  6
CONTINUOUS
 62
    7
 10
133.06690112964529
 20
89.928001197608751
 40
0.2213674703159847
  0
CIRCLE
  8
_1-1_
  6
CONTINUOUS
 62
    7
 10
130.40593327702703
 20
89.928001197608751
 40
0.2213674703159847
  0
CIRCLE
  8
_1-1_
  6
CONTINUOUS
 62
    7
 10
132.59730983424831
 20
89.614946520006342
 40
0.2213674703159847
  0
CIRCLE
  8
_1-1_
  6
CONTINUOUS
 62
    7
 10
132.75384026604729
 20
91.649805017419766
 40
0.2213674703159847
  0
CIRCLE
  8
_1-1_
  6
CONTINUOUS
 62
    7
 10
135.88438704207138
 20
91.336744153821797
 40
0.2213674703159847
  0
CIRCLE
  8
_1-1_
  6
CONTINUOUS
 62
    7
 10
136.35396596547722
 20
90.867165230415964
 40
0.2213674703159847
  0
CIRCLE
  8
_1-1_
  6
CONTINUOUS
 62
    7
 10
132.9103706978463
 20
91.336744153821797
 40
0.2213674703159847
  0
CIRCLE
  8
_1-1_
  6
CONTINUOUS
 62
    7
 10
145.74559392155828
 20
96.971722164669558
 40
0.2213674703159847
  0
CIRCLE
  8
_1-1_
  6
CONTINUOUS
 62
    7
 10
143.08462606894005
 20
96.971722164669558
 40
0.2213674703159847
  0
CIRCLE
  8
_1-1_
  6
CONTINUOUS
 62
    7
 10
145.27600262616133
 20
96.658667487067149
 40
0.2213674703159847
  0
CIRCLE
  8
_1-1_
  6
CONTINUOUS
 62
    7
 10
145.43253305796031
 20
98.693525984480573
 40
0.2213674703159847
  0
CIRCLE
  8
_1-1_
  6
CONTINUOUS
 62
    7
 10
148.56307983398437
 20
98.380465120882604
 40
0.2213674703159847
  0
CIRCLE
  8
_1-1_
  6
CONTINUOUS
 62
    7
 10
149.03265875739021
 20
97.910886197476785
 40
0.2213674703159847
  0
CIRCLE
  8
_1-1_
  6
CONTINUOUS
 62
    7
 10
145.5890634897593
 20
98.380465120882604
 40
0.2213674703159847
  0
CIRCLE
  8
_1-1_
  6
CONTINUOUS
 62
    7
 10
137.91924553948479
 20
96.189082377665756
 40
0.2213674703159847
  0
CIRCLE
  8
_1-1_
  6
CONTINUOUS
 62
    7
 10
135.25827768686656
 20
96.189082377665756
 40
0.2213674703159847
  0
CIRCLE
  8
_1-1_
  6
CONTINUOUS
 62
    7
 10
137.44965424408784
 20
95.876027700063347
 40
0.2213674703159847
  0
CIRCLE
  8
_1-1_
  6
CONTINUOUS
 62
    7
 10
137.60618467588682
 20
97.910886197476785
 40
0.2213674703159847
  0
CIRCLE
  8
_1-1_
  6
CONTINUOUS
 62
    7
 10
140.73673145191091
 20
97.597825333878802
 40
0.2213674703159847
  0
CIRCLE
  8
_1-1_
  6
CONTINUOUS
 62
    7
 10
141.20631037531672
 20
97.128246410472983
 40
0.2213674703159847
  0
CIRCLE
  8
_1-1_
  6
CONTINUOUS
 62
    7
 10
137.76271510768581
 20
97.597825333878802
 40
0.2213674703159847
  0
CIRCLE
  8
_1-1_
  6
CONTINUOUS
 62
    7
 10
142.14546822212839
 20
92.58895667823586
 40
0.2213674703159847
  0
CIRCLE
  8
_1-1_
  6
CONTINUOUS
 62
    7
 10
139.48450036951013
 20
92.58895667823586
 40
0.2213674703159847
  0
CIRCLE
  8
_1-1_
  6
CONTINUOUS
 62
    7
 10
141.67587692673143
 20
92.275902000633451
 40
0.2213674703159847
  0
CIRCLE
  8
_1-1_
  6
CONTINUOUS
 62
    7
 10
141.83240735853042
 20
94.310760498046875
 40
0.2213674703159847
  0
CIRCLE
  8
_1-1_
  6
CONTINUOUS
 62
    7
 10
144.96295413455448
 20
93.997699634448907
 40
0.2213674703159847
  0
CIRCLE
  8
_1-1_
  6
CONTINUOUS
 62
    7
 10
145.43253305796031
 20
93.528120711043073
 40
0.2213674703159847
  0
CIRCLE
  8
_1-1_
  6
CONTINUOUS
 62
    7
 10
141.9889377903294
 20
93.997699634448907
 40
0.2213674703159847
  0
CIRCLE
  8
_1-1_
  6
CONTINUOUS
 62
    7
 10
154.04153359902872
 20
98.693519798485013
 40
0.2213674703159847
  0
CIRCLE
  8
_1-1_
  6
CONTINUOUS
 62
    7
 10
151.38056574641047
 20
98.693519798485013
 40
0.2213674703159847
  0
CIRCLE
  8
_1-1_
  6
CONTINUOUS
 62
    7
 10
153.57194230363177
 20
98.380465120882604
 40
0.2213674703159847
  0
CIRCLE
  8
_1-1_
  6
CONTINUOUS
 62
    7
 10
153.72847273543076
 20
100.41532361829604
 40
0.2213674703159847
  0
CIRCLE
  8
_1-1_
  6
CONTINUOUS
 62
    7
 10
156.85901951145482
 20
100.10226275469806
 40
0.2213674703159847
  0
CIRCLE
  8
_1-1_
  6
CONTINUOUS
 62
    7
 10
157.32859843486065
 20
99.63268383129224
 40
0.2213674703159847
  0
CIRCLE
  8
_1-1_
  6
CONTINUOUS
 62
    7
 10
153.88500316722974
 20
100.10226275469806
 40
0.2213674703159847
  0
CIRCLE
  8
_1-1_
  6
CONTINUOUS
 62
    7
 10
144.80643607474664
 20
100.10226275469806
 40
0.2213674703159847
  0
CIRCLE
  8
_1-1_
  6
CONTINUOUS
 62
    7
 10
142.14546822212839
 20
100.10226275469806
 40
0.2213674703159847
  0
CIRCLE
  8
_1-1_
  6
CONTINUOUS
 62
    7
 10
144.33684477934966
 20
99.789208077095651
 40
0.2213674703159847
  0
CIRCLE
  8
_1-1_
  6
CONTINUOUS
 62
    7
 10
144.49337521114865
 20
101.82406657450909
 40
0.2213674703159847
  0
CIRCLE
  8
_1-1_
  6
CONTINUOUS
 62
    7
 10
147.62392198717274
 20
101.51100571091111
 40
0.2213674703159847
  0
CIRCLE
  8
_1-1_
  6
CONTINUOUS
 62
    7
 10
148.09350091057857
 20
101.04142678750529
 40
0.2213674703159847
  0
CIRCLE
  8
_1-1_
  6
CONTINUOUS
 62
    7
 10
144.64990564294763
 20
101.51100571091111
 40
0.2213674703159847
  0
CIRCLE
  8
_1-1_
  6
CONTINUOUS
 62
    7
 10
158.58081714527029
 20
104.48502824113176
 40
0.2213674703159847
  0
CIRCLE
  8
_1-1_
  6
CONTINUOUS
 62
    7
 10
155.91986166464318
 20
104.48502824113176
 40
0.2213674703159847
  0
CIRCLE
  8
_1-1_
  6
CONTINUOUS
 62
    7
 10
158.11125059385557
 20
104.17196737753379
 40
0.2213674703159847
  0
CIRCLE
  8
_1-1_
  6
CONTINUOUS
 62
    7
 10
158.26778102565456
 20
106.20682587494721
 40
0.2213674703159847
  0
CIRCLE
  8
_1-1_
  6
CONTINUOUS
 62
    7
 10
161.3983154296875
 20
105.89376501134925
 40
0.2213674703159847
  0
CIRCLE
  8
_1-1_
  6
CONTINUOUS
 62
    7
 10
161.86790672508448
 20
105.42418608794341
 40
0.2213674703159847
  0
CIRCLE
  8
_1-1_
  6
CONTINUOUS
 62
    7
 10
158.42429908546242
 20
105.89376501134925
 40
0.2213674703159847
  0
CIRCLE
  8
_1-1_
  6
CONTINUOUS
 62
    7
 10
162.65053414009714
 20
105.42418608794341
 40
0.2213674703159847
  0
CIRCLE
  8
_1-1_
  6
CONTINUOUS
 62
    7
 10
159.98956628747891
 20
105.42418608794341
 40
0.2213674703159847
  0
CIRCLE
  8
_1-1_
  6
CONTINUOUS
 62
    7
 10
162.18094284470018
 20
105.11113759633658
 40
0.2213674703159847
  0
CIRCLE
  8
_1-1_
  6
CONTINUOUS
 62
    7
 10
162.33747327649917
 20
107.14599609375
 40
0.2213674703159847
  0
CIRCLE
  8
_1-1_
  6
CONTINUOUS
 62
    7
 10
165.46802005252323
 20
106.83293523015203
 40
0.2213674703159847
  0
CIRCLE
  8
_1-1_
  6
CONTINUOUS
 62
    7
 10
165.93759897592906
 20
106.36335630674621
 40
0.2213674703159847
  0
CIRCLE
  8
_1-1_
  6
CONTINUOUS
 62
    7
 10
162.49400370829815
 20
106.83293523015203
 40
0.2213674703159847
  0
CIRCLE
  8
_1-1_
  6
CONTINUOUS
 62
    7
 10
160.45915758287586
 20
102.29364549791491
 40
0.2213674703159847
  0
CIRCLE
  8
_1-1_
  6
CONTINUOUS
 62
    7
 10
157.7981897302576
 20
102.29364549791491
 40
0.2213674703159847
  0
CIRCLE
  8
_1-1_
  6
CONTINUOUS
 62
    7
 10
159.98956628747891
 20
101.9805908203125
 40
0.2213674703159847
  0
CIRCLE
  8
_1-1_
  6
CONTINUOUS
 62
    7
 10
160.14609671927789
 20
104.01544931772594
 40
0.2213674703159847
  0
CIRCLE
  8
_1-1_
  6
CONTINUOUS
 62
    7
 10
163.27664349530195
 20
103.70238845412796
 40
0.2213674703159847
  0
CIRCLE
  8
_1-1_
  6
CONTINUOUS
 62
    7
 10
163.74622241870779
 20
103.23280953072214
 40
0.2213674703159847
  0
CIRCLE
  8
_1-1_
  6
CONTINUOUS
 62
    7
 10
160.30262715107688
 20
103.70238845412796
 40
0.2213674703159847
  0
CIRCLE
  8
_1-1_
  6
CONTINUOUS
 62
    7
 10
173.9205025337838
 20
109.02431178737332
 40
0.2213674703159847
  0
CIRCLE
  8
_1-1_
  6
CONTINUOUS
 62
    7
 10
171.25953468116555
 20
109.02431178737332
 40
0.2213674703159847
  0
CIRCLE
  8
_1-1_
  6
CONTINUOUS
 62
    7
 10
173.45091123838682
 20
108.71126329576647
 40
0.2213674703159847
  0
CIRCLE
  8
_1-1_
  6
CONTINUOUS
 62
    7
 10
173.60744167018581
 20
110.74612179317991
 40
0.2213674703159847
  0
CIRCLE
  8
_1-1_
  6
CONTINUOUS
 62
    7
 10
176.7379884462099
 20
110.43306092958193
 40
0.2213674703159847
  0
CIRCLE
  8
_1-1_
  6
CONTINUOUS
 62
    7
 10
177.20756736961573
 20
109.96348200617611
 40
0.2213674703159847
  0
CIRCLE
  8
_1-1_
  6
CONTINUOUS
 62
    7
 10
173.76397210198482
 20
110.43306092958193
 40
0.2213674703159847
  0
CIRCLE
  8
_1-1_
  6
CONTINUOUS
 62
    7
 10
178.45978608002534
 20
111.37221877639358
 40
0.2213674703159847
  0
CIRCLE
  8
_1-1_
  6
CONTINUOUS
 62
    7
 10
175.79881822740711
 20
111.37221877639358
 40
0.2213674703159847
  0
CIRCLE
  8
_1-1_
  6
CONTINUOUS
 62
    7
 10
177.99019478462839
 20
111.05917028478675
 40
0.2213674703159847
  0
CIRCLE
  8
_1-1_
  6
CONTINUOUS
 62
    7
 10
178.14672521642737
 20
113.09402878220017
 40
0.2213674703159847
  0
CIRCLE
  8
_1-1_
  6
CONTINUOUS
 62
    7
 10
181.27727199245143
 20
112.7809679186022
 40
0.2213674703159847
  0
CIRCLE
  8
_1-1_
  6
CONTINUOUS
 62
    7
 10
181.74685091585727
 20
112.31138899519638
 40
0.2213674703159847
  0
CIRCLE
  8
_1-1_
  6
CONTINUOUS
 62
    7
 10
178.30325564822635
 20
112.7809679186022
 40
0.2213674703159847
  0
CIRCLE
  8
_1-1_
  6
CONTINUOUS
 62
    7
 10
171.72910123258023
 20
111.68527963999156
 40
0.2213674703159847
  0
CIRCLE
  8
_1-1_
  6
CONTINUOUS
 62
    7
 10
169.06814575195312
 20
111.68527963999156
 40
0.2213674703159847
  0
CIRCLE
  8
_1-1_
  6
CONTINUOUS
 62
    7
 10
171.25953468116555
 20
111.37221877639358
 40
0.2213674703159847
  0
CIRCLE
  8
_1-1_
  6
CONTINUOUS
 62
    7
 10
171.41606511296453
 20
113.40707727380702
 40
0.2213674703159847
  0
CIRCLE
  8
_1-1_
  6
CONTINUOUS
 62
    7
 10
174.54659951699747
 20
113.09401641020904
 40
0.2213674703159847
  0
CIRCLE
  8
_1-1_
  6
CONTINUOUS
 62
    7
 10
175.01619081239443
 20
112.62443748680322
 40
0.2213674703159847
  0
CIRCLE
  8
_1-1_
  6
CONTINUOUS
 62
    7
 10
171.5725831727724
 20
113.09401641020904
 40
0.2213674703159847
  0
CIRCLE
  8
_1-1_
  6
CONTINUOUS
 62
    7
 10
165.78106854413008
 20
107.6155626451647
 40
0.2213674703159847
  0
CIRCLE
  8
_1-1_
  6
CONTINUOUS
 62
    7
 10
163.12011306350297
 20
107.6155626451647
 40
0.2213674703159847
  0
CIRCLE
  8
_1-1_
  6
CONTINUOUS
 62
    7
 10
165.31150199271539
 20
107.30251415355787
 40
0.2213674703159847
  0
CIRCLE
  8
_1-1_
  6
CONTINUOUS
 62
    7
 10
165.46803242451438
 20
109.33737265097129
 40
0.2213674703159847
  0
CIRCLE
  8
_1-1_
  6
CONTINUOUS
 62
    7
 10
168.59856682854732
 20
109.02431178737332
 40
0.2213674703159847
  0
CIRCLE
  8
_1-1_
  6
CONTINUOUS
 62
    7
 10
169.06815812394427
 20
108.55473286396749
 40
0.2213674703159847
  0
CIRCLE
  8
_1-1_
  6
CONTINUOUS
 62
    7
 10
165.62455048432221
 20
109.02431178737332
 40
0.2213674703159847
  0
CIRCLE
  8
_1-1_
  6
CONTINUOUS
 62
    7
 10
166.72025113492398
 20
104.79808910472974
 40
0.2213674703159847
  0
CIRCLE
  8
_1-1_
  6
CONTINUOUS
 62
    7
 10
164.05928328230576
 20
104.79808910472974
 40
0.2213674703159847
  0
CIRCLE
  8
_1-1_
  6
CONTINUOUS
 62
    7
 10
166.25065983952703
 20
104.48502824113176
 40
0.2213674703159847
  0
CIRCLE
  8
_1-1_
  6
CONTINUOUS
 62
    7
 10
166.40719027132602
 20
106.5198867385452
 40
0.2213674703159847
  0
CIRCLE
  8
_1-1_
  6
CONTINUOUS
 62
    7
 10
169.53773704735011
 20
106.20682587494721
 40
0.2213674703159847
  0
CIRCLE
  8
_1-1_
  6
CONTINUOUS
 62
    7
 10
170.00731597075591
 20
105.73724695154139
 40
0.2213674703159847
  0
CIRCLE
  8
_1-1_
  6
CONTINUOUS
 62
    7
 10
166.563720703125
 20
106.20682587494721
 40
0.2213674703159847
  0
CIRCLE
  8
_1-1_
  6
CONTINUOUS
 62
    7
 10
181.12075393264359
 20
111.2156883445946
 40
0.2213674703159847
  0
CIRCLE
  8
_1-1_
  6
CONTINUOUS
 62
    7
 10
178.45978608002534
 20
111.2156883445946
 40
0.2213674703159847
  0
CIRCLE
  8
_1-1_
  6
CONTINUOUS
 62
    7
 10
180.65116263724664
 20
110.90263985298776
 40
0.2213674703159847
  0
CIRCLE
  8
_1-1_
  6
CONTINUOUS
 62
    7
 10
180.80769306904563
 20
112.93749835040119
 40
0.2213674703159847
  0
CIRCLE
  8
_1-1_
  6
CONTINUOUS
 62
    7
 10
183.93823984506969
 20
112.62443748680322
 40
0.2213674703159847
  0
CIRCLE
  8
_1-1_
  6
CONTINUOUS
 62
    7
 10
184.40781876847552
 20
112.15485856339738
 40
0.2213674703159847
  0
CIRCLE
  8
_1-1_
  6
CONTINUOUS
 62
    7
 10
180.96422350084461
 20
112.62443748680322
 40
0.2213674703159847
  0
CIRCLE
  8
_1-1_
  6
CONTINUOUS
 62
    7
 10
189.26015080632391
 20
113.72012576541385
 40
0.2213674703159847
  0
CIRCLE
  8
_1-1_
  6
CONTINUOUS
 62
    7
 10
186.5991953256968
 20
113.72012576541385
 40
0.2213674703159847
  0
CIRCLE
  8
_1-1_
  6
CONTINUOUS
 62
    7
 10
188.79057188291807
 20
113.40707727380702
 40
0.2213674703159847
  0
CIRCLE
  8
_1-1_
  6
CONTINUOUS
 62
    7
 10
188.94710231471709
 20
115.44193577122044
 40
0.2213674703159847
  0
CIRCLE
  8
_1-1_
  6
CONTINUOUS
 62
    7
 10
192.07763671875
 20
115.12887490762247
 40
0.2213674703159847
  0
CIRCLE
  8
_1-1_
  6
CONTINUOUS
 62
    7
 10
192.54722801414698
 20
114.65929598421664
 40
0.2213674703159847
  0
CIRCLE
  8
_1-1_
  6
CONTINUOUS
 62
    7
 10
189.10363274651607
 20
115.12887490762247
 40
0.2213674703159847
  0
CIRCLE
  8
_1-1_
  6
CONTINUOUS
 62
    7
 10
186.12961640229096
 20
115.12887490762247
 40
0.2213674703159847
  0
CIRCLE
  8
_1-1_
  6
CONTINUOUS
 62
    7
 10
183.46866092166385
 20
115.12887490762247
 40
0.2213674703159847
  0
CIRCLE
  8
_1-1_
  6
CONTINUOUS
 62
    7
 10
185.66003747888516
 20
114.81581404402451
 40
0.2213674703159847
  0
CIRCLE
  8
_1-1_
  6
CONTINUOUS
 62
    7
 10
185.81656791068414
 20
116.85067254143793
 40
0.2213674703159847
  0
CIRCLE
  8
_1-1_
  6
CONTINUOUS
 62
    7
 10
188.94710231471709
 20
116.53761167783996
 40
0.2213674703159847
  0
CIRCLE
  8
_1-1_
  6
CONTINUOUS
 62
    7
 10
189.41669361011404
 20
116.06803275443413
 40
0.2213674703159847
  0
CIRCLE
  8
_1-1_
  6
CONTINUOUS
 62
    7
 10
185.97309834248313
 20
116.53761167783996
 40
0.2213674703159847
  0
CIRCLE
  8
_1-1_
  6
CONTINUOUS
 62
    7
 10
180.65116263724664
 20
116.06803275443413
 40
0.2213674703159847
  0
CIRCLE
  8
_1-1_
  6
CONTINUOUS
 62
    7
 10
177.99019478462839
 20
116.06803275443413
 40
0.2213674703159847
  0
CIRCLE
  8
_1-1_
  6
CONTINUOUS
 62
    7
 10
180.18157134184966
 20
115.75498426282729
 40
0.2213674703159847
  0
CIRCLE
  8
_1-1_
  6
CONTINUOUS
 62
    7
 10
180.33810177364865
 20
117.78984276024072
 40
0.2213674703159847
  0
CIRCLE
  8
_1-1_
  6
CONTINUOUS
 62
    7
 10
183.46864854967274
 20
117.47678189664275
 40
0.2213674703159847
  0
CIRCLE
  8
_1-1_
  6
CONTINUOUS
 62
    7
 10
183.93822747307857
 20
117.00720297323691
 40
0.2213674703159847
  0
CIRCLE
  8
_1-1_
  6
CONTINUOUS
 62
    7
 10
180.49463220544766
 20
117.47678189664275
 40
0.2213674703159847
  0
CIRCLE
  8
_1-1_
  6
CONTINUOUS
 62
    7
 10
188.79055951092695
 20
118.4159397434544
 40
0.2213674703159847
  0
CIRCLE
  8
_1-1_
  6
CONTINUOUS
 62
    7
 10
186.12960403029984
 20
118.4159397434544
 40
0.2213674703159847
  0
CIRCLE
  8
_1-1_
  6
CONTINUOUS
 62
    7
 10
188.32098058752112
 20
118.10289125184755
 40
0.2213674703159847
  0
CIRCLE
  8
_1-1_
  6
CONTINUOUS
 62
    7
 10
188.4775110193201
 20
120.13774974926099
 40
0.2213674703159847
  0
CIRCLE
  8
_1-1_
  6
CONTINUOUS
 62
    7
 10
191.60804542335305
 20
119.82468888566301
 40
0.2213674703159847
  0
CIRCLE
  8
_1-1_
  6
CONTINUOUS
 62
    7
 10
192.07763671875
 20
119.35510996225719
 40
0.2213674703159847
  0
CIRCLE
  8
_1-1_
  6
CONTINUOUS
 62
    7
 10
188.63404145111909
 20
119.82468888566301
 40
0.2213674703159847
  0
CIRCLE
  8
_1-1_
  6
CONTINUOUS
 62
    7
 10
194.58208651156039
 20
120.45081061285896
 40
0.2213674703159847
  0
CIRCLE
  8
_1-1_
  6
CONTINUOUS
 62
    7
 10
191.92113103093328
 20
120.45081061285896
 40
0.2213674703159847
  0
CIRCLE
  8
_1-1_
  6
CONTINUOUS
 62
    7
 10
194.11250758815459
 20
120.13774974926099
 40
0.2213674703159847
  0
CIRCLE
  8
_1-1_
  6
CONTINUOUS
 62
    7
 10
194.26903801995357
 20
122.17260824667441
 40
0.2213674703159847
  0
CIRCLE
  8
_1-1_
  6
CONTINUOUS
 62
    7
 10
197.39957242398648
 20
121.85954738307645
 40
0.2213674703159847
  0
CIRCLE
  8
_1-1_
  6
CONTINUOUS
 62
    7
 10
197.86916371938347
 20
121.38996845967061
 40
0.2213674703159847
  0
CIRCLE
  8
_1-1_
  6
CONTINUOUS
 62
    7
 10
194.42556845175255
 20
121.85954738307645
 40
0.2213674703159847
  0
CIRCLE
  8
_1-1_
  6
CONTINUOUS
 62
    7
 10
197.24302962019638
 20
119.82468888566301
 40
0.2213674703159847
  0
CIRCLE
  8
_1-1_
  6
CONTINUOUS
 62
    7
 10
194.58207413956927
 20
119.82468888566301
 40
0.2213674703159847
  0
CIRCLE
  8
_1-1_
  6
CONTINUOUS
 62
    7
 10
196.77345069679055
 20
119.51162802206504
 40
0.2213674703159847
  0
CIRCLE
  8
_1-1_
  6
CONTINUOUS
 62
    7
 10
196.92998112858953
 20
121.54648651947846
 40
0.2213674703159847
  0
CIRCLE
  8
_1-1_
  6
CONTINUOUS
 62
    7
 10
200.06051553262247
 20
121.2334256558805
 40
0.2213674703159847
  0
CIRCLE
  8
_1-1_
  6
CONTINUOUS
 62
    7
 10
200.53010682801943
 20
120.76384673247468
 40
0.2213674703159847
  0
CIRCLE
  8
_1-1_
  6
CONTINUOUS
 62
    7
 10
197.08651156038852
 20
121.2334256558805
 40
0.2213674703159847
  0
CIRCLE
  8
_1-1_
  6
CONTINUOUS
 62
    7
 10
203.50412317224453
 20
121.5464988914696
 40
0.2213674703159847
  0
CIRCLE
  8
_1-1_
  6
CONTINUOUS
 62
    7
 10
200.84316769161742
 20
121.5464988914696
 40
0.2213674703159847
  0
CIRCLE
  8
_1-1_
  6
CONTINUOUS
 62
    7
 10
203.0345442488387
 20
121.23343802787163
 40
0.2213674703159847
  0
CIRCLE
  8
_1-1_
  6
CONTINUOUS
 62
    7
 10
203.19107468063768
 20
123.26829652528505
 40
0.2213674703159847
  0
CIRCLE
  8
_1-1_
  6
CONTINUOUS
 62
    7
 10
206.32160908467063
 20
122.95523566168708
 40
0.2213674703159847
  0
CIRCLE
  8
_1-1_
  6
CONTINUOUS
 62
    7
 10
206.79120038006758
 20
122.48565673828125
 40
0.2213674703159847
  0
CIRCLE
  8
_1-1_
  6
CONTINUOUS
 62
    7
 10
203.34760511243667
 20
122.95523566168708
 40
0.2213674703159847
  0
CIRCLE
  8
_1-1_
  6
CONTINUOUS
 62
    7
 10
195.52124435837206
 20
116.85068491342906
 40
0.2213674703159847
  0
CIRCLE
  8
_1-1_
  6
CONTINUOUS
 62
    7
 10
192.86028887774495
 20
116.85068491342906
 40
0.2213674703159847
  0
CIRCLE
  8
_1-1_
  6
CONTINUOUS
 62
    7
 10
195.05166543496622
 20
116.53762404983108
 40
0.2213674703159847
  0
CIRCLE
  8
_1-1_
  6
CONTINUOUS
 62
    7
 10
195.20819586676521
 20
118.57248254724452
 40
0.2213674703159847
  0
CIRCLE
  8
_1-1_
  6
CONTINUOUS
 62
    7
 10
198.33873027079815
 20
118.25942168364655
 40
0.2213674703159847
  0
CIRCLE
  8
_1-1_
  6
CONTINUOUS
 62
    7
 10
198.8083215661951
 20
117.78984276024072
 40
0.2213674703159847
  0
CIRCLE
  8
_1-1_
  6
CONTINUOUS
 62
    7
 10
195.36472629856419
 20
118.25942168364655
 40
0.2213674703159847
  0
CIRCLE
  8
_1-1_
  6
CONTINUOUS
 62
    7
 10
217.94217496304901
 20
129.87294789907097
 40
0.2213674703159847
  0
CIRCLE
  8
_1-1_
  6
CONTINUOUS
 62
    7
 10
215.28123185441302
 20
129.87294789907097
 40
0.2213674703159847
  0
CIRCLE
  8
_1-1_
  6
CONTINUOUS
 62
    7
 10
217.4726084116343
 20
129.55988703547297
 40
0.2213674703159847
  0
CIRCLE
  8
_1-1_
  6
CONTINUOUS
 62
    7
 10
217.62913884343328
 20
131.59474553288641
 40
0.2213674703159847
  0
CIRCLE
  8
_1-1_
  6
CONTINUOUS
 62
    7
 10
220.75967324746622
 20
131.28168466928844
 40
0.2213674703159847
  0
CIRCLE
  8
_1-1_
  6
CONTINUOUS
 62
    7
 10
221.22926454286318
 20
130.8121057458826
 40
0.2213674703159847
  0
CIRCLE
  8
_1-1_
  6
CONTINUOUS
 62
    7
 10
217.78566927523227
 20
131.28168466928844
 40
0.2213674703159847
  0
CIRCLE
  8
_1-1_
  6
CONTINUOUS
 62
    7
 10
210.53531131228885
 20
126.96310507284629
 40
0.2213674703159847
  0
CIRCLE
  8
_1-1_
  6
CONTINUOUS
 62
    7
 10
207.87436820365289
 20
126.96310507284629
 40
0.2213674703159847
  0
CIRCLE
  8
_1-1_
  6
CONTINUOUS
 62
    7
 10
210.06574476087417
 20
126.65005658123945
 40
0.2213674703159847
  0
CIRCLE
  8
_1-1_
  6
CONTINUOUS
 62
    7
 10
210.22227519267315
 20
128.68491507865289
 40
0.2213674703159847
  0
CIRCLE
  8
_1-1_
  6
CONTINUOUS
 62
    7
 10
213.35280959670609
 20
128.3718542150549
 40
0.2213674703159847
  0
CIRCLE
  8
_1-1_
  6
CONTINUOUS
 62
    7
 10
213.82240089210305
 20
127.90227529164908
 40
0.2213674703159847
  0
CIRCLE
  8
_1-1_
  6
CONTINUOUS
 62
    7
 10
210.37880562447214
 20
128.3718542150549
 40
0.2213674703159847
  0
CIRCLE
  8
_1-1_
  6
CONTINUOUS
 62
    7
 10
204.4511248614337
 20
125.6404649889147
 40
0.2213674703159847
  0
CIRCLE
  8
_1-1_
  6
CONTINUOUS
 62
    7
 10
201.79016938080659
 20
125.6404649889147
 40
0.2213674703159847
  0
CIRCLE
  8
_1-1_
  6
CONTINUOUS
 62
    7
 10
203.98154593802789
 20
125.32740412531673
 40
0.2213674703159847
  0
CIRCLE
  8
_1-1_
  6
CONTINUOUS
 62
    7
 10
204.13807636982688
 20
127.36226262273016
 40
0.2213674703159847
  0
CIRCLE
  8
_1-1_
  6
CONTINUOUS
 62
    7
 10
207.26861077385982
 20
127.04920175913219
 40
0.2213674703159847
  0
CIRCLE
  8
_1-1_
  6
CONTINUOUS
 62
    7
 10
207.73820206925677
 20
126.57962283572635
 40
0.2213674703159847
  0
CIRCLE
  8
_1-1_
  6
CONTINUOUS
 62
    7
 10
204.29460680162586
 20
127.04920175913219
 40
0.2213674703159847
  0
CIRCLE
  8
_1-1_
  6
CONTINUOUS
 62
    7
 10
203.65751111829604
 20
121.93703316353464
 40
0.2213674703159847
  0
CIRCLE
  8
_1-1_
  6
CONTINUOUS
 62
    7
 10
200.99655563766893
 20
121.93703316353464
 40
0.2213674703159847
  0
CIRCLE
  8
_1-1_
  6
CONTINUOUS
 62
    7
 10
203.18793219489021
 20
121.62397229993667
 40
0.2213674703159847
  0
CIRCLE
  8
_1-1_
  6
CONTINUOUS
 62
    7
 10
203.34446262668919
 20
123.65883079735009
 40
0.2213674703159847
  0
CIRCLE
  8
_1-1_
  6
CONTINUOUS
 62
    7
 10
206.47499703072214
 20
123.34576993375212
 40
0.2213674703159847
  0
CIRCLE
  8
_1-1_
  6
CONTINUOUS
 62
    7
 10
206.94458832611909
 20
122.87619101034629
 40
0.2213674703159847
  0
CIRCLE
  8
_1-1_
  6
CONTINUOUS
 62
    7
 10
203.50099305848818
 20
123.34576993375212
 40
0.2213674703159847
  0
CIRCLE
  8
_1-1_
  6
CONTINUOUS
 62
    7
 10
212.12248931059966
 20
124.84685124577703
 40
0.2213674703159847
  0
CIRCLE
  8
_1-1_
  6
CONTINUOUS
 62
    7
 10
209.4615462019637
 20
124.84685124577703
 40
0.2213674703159847
  0
CIRCLE
  8
_1-1_
  6
CONTINUOUS
 62
    7
 10
211.65292275918497
 20
124.5338027541702
 40
0.2213674703159847
  0
CIRCLE
  8
_1-1_
  6
CONTINUOUS
 62
    7
 10
211.80945319098396
 20
126.56866125158362
 40
0.2213674703159847
  0
CIRCLE
  8
_1-1_
  6
CONTINUOUS
 62
    7
 10
214.9399875950169
 20
126.25560038798565
 40
0.2213674703159847
  0
CIRCLE
  8
_1-1_
  6
CONTINUOUS
 62
    7
 10
215.40957889041385
 20
125.78602146457982
 40
0.2213674703159847
  0
CIRCLE
  8
_1-1_
  6
CONTINUOUS
 62
    7
 10
211.96598362278294
 20
126.25560038798565
 40
0.2213674703159847
  0
CIRCLE
  8
_1-1_
  6
CONTINUOUS
 62
    7
 10
222.43919578758448
 20
127.22764298722551
 40
0.2213674703159847
  0
CIRCLE
  8
_1-1_
  6
CONTINUOUS
 62
    7
 10
219.77825267894849
 20
127.22764298722551
 40
0.2213674703159847
  0
CIRCLE
  8
_1-1_
  6
CONTINUOUS
 62
    7
 10
221.96962923616977
 20
126.91458212362754
 40
0.2213674703159847
  0
CIRCLE
  8
_1-1_
  6
CONTINUOUS
 62
    7
 10
222.12615966796875
 20
128.94944062104096
 40
0.2213674703159847
  0
CIRCLE
  8
_1-1_
  6
CONTINUOUS
 62
    7
 10
225.25669407200169
 20
128.636379757443
 40
0.2213674703159847
  0
CIRCLE
  8
_1-1_
  6
CONTINUOUS
 62
    7
 10
225.72628536739867
 20
128.16680083403716
 40
0.2213674703159847
  0
CIRCLE
  8
_1-1_
  6
CONTINUOUS
 62
    7
 10
222.28269009976776
 20
128.636379757443
 40
0.2213674703159847
  0
CIRCLE
  8
_1-1_
  6
CONTINUOUS
 62
    7
 10
227.72980561127534
 20
129.87294789907097
 40
0.2213674703159847
  0
CIRCLE
  8
_1-1_
  6
CONTINUOUS
 62
    7
 10
225.06886250263938
 20
129.87294789907097
 40
0.2213674703159847
  0
CIRCLE
  8
_1-1_
  6
CONTINUOUS
 62
    7
 10
227.26023905986065
 20
129.55988703547297
 40
0.2213674703159847
  0
CIRCLE
  8
_1-1_
  6
CONTINUOUS
 62
    7
 10
227.41676949165964
 20
131.59474553288641
 40
0.2213674703159847
  0
CIRCLE
  8
_1-1_
  6
CONTINUOUS
 62
    7
 10
230.54730389569258
 20
131.28168466928844
 40
0.2213674703159847
  0
CIRCLE
  8
_1-1_
  6
CONTINUOUS
 62
    7
 10
231.01689519108953
 20
130.8121057458826
 40
0.2213674703159847
  0
CIRCLE
  8
_1-1_
  6
CONTINUOUS
 62
    7
 10
227.57329992345862
 20
131.28168466928844
 40
0.2213674703159847
  0
CIRCLE
  8
_1-1_
  6
CONTINUOUS
 62
    7
 10
230.37513526710305
 20
134.36996872360643
 40
0.2213674703159847
  0
CIRCLE
  8
_1-1_
  6
CONTINUOUS
 62
    7
 10
227.71419215846709
 20
134.36996872360643
 40
0.2213674703159847
  0
CIRCLE
  8
_1-1_
  6
CONTINUOUS
 62
    7
 10
229.90556871568836
 20
134.05692023199958
 40
0.2213674703159847
  0
CIRCLE
  8
_1-1_
  6
CONTINUOUS
 62
    7
 10
230.06209914748734
 20
136.09177872941302
 40
0.2213674703159847
  0
CIRCLE
  8
_1-1_
  6
CONTINUOUS
 62
    7
 10
233.19263355152029
 20
135.77871786581505
 40
0.2213674703159847
  0
CIRCLE
  8
_1-1_
  6
CONTINUOUS
 62
    7
 10
233.66222484691724
 20
135.30913894240922
 40
0.2213674703159847
  0
CIRCLE
  8
_1-1_
  6
CONTINUOUS
 62
    7
 10
230.21862957928633
 20
135.77871786581505
 40
0.2213674703159847
  0
CIRCLE
  8
_1-1_
  6
CONTINUOUS
 62
    7
 10
224.55544961465372
 20
135.42809563714104
 40
0.2213674703159847
  0
CIRCLE
  8
_1-1_
  6
CONTINUOUS
 62
    7
 10
221.89450650601776
 20
135.42809563714104
 40
0.2213674703159847
  0
CIRCLE
  8
_1-1_
  6
CONTINUOUS
 62
    7
 10
224.08588306323904
 20
135.11503477354307
 40
0.2213674703159847
  0
CIRCLE
  8
_1-1_
  6
CONTINUOUS
 62
    7
 10
224.24241349503802
 20
137.14989327095651
 40
0.2213674703159847
  0
CIRCLE
  8
_1-1_
  6
CONTINUOUS
 62
    7
 10
227.37294789907097
 20
136.83683240735854
 40
0.2213674703159847
  0
CIRCLE
  8
_1-1_
  6
CONTINUOUS
 62
    7
 10
227.84253919446792
 20
136.36725348395271
 40
0.2213674703159847
  0
CIRCLE
  8
_1-1_
  6
CONTINUOUS
 62
    7
 10
224.39894392683701
 20
136.83683240735854
 40
0.2213674703159847
  0
CIRCLE
  8
_1-1_
  6
CONTINUOUS
 62
    7
 10
230.37513526710305
 20
136.48622255067568
 40
0.2213674703159847
  0
CIRCLE
  8
_1-1_
  6
CONTINUOUS
 62
    7
 10
227.71419215846709
 20
136.48622255067568
 40
0.2213674703159847
  0
CIRCLE
  8
_1-1_
  6
CONTINUOUS
 62
    7
 10
229.90556871568836
 20
136.17316168707771
 40
0.2213674703159847
  0
CIRCLE
  8
_1-1_
  6
CONTINUOUS
 62
    7
 10
230.06209914748734
 20
138.20802018449115
 40
0.2213674703159847
  0
CIRCLE
  8
_1-1_
  6
CONTINUOUS
 62
    7
 10
233.19263355152029
 20
137.89495932089318
 40
0.2213674703159847
  0
CIRCLE
  8
_1-1_
  6
CONTINUOUS
 62
    7
 10
233.66222484691724
 20
137.42538039748734
 40
0.2213674703159847
  0
CIRCLE
  8
_1-1_
  6
CONTINUOUS
 62
    7
 10
230.21862957928633
 20
137.89495932089318
 40
0.2213674703159847
  0
CIRCLE
  8
_1-1_
  6
CONTINUOUS
 62
    7
 10
236.72389674831084
 20
138.86701429212417
 40
0.2213674703159847
  0
CIRCLE
  8
_1-1_
  6
CONTINUOUS
 62
    7
 10
234.06292889569258
 20
138.86701429212417
 40
0.2213674703159847
  0
CIRCLE
  8
_1-1_
  6
CONTINUOUS
 62
    7
 10
236.25430545291385
 20
138.5539534285262
 40
0.2213674703159847
  0
CIRCLE
  8
_1-1_
  6
CONTINUOUS
 62
    7
 10
236.41083588471284
 20
140.58881192593961
 40
0.2213674703159847
  0
CIRCLE
  8
_1-1_
  6
CONTINUOUS
 62
    7
 10
239.54137028874578
 20
140.27575106234164
 40
0.2213674703159847
  0
CIRCLE
  8
_1-1_
  6
CONTINUOUS
 62
    7
 10
240.01096158414276
 20
139.80617213893581
 40
0.2213674703159847
  0
CIRCLE
  8
_1-1_
  6
CONTINUOUS
 62
    7
 10
236.56736631651185
 20
140.27575106234164
 40
0.2213674703159847
  0
CIRCLE
  8
_1-1_
  6
CONTINUOUS
 62
    7
 10
240.69184174408784
 20
140.98324337521115
 40
0.2213674703159847
  0
CIRCLE
  8
_1-1_
  6
CONTINUOUS
 62
    7
 10
238.03089863545188
 20
140.98324337521115
 40
0.2213674703159847
  0
CIRCLE
  8
_1-1_
  6
CONTINUOUS
 62
    7
 10
240.22227519267315
 20
140.67019488360432
 40
0.2213674703159847
  0
CIRCLE
  8
_1-1_
  6
CONTINUOUS
 62
    7
 10
240.37880562447214
 20
142.70505338101773
 40
0.2213674703159847
  0
CIRCLE
  8
_1-1_
  6
CONTINUOUS
 62
    7
 10
243.50934002850508
 20
142.39199251741977
 40
0.2213674703159847
  0
CIRCLE
  8
_1-1_
  6
CONTINUOUS
 62
    7
 10
243.97893132390203
 20
141.92241359401393
 40
0.2213674703159847
  0
CIRCLE
  8
_1-1_
  6
CONTINUOUS
 62
    7
 10
240.53533605627112
 20
142.39199251741977
 40
0.2213674703159847
  0
CIRCLE
  8
_1-1_
  6
CONTINUOUS
 62
    7
 10
247.83419222445102
 20
143.89308620143581
 40
0.2213674703159847
  0
CIRCLE
  8
_1-1_
  6
CONTINUOUS
 62
    7
 10
245.17322437183279
 20
143.89308620143581
 40
0.2213674703159847
  0
CIRCLE
  8
_1-1_
  6
CONTINUOUS
 62
    7
 10
247.36460092905406
 20
143.58002533783784
 40
0.2213674703159847
  0
CIRCLE
  8
_1-1_
  6
CONTINUOUS
 62
    7
 10
247.52113136085305
 20
145.61488383525128
 40
0.2213674703159847
  0
CIRCLE
  8
_1-1_
  6
CONTINUOUS
 62
    7
 10
250.65166576488599
 20
145.30182297165331
 40
0.2213674703159847
  0
CIRCLE
  8
_1-1_
  6
CONTINUOUS
 62
    7
 10
251.12125706028294
 20
144.83224404824747
 40
0.2213674703159847
  0
CIRCLE
  8
_1-1_
  6
CONTINUOUS
 62
    7
 10
247.67766179265203
 20
145.30182297165331
 40
0.2213674703159847
  0
CIRCLE
  8
_1-1_
  6
CONTINUOUS
 62
    7
 10
248.62778122360643
 20
142.305908203125
 40
0.2213674703159847
  0
CIRCLE
  8
_1-1_
  6
CONTINUOUS
 62
    7
 10
245.96681337098818
 20
142.305908203125
 40
0.2213674703159847
  0
CIRCLE
  8
_1-1_
  6
CONTINUOUS
 62
    7
 10
248.15818992820948
 20
141.99284733952703
 40
0.2213674703159847
  0
CIRCLE
  8
_1-1_
  6
CONTINUOUS
 62
    7
 10
248.31472036000847
 20
144.02770583694047
 40
0.2213674703159847
  0
CIRCLE
  8
_1-1_
  6
CONTINUOUS
 62
    7
 10
251.44525476404141
 20
143.7146449733425
 40
0.2213674703159847
  0
CIRCLE
  8
_1-1_
  6
CONTINUOUS
 62
    7
 10
251.91484605943836
 20
143.24506604993667
 40
0.2213674703159847
  0
CIRCLE
  8
_1-1_
  6
CONTINUOUS
 62
    7
 10
248.47125079180745
 20
143.7146449733425
 40
0.2213674703159847
  0
CIRCLE
  8
_1-1_
  6
CONTINUOUS
 62
    7
 10
238.31107474662164
 20
138.07340054898648
 40
0.2213674703159847
  0
CIRCLE
  8
_1-1_
  6
CONTINUOUS
 62
    7
 10
235.65010689400339
 20
138.07340054898648
 40
0.2213674703159847
  0
CIRCLE
  8
_1-1_
  6
CONTINUOUS
 62
    7
 10
237.84148345122466
 20
137.76035205737966
 40
0.2213674703159847
  0
CIRCLE
  8
_1-1_
  6
CONTINUOUS
 62
    7
 10
237.99801388302367
 20
139.79521055479307
 40
0.2213674703159847
  0
CIRCLE
  8
_1-1_
  6
CONTINUOUS
 62
    7
 10
241.12854828705659
 20
139.4821496911951
 40
0.2213674703159847
  0
CIRCLE
  8
_1-1_
  6
CONTINUOUS
 62
    7
 10
241.59813958245357
 20
139.01257076778927
 40
0.2213674703159847
  0
CIRCLE
  8
_1-1_
  6
CONTINUOUS
 62
    7
 10
238.15454431482266
 20
139.4821496911951
 40
0.2213674703159847
  0
CIRCLE
  8
_1-1_
  6
CONTINUOUS
 62
    7
 10
238.31107474662164
 20
136.48622255067568
 40
0.2213674703159847
  0
CIRCLE
  8
_1-1_
  6
CONTINUOUS
 62
    7
 10
235.65010689400339
 20
136.48622255067568
 40
0.2213674703159847
  0
CIRCLE
  8
_1-1_
  6
CONTINUOUS
 62
    7
 10
237.84148345122466
 20
136.17316168707771
 40
0.2213674703159847
  0
CIRCLE
  8
_1-1_
  6
CONTINUOUS
 62
    7
 10
237.99801388302367
 20
138.20802018449115
 40
0.2213674703159847
  0
CIRCLE
  8
_1-1_
  6
CONTINUOUS
 62
    7
 10
241.12854828705659
 20
137.89495932089318
 40
0.2213674703159847
  0
CIRCLE
  8
_1-1_
  6
CONTINUOUS
 62
    7
 10
241.59813958245357
 20
137.42538039748734
 40
0.2213674703159847
  0
CIRCLE
  8
_1-1_
  6
CONTINUOUS
 62
    7
 10
238.15454431482266
 20
137.89495932089318
 40
0.2213674703159847
  0
CIRCLE
  8
_1-1_
  6
CONTINUOUS
 62
    7
 10
229.05247043918919
 20
133.57637972445102
 40
0.2213674703159847
  0
CIRCLE
  8
_1-1_
  6
CONTINUOUS
 62
    7
 10
226.39152733055323
 20
133.57637972445102
 40
0.2213674703159847
  0
CIRCLE
  8
_1-1_
  6
CONTINUOUS
 62
    7
 10
228.58290388777451
 20
133.26331886085305
 40
0.2213674703159847
  0
CIRCLE
  8
_1-1_
  6
CONTINUOUS
 62
    7
 10
228.73943431957349
 20
135.29817735826649
 40
0.2213674703159847
  0
CIRCLE
  8
_1-1_
  6
CONTINUOUS
 62
    7
 10
231.86996872360643
 20
134.98511649466852
 40
0.2213674703159847
  0
CIRCLE
  8
_1-1_
  6
CONTINUOUS
 62
    7
 10
232.33956001900339
 20
134.51553757126268
 40
0.2213674703159847
  0
CIRCLE
  8
_1-1_
  6
CONTINUOUS
 62
    7
 10
228.89596475137247
 20
134.98511649466852
 40
0.2213674703159847
  0
CIRCLE
  8
_1-1_
  6
CONTINUOUS
 62
    7
 10
221.64560678842906
 20
133.04732863967484
 40
0.2213674703159847
  0
CIRCLE
  8
_1-1_
  6
CONTINUOUS
 62
    7
 10
218.98466367979307
 20
133.04732863967484
 40
0.2213674703159847
  0
CIRCLE
  8
_1-1_
  6
CONTINUOUS
 62
    7
 10
221.17604023701438
 20
132.73426777607688
 40
0.2213674703159847
  0
CIRCLE
  8
_1-1_
  6
CONTINUOUS
 62
    7
 10
221.33257066881336
 20
134.76912627349029
 40
0.2213674703159847
  0
CIRCLE
  8
_1-1_
  6
CONTINUOUS
 62
    7
 10
224.4631050728463
 20
134.45606540989232
 40
0.2213674703159847
  0
CIRCLE
  8
_1-1_
  6
CONTINUOUS
 62
    7
 10
224.93269636824326
 20
133.98648648648648
 40
0.2213674703159847
  0
CIRCLE
  8
_1-1_
  6
CONTINUOUS
 62
    7
 10
221.48910110061234
 20
134.45606540989232
 40
0.2213674703159847
  0
CIRCLE
  8
_1-1_
  6
CONTINUOUS
 62
    7
 10
218.7357639622044
 20
132.51825281091638
 40
0.2213674703159847
  0
CIRCLE
  8
_1-1_
  6
CONTINUOUS
 62
    7
 10
216.07482085356841
 20
132.51825281091638
 40
0.2213674703159847
  0
CIRCLE
  8
_1-1_
  6
CONTINUOUS
 62
    7
 10
218.26619741078972
 20
132.20520431930956
 40
0.2213674703159847
  0
CIRCLE
  8
_1-1_
  6
CONTINUOUS
 62
    7
 10
218.4227278425887
 20
134.24006281672297
 40
0.2213674703159847
  0
CIRCLE
  8
_1-1_
  6
CONTINUOUS
 62
    7
 10
221.55326224662164
 20
133.927001953125
 40
0.2213674703159847
  0
CIRCLE
  8
_1-1_
  6
CONTINUOUS
 62
    7
 10
222.02285354201859
 20
133.45742302971917
 40
0.2213674703159847
  0
CIRCLE
  8
_1-1_
  6
CONTINUOUS
 62
    7
 10
218.57925827438768
 20
133.927001953125
 40
0.2213674703159847
  0
CIRCLE
  8
_1-1_
  6
CONTINUOUS
 62
    7
 10
212.91607830975508
 20
131.19561272698479
 40
0.2213674703159847
  0
CIRCLE
  8
_1-1_
  6
CONTINUOUS
 62
    7
 10
210.25513520111909
 20
131.19561272698479
 40
0.2213674703159847
  0
CIRCLE
  8
_1-1_
  6
CONTINUOUS
 62
    7
 10
212.44651175834039
 20
130.88255186338682
 40
0.2213674703159847
  0
CIRCLE
  8
_1-1_
  6
CONTINUOUS
 62
    7
 10
212.60304219013938
 20
132.91741036080026
 40
0.2213674703159847
  0
CIRCLE
  8
_1-1_
  6
CONTINUOUS
 62
    7
 10
215.73357659417232
 20
132.60434949720229
 40
0.2213674703159847
  0
CIRCLE
  8
_1-1_
  6
CONTINUOUS
 62
    7
 10
216.20316788956927
 20
132.13477057379646
 40
0.2213674703159847
  0
CIRCLE
  8
_1-1_
  6
CONTINUOUS
 62
    7
 10
212.75957262193836
 20
132.60434949720229
 40
0.2213674703159847
  0
CIRCLE
  8
_1-1_
  6
CONTINUOUS
 62
    7
 10
211.59346296980576
 20
129.60840998469172
 40
0.2213674703159847
  0
CIRCLE
  8
_1-1_
  6
CONTINUOUS
 62
    7
 10
208.9324951171875
 20
129.60840998469172
 40
0.2213674703159847
  0
CIRCLE
  8
_1-1_
  6
CONTINUOUS
 62
    7
 10
211.1238716744088
 20
129.2953614930849
 40
0.2213674703159847
  0
CIRCLE
  8
_1-1_
  6
CONTINUOUS
 62
    7
 10
211.28040210620779
 20
131.33021999049831
 40
0.2213674703159847
  0
CIRCLE
  8
_1-1_
  6
CONTINUOUS
 62
    7
 10
214.41093651024073
 20
131.01715912690034
 40
0.2213674703159847
  0
CIRCLE
  8
_1-1_
  6
CONTINUOUS
 62
    7
 10
214.88052780563768
 20
130.5475802034945
 40
0.2213674703159847
  0
CIRCLE
  8
_1-1_
  6
CONTINUOUS
 62
    7
 10
211.43693253800677
 20
131.01715912690034
 40
0.2213674703159847
  0
CIRCLE
  8
_1-1_
  6
CONTINUOUS
 62
    7
 10
215.82592113597974
 20
127.22764298722551
 40
0.2213674703159847
  0
CIRCLE
  8
_1-1_
  6
CONTINUOUS
 62
    7
 10
213.16497802734375
 20
127.22764298722551
 40
0.2213674703159847
  0
CIRCLE
  8
_1-1_
  6
CONTINUOUS
 62
    7
 10
215.35635458456505
 20
126.91458212362754
 40
0.2213674703159847
  0
CIRCLE
  8
_1-1_
  6
CONTINUOUS
 62
    7
 10
215.51288501636404
 20
128.94944062104096
 40
0.2213674703159847
  0
CIRCLE
  8
_1-1_
  6
CONTINUOUS
 62
    7
 10
218.64341942039698
 20
128.636379757443
 40
0.2213674703159847
  0
CIRCLE
  8
_1-1_
  6
CONTINUOUS
 62
    7
 10
219.11301071579393
 20
128.16680083403716
 40
0.2213674703159847
  0
CIRCLE
  8
_1-1_
  6
CONTINUOUS
 62
    7
 10
215.66941544816302
 20
128.636379757443
 40
0.2213674703159847
  0
CIRCLE
  8
_1-1_
  6
CONTINUOUS
 62
    7
 10
213.97422996727198
 20
125.6404649889147
 40
0.2213674703159847
  0
CIRCLE
  8
_1-1_
  6
CONTINUOUS
 62
    7
 10
211.31326211465372
 20
125.6404649889147
 40
0.2213674703159847
  0
CIRCLE
  8
_1-1_
  6
CONTINUOUS
 62
    7
 10
213.504638671875
 20
125.32740412531673
 40
0.2213674703159847
  0
CIRCLE
  8
_1-1_
  6
CONTINUOUS
 62
    7
 10
213.66116910367398
 20
127.36226262273016
 40
0.2213674703159847
  0
CIRCLE
  8
_1-1_
  6
CONTINUOUS
 62
    7
 10
216.79170350770693
 20
127.04920175913219
 40
0.2213674703159847
  0
CIRCLE
  8
_1-1_
  6
CONTINUOUS
 62
    7
 10
217.26129480310391
 20
126.57962283572635
 40
0.2213674703159847
  0
CIRCLE
  8
_1-1_
  6
CONTINUOUS
 62
    7
 10
213.817699535473
 20
127.04920175913219
 40
0.2213674703159847
  0
CIRCLE
  8
_1-1_
  6
CONTINUOUS
 62
    7
 10
201.80579520560602
 20
126.4340539880701
 40
0.2213674703159847
  0
CIRCLE
  8
_1-1_
  6
CONTINUOUS
 62
    7
 10
199.14483972497891
 20
126.4340539880701
 40
0.2213674703159847
  0
CIRCLE
  8
_1-1_
  6
CONTINUOUS
 62
    7
 10
201.33621628220018
 20
126.12099312447214
 40
0.2213674703159847
  0
CIRCLE
  8
_1-1_
  6
CONTINUOUS
 62
    7
 10
201.49274671399917
 20
128.15585162188557
 40
0.2213674703159847
  0
CIRCLE
  8
_1-1_
  6
CONTINUOUS
 62
    7
 10
204.62328111803211
 20
127.84279075828759
 40
0.2213674703159847
  0
CIRCLE
  8
_1-1_
  6
CONTINUOUS
 62
    7
 10
205.09287241342906
 20
127.37321183488176
 40
0.2213674703159847
  0
CIRCLE
  8
_1-1_
  6
CONTINUOUS
 62
    7
 10
201.64927714579815
 20
127.84279075828759
 40
0.2213674703159847
  0
CIRCLE
  8
_1-1_
  6
CONTINUOUS
 62
    7
 10
197.0442364666913
 20
119.29170350770693
 40
0.2213674703159847
  0
CIRCLE
  8
_1-1_
  6
CONTINUOUS
 62
    7
 10
194.38328098606419
 20
119.29170350770693
 40
0.2213674703159847
  0
CIRCLE
  8
_1-1_
  6
CONTINUOUS
 62
    7
 10
196.5746575432855
 20
118.97865501610009
 40
0.2213674703159847
  0
CIRCLE
  8
_1-1_
  6
CONTINUOUS
 62
    7
 10
196.73118797508448
 20
121.01351351351352
 40
0.2213674703159847
  0
CIRCLE
  8
_1-1_
  6
CONTINUOUS
 62
    7
 10
199.8617223791174
 20
120.70045264991555
 40
0.2213674703159847
  0
CIRCLE
  8
_1-1_
  6
CONTINUOUS
 62
    7
 10
200.33131367451438
 20
120.23087372650971
 40
0.2213674703159847
  0
CIRCLE
  8
_1-1_
  6
CONTINUOUS
 62
    7
 10
196.88771840688347
 20
120.70045264991555
 40
0.2213674703159847
  0
TEXT
  8
_0-0_
 62
    7
 10
141.89189395389042
 20
14.594594594594582
 40
2.5
 41
1
 50
0
  1
縮尺
  0
TEXT
  8
_0-0_
 62
    7
 10
377.10214563318203
 20
22.865493362014362
 40
2.5
 41
1
 50
0
  1
ＮＯ
  0
TEXT
  8
_1-0_
 62
    7
 10
169.90681828679266
 20
13.3181144095756
 40
2.5
 41
1
 50
0
  1
1/5
  0
TEXT
  8
_0-0_
 62
    7
 10
14.594594336844779
 20
24.324324324324323
 40
2.5
 41
1
 50
0
  1
Ｓ型
  0
TEXT
  8
_0-0_
 62
    7
 10
383.97877873601146
 20
17.689098667454061
 40
2.5
 41
1
 50
0
  1
Ｓ
  0
TEXT
  8
_0-0_
 62
    7
 10
39.721903414339636
 20
15.395235628695104
 40
2.5
 41
1
 50
0
  1
壁際　3
  0
TEXT
  8
_1-1_
 62
    7
 10
199.48938936800573
 20
235.3763889622044
 40
2.5
 41
1
 50
0
  1
雨押え板　15ｘ90
  0
TEXT
  8
_1-1_
 62
    7
 10
195.54235303724136
 20
216.80212072423987
 40
2.5
 41
1
 50
0
  1
水切り鉄板
  0
TEXT
  8
_1-1_
 62
    7
 10
199.25720627243453
 20
197.06692669842695
 40
2.5
 41
1
 50
0
  1
面土漆喰
  0
TEXT
  8
_1-1_
 62
    7
 10
395.07462372650974
 20
15.536106212719062
 40
2.5
 41
1
 50
0
  1
18
  0
TEXT
  8
_1-1_
 62
    7
 10
25.556194717819636
 20
20.211577544341225
 40
2.5
 41
1
 50
0
  1
ＲＣ
  0
TEXT
  8
_1-1_
 62
    7
 10
275.18507673933703
 20
208.92392545133026
 40
2.5
 41
1
 50
90
  1
20
  0
TEXT
  8
_1-1_
 62
    7
 10
202.1122679839263
 20
204.56375946869721
 40
2.5
 41
1
 50
0
  1
のし瓦
  0
TEXT
  8
_1-1_
 62
    7
 10
398.43994965424412
 20
15.324794150687552
 40
2.5
 41
1
 50
0
  1
ー2
  0
TEXT
  8
_1-1_
 62
    7
 10
210.74976740656675
 20
243.48509092588685
 40
2.5
 41
1
 50
0
  1
シーリング材
  0
TEXT
  8
_1-1_
 62
    7
 10
202.99697257377005
 20
194.18527963999156
 40
2.5
 41
1
 50
0
  1
及び葺き土
  0
TEXT
  8
_1-1_
 62
    7
 10
292.96343004381339
 20
180.41837125211148
 40
2.5
 41
1
 50
90
  1
300
  0
TEXT
  8
_1-1_
 62
    7
 10
294.71434309675885
 20
184.9719691920925
 40
2.5
 41
1
 50
0
  1
下葺き材立上がり寸法
  0
POINT
  8
_1-1_
 62
    7
 10
275.68507838893584
 20
208.29335805532097
  0
POINT
  8
_1-1_
 62
    7
 10
275.68507838893584
 20
212.29337125211148
  0
POINT
  8
_1-1_
 62
    7
 10
293.46343169341219
 20
212.29337125211148
  0
LINE
  8
_1-1_
  6
CONTINUOUS
 62
    7
 10
282.35352453503998
 20
226.98871794071817
 11
286.24973681415634
 21
226.98871794071817
  0
TEXT
  8
_1-1_
 62
    7
 10
286.74979923345376
 20
225.62973711227835
 40
2.5
 41
1
 50
0
  1
水切り鉄板立上がり寸法
  0
LINE
  8
_1-1_
  6
CONTINUOUS
 62
    7
 10
275.68507838893584
 20
202.10173811592063
 11
282.35352453503998
 21
226.98871794071817
  0
LINE
  8
_1-0_
  6
CONTINUOUS
 62
    7
 10
104.40658510250837
 20
86.642902823325755
 11
102.92927038544757
 21
89.925823042128542
  0
LINE
  8
_1-0_
  6
CONTINUOUS
 62
    7
 10
102.92927038544757
 20
89.925823042128542
 11
107.30649321985423
 21
91.895567750215534
  0
LINE
  8
_1-0_
  6
CONTINUOUS
 62
    7
 10
107.30649321985423
 20
91.895567750215534
 11
108.78380793691505
 21
88.612647531412748
  0
LINE
  8
_1-0_
  6
CONTINUOUS
 62
    7
 10
108.78380793691505
 20
88.612647531412748
 11
104.40658510250837
 21
86.642902823325755
  0
LINE
  8
_1-0_
  6
CONTINUOUS
 62
    7
 10
102.92927038544757
 20
89.925823042128542
 11
108.78380793691505
 21
88.612647531412748
  0
LINE
  8
_1-0_
  6
CONTINUOUS
 62
    7
 10
154.72640519726133
 20
113.23453061444695
 11
156.20371991432216
 21
109.95161039564417
  0
LINE
  8
_1-0_
  6
CONTINUOUS
 62
    7
 10
156.20371991432216
 20
109.95161039564417
 11
151.82648470792435
 21
107.98186568755717
  0
LINE
  8
_1-0_
  6
CONTINUOUS
 62
    7
 10
202.14631717466841
 20
134.57349347867839
 11
203.62363189172925
 21
131.2905732598756
  0
LINE
  8
_1-0_
  6
CONTINUOUS
 62
    7
 10
203.62363189172925
 20
131.2905732598756
 11
199.24639668533143
 21
129.32082855178859
  0
LINE
  8
_1-2_
  6
CONTINUOUS
 62
    3
 10
108.40505180040745
 20
89.654356812715534
 11
110.22460053615491
 21
90.266176518163178
  0
LINE
  8
ADD_LINE
  6
DOT
 62
    7
 10
106.74478007849021
 20
94.898621157626849
 11
106.57209182627315
 21
95.473547585519597
  0
LINE
  8
_1-2_
  6
CONTINUOUS
 62
    3
 10
106.57209182627315
 20
95.473547585519597
 11
106.74478007849021
 21
94.898621157626849
  0
LINE
  8
_1-2_
  6
CONTINUOUS
 62
    3
 10
107.60829557152231
 20
92.02391478621638
 11
108.40762517456285
 21
89.646698550204974
  0
LINE
  8
_1-2_
  6
CONTINUOUS
 62
    3
 10
106.57209182627315
 20
95.473547585519597
 11
108.46879229871826
 21
96.111323728361654
  0
LINE
  8
_1-2_
  6
CONTINUOUS
 62
    3
 10
110.22460053615491
 20
90.266176518163178
 11
108.46879229871826
 21
96.111323728361654
  0
LINE
  8
_1-0_
  6
CONTINUOUS
 62
    7
 10
154.72640519726133
 20
113.23451824245582
 11
156.20371991432216
 21
109.95159802365303
  0
LINE
  8
_1-0_
  6
CONTINUOUS
 62
    7
 10
156.20371991432216
 20
109.95159802365303
 11
151.82648470792435
 21
107.98185331556604
  0
LINE
  8
_1-2_
  6
CONTINUOUS
 62
    3
 10
155.81588273632383
 20
110.98997923934138
 11
157.63003728393784
 21
111.6176474654288
  0
LINE
  8
ADD_LINE
  6
DOT
 62
    7
 10
154.10993362314815
 20
116.21955803077931
 11
153.93219759854935
 21
116.79295033177171
  0
LINE
  8
_1-2_
  6
CONTINUOUS
 62
    3
 10
153.93219759854935
 20
116.79295033177171
 11
154.10993362314815
 21
116.21955803077931
  0
LINE
  8
_1-2_
  6
CONTINUOUS
 62
    3
 10
154.99849002623091
 20
113.35248517789712
 11
155.81853034242602
 21
110.98233334882195
  0
LINE
  8
_1-2_
  6
CONTINUOUS
 62
    3
 10
99.354965031509636
 20
93.25163695418513
 11
100.11135145333185
 21
93.513354054586316
  0
LINE
  8
_1-2_
  6
CONTINUOUS
 62
    3
 10
101.27365053219587
 20
94.764224217962578
 11
154.99849002623091
 21
113.35248517789712
  0
LINE
  8
_1-2_
  6
CONTINUOUS
 62
    3
 10
100.24886613476133
 20
93.069719196583776
 11
100.11135145333185
 21
93.513354054586316
  0
LINE
  8
_1-2_
  6
CONTINUOUS
 62
    3
 10
99.496315030189962
 20
92.795543501112917
 11
99.354965031509636
 21
93.25163695418513
  0
LINE
  8
_1-2_
  6
CONTINUOUS
 62
    3
 10
100.97805892007594
 20
93.103482360382344
 11
100.50531276694038
 21
92.939899893638255
  0
LINE
  8
_1-2_
  6
CONTINUOUS
 62
    3
 10
101.10369649001893
 20
93.351689246467643
 11
100.89671307838464
 21
94.019578815724401
  0
LINE
  8
_1-2_
  6
CONTINUOUS
 62
    3
 10
98.897894191138022
 20
92.383754148283529
 11
99.370665088255834
 21
92.547336615027618
  0
LINE
  8
_1-2_
  6
CONTINUOUS
 62
    3
 10
154.10993362314815
 20
116.21955803077931
 11
97.377834244716993
 21
96.590800244672891
  0
LINE
  8
_1-2_
  6
CONTINUOUS
 62
    3
 10
98.641459930950091
 20
92.513561079237917
 11
97.377834244716993
 21
96.590800244672891
  0
LINE
  8
_1-2_
  6
CONTINUOUS
 62
    3
 10
157.63003728393784
 20
111.6176474654288
 11
155.8232811870206
 21
117.44725545476579
  0
LINE
  8
_1-2_
  6
CONTINUOUS
 62
    7
 10
97.377834244716993
 20
96.590800244672891
 11
92.669425579704324
 21
110.19927291411967
  0
LINE
  8
_1-0_
  6
CONTINUOUS
 62
    7
 10
151.82648470792435
 20
107.98186568755717
 11
150.36631757057216
 21
111.22671728964755
  0
LINE
  8
_1-0_
  6
CONTINUOUS
 62
    7
 10
151.82648470792435
 20
107.98185331556604
 11
150.36629282658987
 21
111.22670491765642
  0
LINE
  8
_1-0_
  6
CONTINUOUS
 62
    7
 10
150.36631757057216
 20
111.22671728964755
 11
156.20371991432216
 21
109.95161039564417
  0
LINE
  8
_1-2_
  6
CONTINUOUS
 62
    7
 10
108.46879229871826
 20
96.111323728361654
 11
108.1247272253441
 21
97.134623486860391
  0
LINE
  8
_1-0_
  6
CONTINUOUS
 62
    7
 10
106.57209182627315
 20
95.473547585519597
 11
106.26628094947839
 21
96.49162636376073
  0
LINE
  8
_1-0_
  6
CONTINUOUS
 62
    7
 10
202.14631717466841
 20
134.57349347867839
 11
203.62363189172925
 21
131.2905732598756
  0
LINE
  8
_1-0_
  6
CONTINUOUS
 62
    7
 10
203.62363189172925
 20
131.2905732598756
 11
199.24639668533143
 21
129.32082855178859
  0
LINE
  8
_1-0_
  6
CONTINUOUS
 62
    7
 10
202.14631717466841
 20
134.57348110668724
 11
203.62363189172925
 21
131.29056088788445
  0
LINE
  8
_1-0_
  6
CONTINUOUS
 62
    7
 10
203.62363189172925
 20
131.29056088788445
 11
199.24639668533143
 21
129.32081617979748
  0
LINE
  8
_1-2_
  6
CONTINUOUS
 62
    3
 10
203.23579471373091
 20
132.32894210357281
 11
205.04994926134498
 21
132.95661032966021
  0
LINE
  8
ADD_LINE
  6
DOT
 62
    7
 10
201.52984560055523
 20
137.55852089501073
 11
201.35210957595643
 21
138.13191319600313
  0
LINE
  8
_1-2_
  6
CONTINUOUS
 62
    3
 10
201.35210957595643
 20
138.13191319600313
 11
201.52984560055523
 21
137.55852089501073
  0
LINE
  8
_1-2_
  6
CONTINUOUS
 62
    3
 10
202.41840200363805
 20
134.69144804212854
 11
203.2384423198331
 21
132.32129621305339
  0
LINE
  8
_1-2_
  6
CONTINUOUS
 62
    3
 10
146.77487700891675
 20
114.59059981841655
 11
147.53127580273008
 21
114.85231691881773
  0
LINE
  8
_1-2_
  6
CONTINUOUS
 62
    3
 10
148.69355013761185
 20
116.103187082194
 11
202.41840200363805
 21
134.69144804212854
  0
LINE
  8
_1-2_
  6
CONTINUOUS
 62
    3
 10
147.66877811216841
 20
114.4086820608152
 11
147.53127580273008
 21
114.85231691881773
  0
LINE
  8
_1-2_
  6
CONTINUOUS
 62
    3
 10
146.91623937958821
 20
114.13450636534434
 11
146.77487700891675
 21
114.59059981841655
  0
LINE
  8
_1-2_
  6
CONTINUOUS
 62
    3
 10
148.3979585254919
 20
114.44244522461376
 11
147.92522474434747
 21
114.27886275786967
  0
LINE
  8
_1-2_
  6
CONTINUOUS
 62
    3
 10
148.52360846742602
 20
114.69065211069906
 11
148.31662505579175
 21
115.35854167995582
  0
LINE
  8
_1-2_
  6
CONTINUOUS
 62
    3
 10
146.31780616854513
 20
113.72271701251495
 11
146.79058943765409
 21
113.88629947925904
  0
LINE
  8
_1-2_
  6
CONTINUOUS
 62
    3
 10
146.06138428034831
 20
113.85252394346934
 11
144.79775859411524
 21
117.92976310890431
  0
LINE
  8
_1-2_
  6
CONTINUOUS
 62
    3
 10
205.04994926134498
 20
132.95661032966021
 11
203.24319316442774
 21
138.78621831899721
  0
LINE
  8
_1-2_
  6
CONTINUOUS
 62
    7
 10
144.79775859411524
 20
117.92976310890431
 11
140.08932518512029
 21
131.53823577835109
  0
LINE
  8
_1-0_
  6
CONTINUOUS
 62
    7
 10
199.24639668533143
 20
129.32082855178859
 11
197.78622954797925
 21
132.56568015387896
  0
LINE
  8
_1-0_
  6
CONTINUOUS
 62
    7
 10
199.24639668533143
 20
129.32081617979748
 11
197.78620480399695
 21
132.56566778188784
  0
LINE
  8
_1-0_
  6
CONTINUOUS
 62
    7
 10
197.78620480399695
 20
132.56566778188784
 11
202.11773787515409
 21
134.56046577201664
  0
LINE
  8
_1-0_
  6
CONTINUOUS
 62
    7
 10
197.78622954797925
 20
132.56568015387896
 11
203.62363189172925
 21
131.2905732598756
  0
LINE
  8
_1-0_
  6
CONTINUOUS
 62
    7
 10
249.56625389605779
 20
155.91246871490094
 11
251.04356861311862
 21
152.62953612410701
  0
LINE
  8
_1-0_
  6
CONTINUOUS
 62
    7
 10
251.04356861311862
 20
152.62953612410701
 11
246.66633340672081
 21
150.65979141602003
  0
LINE
  8
_1-0_
  6
CONTINUOUS
 62
    7
 10
249.56625389605779
 20
155.91244397091867
 11
251.04356861311862
 21
152.62953612410701
  0
LINE
  8
ADD_LINE
  6
DOT
 62
    7
 10
252.4698859827343
 20
154.29557319389164
 11
249.02925999297503
 21
165.39713404429281
  0
LINE
  8
_1-2_
  6
CONTINUOUS
 62
    3
 10
250.65573143512029
 20
153.6678925958131
 11
252.4698859827343
 21
154.29557319389164
  0
LINE
  8
ADD_LINE
  6
DOT
 62
    7
 10
248.94978232194461
 20
158.89748375924214
 11
248.77204629734581
 21
159.47087606023453
  0
LINE
  8
_1-2_
  6
CONTINUOUS
 62
    3
 10
248.77204629734581
 20
159.47087606023453
 11
248.94978232194461
 21
158.89748375924214
  0
LINE
  8
_1-2_
  6
CONTINUOUS
 62
    3
 10
249.83833872502737
 20
156.03039853436883
 11
250.65837904122247
 21
153.66027144927594
  0
LINE
  8
_1-2_
  6
CONTINUOUS
 62
    3
 10
194.19481373030612
 20
135.92956268264797
 11
194.95118778013716
 21
136.19127978304917
  0
LINE
  8
_1-2_
  6
CONTINUOUS
 62
    3
 10
196.11351160298346
 20
137.44214994642542
 11
249.83833872502737
 21
156.03039853436883
  0
LINE
  8
_1-2_
  6
CONTINUOUS
 62
    3
 10
195.08871483355779
 20
135.74764492504661
 11
194.95118778013716
 21
136.19127978304917
  0
LINE
  8
_1-2_
  6
CONTINUOUS
 62
    3
 10
194.33615135699529
 20
135.47346922957576
 11
194.19481373030612
 21
135.92956268264797
  0
LINE
  8
_1-2_
  6
CONTINUOUS
 62
    3
 10
195.81791999086352
 20
135.78140808884518
 11
195.34516146573685
 21
135.61782562210109
  0
LINE
  8
_1-2_
  6
CONTINUOUS
 62
    3
 10
195.94354518881539
 20
136.0296149749305
 11
195.73656177718112
 21
136.69750454418724
  0
LINE
  8
_1-2_
  6
CONTINUOUS
 62
    3
 10
193.73774288993445
 20
135.06167987674635
 11
194.21050141506117
 21
135.22526234349044
  0
LINE
  8
_1-2_
  6
CONTINUOUS
 62
    3
 10
248.94978232194461
 20
158.89748375924214
 11
192.21767057152232
 21
139.26872597313573
  0
LINE
  8
_1-2_
  6
CONTINUOUS
 62
    3
 10
193.48129625775545
 20
135.19148680770076
 11
192.21767057152232
 21
139.26872597313573
  0
LINE
  8
_1-2_
  6
CONTINUOUS
 62
    3
 10
248.77204629734581
 20
159.47087606023453
 11
250.66312988581706
 21
160.12518118322862
  0
LINE
  8
_1-2_
  6
CONTINUOUS
 62
    3
 10
252.4698859827343
 20
154.29557319389164
 11
250.66312988581706
 21
160.12518118322862
  0
LINE
  8
_1-2_
  6
CONTINUOUS
 62
    7
 10
192.21767057152232
 20
139.26872597313573
 11
187.5092866504919
 21
152.87719864258253
  0
LINE
  8
_1-2_
  6
CONTINUOUS
 62
    7
 10
246.15089151218956
 20
173.16664549910701
 11
187.5092866504919
 21
152.87719864258253
  0
LINE
  8
_1-2_
  6
CONTINUOUS
 62
    7
 10
250.66312988581706
 20
160.12518118322862
 11
246.15089151218956
 21
173.16664549910701
  0
LINE
  8
_1-2_
  6
CONTINUOUS
 62
    7
 10
250.12999604396742
 20
161.84543231815263
 11
191.43293991801727
 21
141.53680887537391
  0
LINE
  8
_1-0_
  6
CONTINUOUS
 62
    7
 10
246.66633340672081
 20
150.65979141602003
 11
245.20616626936862
 21
153.90464301811039
  0
LINE
  8
_1-0_
  6
CONTINUOUS
 62
    7
 10
246.66633340672081
 20
150.65976667203776
 11
245.20614152538633
 21
153.90464301811039
  0
LINE
  8
_1-0_
  6
CONTINUOUS
 62
    7
 10
245.20616626936862
 20
153.90464301811039
 11
251.04356861311862
 21
152.62953612410701
  0
LINE
  8
_1-2_
  6
CONTINUOUS
 62
    7
 10
141.61335654069461
 20
127.13341103172948
 11
92.669425579704324
 21
110.19927291411967
  0
LINE
  8
_1-2_
  6
CONTINUOUS
 62
    7
 10
155.8232811870206
 20
117.44725545476579
 11
155.47634581170388
 21
118.44995584803014
  0
LINE
  8
_1-2_
  6
CONTINUOUS
 62
    3
 10
153.93219759854935
 20
116.79295033177171
 11
155.82330593100289
 21
117.44725545476579
  0
LINE
  8
ADD_LINE
  6
DOT
 62
    7
 10
157.63003728393784
 20
111.6176474654288
 11
155.82330593100289
 21
117.44725545476579
  0
LINE
  8
_1-2_
  6
CONTINUOUS
 62
    7
 10
153.93219759854935
 20
116.79295033177171
 11
153.61792427982044
 21
117.80697109692161
  0
LINE
  8
_1-2_
  6
CONTINUOUS
 62
    7
 10
145.46745447407721
 20
115.76893299778733
 11
96.593103591211914
 21
98.858883146911054
  0
LINE
  8
ADD_LINE
  6
DOT
 62
    7
 10
205.04994926134498
 20
132.95661032966021
 11
203.24321790840997
 21
138.78621831899721
  0
LINE
  8
_1-2_
  6
CONTINUOUS
 62
    3
 10
201.35210957595643
 20
138.13191319600313
 11
203.24321790840997
 21
138.78621831899721
  0
LINE
  8
_1-2_
  6
CONTINUOUS
 62
    7
 10
189.03329326208399
 20
148.47237389596089
 11
140.08932518512029
 21
131.53823577835109
  0
LINE
  8
_1-2_
  6
CONTINUOUS
 62
    7
 10
203.24319316442774
 20
138.78621831899721
 11
202.89625778911102
 21
139.78891871226156
  0
LINE
  8
_1-2_
  6
CONTINUOUS
 62
    7
 10
192.8873664514843
 20
137.10790823400987
 11
144.01302794061013
 21
120.19784601114249
  0
LINE
  8
_1-0_
  6
CONTINUOUS
 62
    7
 10
245.20614152538633
 20
153.90464301811039
 11
249.56617966411102
 21
155.91256769082997
  0
LINE
  8
_1-0_
  6
CONTINUOUS
 62
    7
 10
249.56617966411102
 20
155.91256769082997
 11
251.04354386913633
 21
152.62953612410701
  0
LINE
  8
_1-0_
  6
CONTINUOUS
 62
    7
 10
251.04354386913633
 20
152.62953612410701
 11
246.68852875881117
 21
150.66978798485448
  0
LINE
  8
_1-0_
  6
CONTINUOUS
 62
    7
 10
246.68852875881117
 20
150.66978798485448
 11
246.66630866273852
 21
150.65979141602003
  0
LINE
  8
_1-0_
  6
CONTINUOUS
 62
    7
 10
150.36629282658987
 20
111.22670491765642
 11
154.72638045327909
 21
113.23464196236715
  0
LINE
  8
_1-3_
  6
CONTINUOUS
 62
    7
 10
130.90398780917013
 20
117.61560113809561
 11
120.75761890608734
 21
145.49248085594823
  0
LINE
  8
_1-3_
  6
CONTINUOUS
 62
    7
 10
120.75761890608734
 20
145.49248085594823
 11
119.48374921119714
 21
145.49248085594823
  0
LINE
  8
_1-0_
  6
CONTINUOUS
 62
    7
 10
76.902102317721642
 20
74.265882477173946
 11
246.69125059686013
 21
150.67100043998539
  0
LINE
  8
_1-2_
  6
CONTINUOUS
 62
    3
 10
76.902102317721642
 20
81.699018051102357
 11
107.60829557152231
 21
92.02391478621638
  0
LINE
  8
_1-2_
  6
CONTINUOUS
 62
    3
 10
106.74478007849021
 20
94.898621157626849
 11
76.902102317721642
 21
84.864082682384037
  0
LINE
  8
_1-2_
  6
CONTINUOUS
 62
    7
 10
98.04432577897586
 20
94.505154723663594
 11
76.902102317721642
 21
87.396122015418243
  0
LINE
  8
_1-2_
  6
CONTINUOUS
 62
    7
 10
94.303530540377878
 20
105.9075281664423
 11
76.902102317721642
 21
100.0563310525804
  0
LINE
  8
_1-3_
  6
CONTINUOUS
 62
    7
 10
183.0364159526456
 20
66.997838752907683
 11
168.58833047703331
 21
66.997838752907683
  0
LINE
  8
_1-0_
  6
CONTINUOUS
 62
    7
 10
258.93546380420815
 20
117.14247145323496
 11
258.93546380420815
 21
87.268109023177956
  0
LINE
  8
_1-0_
  6
CONTINUOUS
 62
    7
 10
122.72669552665322
 20
82.166561781967019
 11
108.9367010033213
 21
49.64301272784698
  0
LINE
  8
_1-0_
  6
CONTINUOUS
 62
    7
 10
124.87433709522375
 20
83.132999869224193
 11
111.08435494388296
 21
50.6094600940975
  0
LINE
  8
_1-0_
  6
CONTINUOUS
 62
    7
 10
127.0219910357854
 20
84.099444142476941
 11
113.23200888444461
 21
51.575904367350248
  0
LINE
  8
_1-0_
  6
CONTINUOUS
 62
    7
 10
218.28312995180102
 20
125.16693252930126
 11
204.49317254444247
 21
92.643436056143528
  0
LINE
  8
_1-0_
  6
CONTINUOUS
 62
    7
 10
220.43078389236268
 20
126.13338298854957
 11
206.64082648500414
 21
93.609880329396276
  0
LINE
  8
_1-0_
  6
CONTINUOUS
 62
    7
 10
216.13550075522164
 20
124.20050681403522
 11
202.34553097587195
 21
91.676991782890795
  0
LINE
  8
_1-2_
  6
CONTINUOUS
 62
    3
 10
201.52984560055523
 20
137.55852089501073
 11
144.79775859411524
 21
117.92976310890431
  0
ARC
  8
_1-2_
  6
CONTINUOUS
 62
    3
 10
101.469820823581
 20
94.197203492403034
 40
0.599999959404404
 50
109.0858917236328
 51
197.21983337402344
  0
ARC
  8
_1-2_
  6
CONTINUOUS
 62
    3
 10
100.43992679380905
 20
93.128906802158099
 40
0.1999999904954755
 50
197.21757507324216
 51
289.0885009765625
  0
ARC
  8
_1-2_
  6
CONTINUOUS
 62
    3
 10
99.30525437114224
 20
92.736331151556328
 40
0.1999999904954755
 50
289.08401489257812
 51
17.217575073242223
  0
ARC
  8
_1-2_
  6
CONTINUOUS
 62
    3
 10
100.91264820296234
 20
93.292476896911054
 40
0.1999999904954755
 50
289.0885009765625
 51
17.219955444335916
  0
ARC
  8
_1-2_
  6
CONTINUOUS
 62
    3
 10
98.832495846015547
 20
92.572773428794505
 40
0.1999999904954755
 50
197.216552734375
 51
289.08514404296875
  0
ARC
  8
_1-2_
  6
CONTINUOUS
 62
    3
 10
148.88972042899695
 20
115.53616635663445
 40
0.599999959404404
 50
109.0858917236328
 51
197.21983337402344
  0
ARC
  8
_1-2_
  6
CONTINUOUS
 62
    3
 10
147.85982639922503
 20
114.46786966638952
 40
0.1999999904954755
 50
197.21757507324216
 51
289.0885009765625
  0
ARC
  8
_1-2_
  6
CONTINUOUS
 62
    3
 10
146.72516634854935
 20
114.07529401578775
 40
0.1999999904954755
 50
289.08401489257812
 51
17.217575073242223
  0
ARC
  8
_1-2_
  6
CONTINUOUS
 62
    3
 10
148.33256018036946
 20
114.63143976114247
 40
0.1999999904954755
 50
289.0885009765625
 51
17.219955444335916
  0
ARC
  8
_1-2_
  6
CONTINUOUS
 62
    3
 10
146.25240782342263
 20
113.91173629302592
 40
0.1999999904954755
 50
197.216552734375
 51
289.08514404296875
  0
ARC
  8
_1-2_
  6
CONTINUOUS
 62
    3
 10
196.30968189436862
 20
136.87512922086589
 40
0.599999959404404
 50
109.0858917236328
 51
197.21983337402344
  0
ARC
  8
_1-2_
  6
CONTINUOUS
 62
    3
 10
195.27978786459664
 20
135.80683253062094
 40
0.1999999904954755
 50
197.21757507324216
 51
289.0885009765625
  0
ARC
  8
_1-2_
  6
CONTINUOUS
 62
    3
 10
194.14510306993873
 20
135.41425688001917
 40
0.1999999904954755
 50
289.08401489257812
 51
17.217575073242223
  0
ARC
  8
_1-2_
  6
CONTINUOUS
 62
    3
 10
195.75249690175878
 20
135.97040262537391
 40
0.1999999904954755
 50
289.0885009765625
 51
17.219955444335916
  0
ARC
  8
_1-2_
  6
CONTINUOUS
 62
    3
 10
193.67234454481201
 20
135.25069915725734
 40
0.1999999904954755
 50
197.216552734375
 51
289.08514404296875
  0
TEXT
  8
_1-3_
 62
    7
 10
102.45360650440342
 20
143.66172309623539
 40
2.5
 41
1
 50
0
  1
Ｓ型　桟瓦
  0
LINE
  8
_1-4_
  6
CONTINUOUS
 62
    3
 10
228.32698237675095
 20
172.36547970043193
 11
230.09263871912847
 21
167.26229317039599
  0
LINE
  8
_1-0_
  6
CONTINUOUS
 62
    7
 10
76.902102317721642
 20
72.511354740819428
 11
254.19552364864867
 21
152.29338469986567
  0
LINE
  8
_1-0_
  6
CONTINUOUS
 62
    7
 10
246.69125059686013
 20
150.67100043998539
 11
252.33979978912168
 21
153.21284347306315
  0
LINE
  8
_1-2_
  6
CONTINUOUS
 62
    7
 10
252.33979978912168
 20
153.21284347306315
 11
252.58601113684676
 21
152.66570626140532
  0
LINE
  8
_1-0_
  6
CONTINUOUS
 62
    7
 10
76.902102317721642
 20
73.607939988787109
 11
252.58601113684676
 21
152.66570626140532
  0
LINE
  8
_1-0_
  6
DASHED1
 62
    3
 10
76.902102317721642
 20
73.010069703340534
 11
253.84514885979732
 21
152.63441895868331
  0
LINE
  8
_1-1_
  6
DASHED1
 62
    3
 10
253.84514885979732
 20
152.63441895868331
 11
253.84514885979732
 21
209.75300556904563
  0
ARC
  8
_1-1_
  6
CONTINUOUS
 62
    3
 10
219.46120803420609
 20
163.04093232025971
 40
21.026670610582507
 50
338.93566987602327
 51
30.982055664062511
  0
LINE
  8
_1-1_
  6
CONTINUOUS
 62
    7
 10
293.46343169341219
 20
152.63441895868331
 11
293.46343169341219
 21
212.29337125211148
  0
POINT
  8
_1-1_
 62
    7
 10
293.46343169341219
 20
152.63441895868331
  0
LINE
  8
_1-2_
  6
CONTINUOUS
 62
    7
 10
257.31346336570948
 20
152.63441895868331
 11
293.46343169341219
 21
152.63441895868331
  0
POINT
  8
_1-1_
 62
    7
 10
275.68507838893584
 20
208.29335805532097
  0
POINT
  8
_1-1_
 62
    7
 10
275.68507838893584
 20
188.69726232580237
  0
LINE
  8
_1-1_
  6
CONTINUOUS
 62
    7
 10
275.68507838893584
 20
208.29335805532097
 11
257.31346336570948
 21
208.29335805532097
  0
LINE
  8
_1-1_
  6
CONTINUOUS
 62
    7
 10
275.68507838893584
 20
188.69726232580237
 11
257.31346336570948
 21
188.69726232580237
  0
LINE
  8
_1-1_
  6
CONTINUOUS
 62
    7
 10
275.68507838893584
 20
208.29335805532097
 11
275.68507838893584
 21
188.69726232580237
  0
TEXT
  8
_1-1_
 62
    7
 10
275.18507838893584
 20
196.62031019056167
 40
2.5
 41
1
 50
90
  1
100
  0
LINE
  8
_1-3_
  6
CONTINUOUS
 62
    7
 10
182.65249637087169
 20
54.644845233620899
 11
170.53361143368843
 21
54.644845233620899
  0
LINE
  8
_1-3_
  6
CONTINUOUS
 62
    7
 10
182.65249637087169
 20
48.702528405073608
 11
172.6964334353776
 21
48.702528405073608
  0
LINE
  8
_1-3_
  6
CONTINUOUS
 62
    7
 10
152.76456619150753
 20
110.47326302972357
 11
174.94244470543674
 21
42.531663784349362
  0
LINE
  8
_1-3_
  6
CONTINUOUS
 62
    7
 10
182.65249637087169
 20
42.531663784349362
 11
174.94244470543674
 21
42.531663784349362
  0
TEXT
  8
_1-1_
 62
    7
 10
183.98888162933301
 20
47.15623515461661
 40
2.5
 41
1
 50
0
  1
下葺き材
  0
TEXT
  8
_1-1_
 62
    7
 10
198.42204442164194
 20
47.15623515461661
 40
2.5
 41
1
 50
0
  1
ゴムアス系ルーフィング
  0
TEXT
  8
_1-3_
 62
    7
 10
184.60946485703562
 20
65.4927259239617
 40
2.5
 41
1
 50
0
  1
瓦桟
  0
TEXT
  8
_1-3_
 62
    7
 10
184.22554321326317
 20
53.539162138363693
 40
2.5
 41
1
 50
0
  1
流し桟
  0
TEXT
  8
_1-1_
 62
    7
 10
193.65472291373723
 20
65.353781601065918
 40
2.5
 41
1
 50
0
  1
15×30　（樹脂桟木）
  0
TEXT
  8
_1-1_
 62
    7
 10
193.96270131820012
 20
61.764130586331106
 40
2.5
 41
1
 50
0
  1
※　地域により瓦桟木の大きさは、異なります
  0
TEXT
  8
_1-1_
 62
    7
 10
184.41446390844058
 20
41.369017839976451
 40
2.5
 41
1
 50
0
  1
パーライト系モルタル　　ｔ＝50
  0
ENDSEC
  0
EOF
