  0
SECTION
  2
HEADER
  9
$ACADVER
  1
AC1009
  9
$INSBASE
 10
0
 20
0
 30
0
  9
$EXTMIN
 10
0
 20
0
  9
$EXTMAX
 10
420
 20
297
  9
$LIMMIN
 10
0
 20
0
  9
$LIMMAX
 10
420
 20
297
  9
$LTSCALE
 40
1
  0
ENDSEC
  0
SECTION
  2
TABLES
  0
TABLE
  2
LTYPE
 70
     9
  0
LTYPE
  2
CONTINUOUS
 70
    64
  3
実線
 72
    65
 73
     0
 40
0.0
  0
LTYPE
  2
DASHED1
 70
    64
  3
--  --  --  --  --  --  --  --  
 72
    65
 73
     2
 40
2.5
 49
1.25
 49
-1.25
  0
LTYPE
  2
DASHED2
 70
    64
  3
----    ----    ----    ----    
 72
    65
 73
     2
 40
5.0
 49
2.5
 49
-2.5
  0
LTYPE
  2
DASHED3
 70
    64
  3
------  ------  ------  ------  
 72
    65
 73
     2
 40
5.0
 49
3.75
 49
-1.25
  0
LTYPE
  2
CENTER1
 70
    64
  3
----- - ----- - ----- - ----- - 
 72
    65
 73
     4
 40
10.0
 49
6.25
 49
-1.25
 49
1.25
 49
-1.25
  0
LTYPE
  2
CENTER2
 70
    64
  3
----------  --  ----------  --  
 72
    65
 73
     4
 40
20.0
 49
12.5
 49
-2.5
 49
2.5
 49
-2.5
  0
LTYPE
  2
PHANTOM1
 70
    64
  3
--- - - --- - - --- - - --- - - 
 72
    65
 73
     6
 40
10.0
 49
3.25
 49
-1.25
 49
1.25
 49
-1.25
 49
1.25
 49
-1.25
  0
LTYPE
  2
PHANTOM2
 70
    64
  3
--------  -  -  --------  -  -  
 72
    65
 73
     6
 40
20.0
 49
10.0
 49
-2.5
 49
1.25
 49
-2.5
 49
1.25
 49
-2.5
  0
LTYPE
  2
DOT
 70
    64
  3
-   -   -   -   -   -   -   -   
 72
    65
 73
     2
 40
2.5
 49
0.625
 49
-1.875
  0
LTYPE
  2
DUMMY
 70
    64
  3
ダミー
 72
    65
 73
     0
 40
0.0
  0
LTYPE
  2
RAND1
 70
    64
  3
ランダム線1
 72
    65
 73
     4
 40
10.0
 49
1.0
 49
-2.0
 49
3.0
 49
-4.0
  0
LTYPE
  2
RAND2
 70
    64
  3
ランダム線2
 72
    65
 73
     4
 40
14.0
 49
2.0
 49
-3.0
 49
4.0
 49
-5.0
  0
LTYPE
  2
RAND3
 70
    64
  3
ランダム線3
 72
    65
 73
     4
 40
18.0
 49
3.0
 49
-4.0
 49
5.0
 49
-6.0
  0
LTYPE
  2
RAND4
 70
    64
  3
ランダム線4
 72
    65
 73
     4
 40
22.0
 49
4.0
 49
-5.0
 49
6.0
 49
-7.0
  0
LTYPE
  2
RAND5
 70
    64
  3
ランダム線5
 72
    65
 73
     4
 40
26.0
 49
5.0
 49
-6.0
 49
7.0
 49
-8.0
  0
LTYPE
  2
LONG1
 70
    64
  3
----------  --  ----------  --  
 72
    65
 73
     4
 40
40.0
 49
32.5
 49
-2.5
 49
2.5
 49
-2.5
  0
LTYPE
  2
LONG2
 70
    64
  3
--------  -  -  --------  -  -  
 72
    65
 73
     6
 40
40.0
 49
30.0
 49
-2.5
 49
1.25
 49
-2.5
 49
1.25
 49
-2.5
  0
LTYPE
  2
LONG3
 70
    64
  3
+++++++++++++++..+++++++++++++++
 72
    65
 73
     2
 40
40.0
 49
37.5
 49
-2.5
  0
LTYPE
  2
LONG4
 70
    64
  3
+++++++++++++++..+++++++++++++++
 72
    65
 73
     2
 40
80.0
 49
75.0
 49
-5.0
  0
LTYPE
  2
LONG5
 70
    64
  3
----------  --  ----------  --  
 72
    65
 73
     4
 40
60.0
 49
37.5
 49
-7.5
 49
7.5
 49
-7.5
  0
LTYPE
  2
dashed
 70
   64
  3
-------   -------------   ------
 72
   65
 73
    2
 40
7.5
 49
6
 49
-1.5
  0
LTYPE
  2
dashed_spaced
 70
   64
  3
----        --------        ----
 72
   65
 73
    2
 40
12
 49
6
 49
-6
  0
LTYPE
  2
long_dashed_dotted
 70
   64
  3
------------- --- --------------
 72
   65
 73
    4
 40
15.25
 49
12
 49
-1.5
 49
0.25
 49
-1.5
  0
LTYPE
  2
long_dashed_double-dotted
 70
   64
  3
----------- --- --- ------------
 72
   65
 73
    6
 40
17
 49
12
 49
-1.5
 49
0.25
 49
-1.5
 49
0.25
 49
-1.5
  0
LTYPE
  2
long_dashed_triplicate-dotted
 70
   64
  3
--------- --- --- --- ----------
 72
   65
 73
    8
 40
18.75
 49
12
 49
-1.5
 49
0.25
 49
-1.5
 49
0.25
 49
-1.5
 49
0.25
 49
-1.5
  0
LTYPE
  2
dotted
 70
   64
  3
   -       -       -       -    
 72
   65
 73
    2
 40
1.75
 49
0.25
 49
-1.5
  0
LTYPE
  2
chain
 70
   64
  3
-------------- -- --------------
 72
   65
 73
    4
 40
18.5
 49
12
 49
-1.5
 49
3.5
 49
-1.5
  0
LTYPE
  2
chain_double_dash
 70
   64
  3
------------ -- -- -------------
 72
   65
 73
    6
 40
23.5
 49
12
 49
-1.5
 49
3.5
 49
-1.5
 49
3.5
 49
-1.5
  0
LTYPE
  2
dashed_dotted
 70
   64
  3
-----------     -     ----------
 72
   65
 73
    4
 40
9.25
 49
6
 49
-1.5
 49
0.25
 49
-1.5
  0
LTYPE
  2
double-dashed_dotted
 70
   64
  3
------   -----------   -   -----
 72
   65
 73
    6
 40
16.75
 49
6
 49
-1.5
 49
6
 49
-1.5
 49
0.25
 49
-1.5
  0
LTYPE
  2
dashed_double-dotted
 70
   64
  3
---------    -    -    ---------
 72
   65
 73
    6
 40
11
 49
6
 49
-1.5
 49
0.25
 49
-1.5
 49
0.25
 49
-1.5
  0
LTYPE
  2
double-dashed_double-dotted
 70
   64
  3
-----   ---------   -   -   ----
 72
   65
 73
    8
 40
18.5
 49
6
 49
-1.5
 49
6
 49
-1.5
 49
0.25
 49
-1.5
 49
0.25
 49
-1.5
  0
LTYPE
  2
dashed_triplicate-dotted
 70
   64
  3
-------    -    -    -    ------
 72
   65
 73
    8
 40
12.75
 49
6
 49
-1.5
 49
0.25
 49
-1.5
 49
0.25
 49
-1.5
 49
0.25
 49
-1.5
  0
LTYPE
  2
double-dashed_triplicate-dotted
 70
   64
  3
-----  ---------  -  -  -  -----
 72
   65
 73
   10
 40
20.25
 49
6
 49
-1.5
 49
6
 49
-1.5
 49
0.25
 49
-1.5
 49
0.25
 49
-1.5
 49
0.25
 49
-1.5
  0
LTYPE
  2
undefined
 70
   64
  3
--------------------------------
 72
   65
 73
    0
 40
0
  0
ENDTAB
  0
TABLE
  2
STYLE
  5
3
100
AcDbSymbolTable
 70
     1
  0
STYLE
  5
10
100
AcDbSymbolTableRecord
100
AcDbTextStyleTableRecord
  2
STANDARD
 70
     0
 40
0.0
 41
1.0
 50
0.0
 71
     0
 42
0.2
  3
txt
  4
bigfont.shx
  0
STYLE
  5
26
100
AcDbSymbolTableRecord
100
AcDbTextStyleTableRecord
  2
TATEGAKI
 70
    68
 40
0.0
 41
1.0
 50
0.0
 71
     0
 42
1.0
  3
txt
  4
bigfont.shx
  0
ENDTAB
  0
TABLE
  2
LAYER
 70
    8
  0
LAYER
  2
_0-0_
 70
   64
 62
    7
  6
CONTINUOUS
  0
LAYER
  2
_1-0_
 70
   64
 62
    7
  6
CONTINUOUS
  0
LAYER
  2
_1-1_
 70
   64
 62
    7
  6
CONTINUOUS
  0
LAYER
  2
_1-2_
 70
   64
 62
    7
  6
CONTINUOUS
  0
LAYER
  2
_1-3_
 70
   64
 62
    7
  6
CONTINUOUS
  0
LAYER
  2
_1-4_
 70
   64
 62
    7
  6
CONTINUOUS
  0
LAYER
  2
_1-f_
 70
   64
 62
    7
  6
CONTINUOUS
  0
LAYER
  2
ADD_LINE
 70
   64
 62
    7
  6
CONTINUOUS
  0
ENDTAB
  0
ENDSEC
  0
SECTION
  2
BLOCKS
  0
ENDSEC
  0
SECTION
  2
ENTITIES
  0
LINE
  8
_0-0_
  6
CONTINUOUS
 62
    5
 10
6.7567526327597136
 20
280.13513513513516
 11
406.75677325274495
 21
280.13513513513516
  0
LINE
  8
_0-0_
  6
CONTINUOUS
 62
    5
 10
406.75677325274495
 20
10.13513513513513
 11
6.7567526327597136
 21
10.13513513513513
  0
LINE
  8
_0-0_
  6
CONTINUOUS
 62
    5
 10
371.75678150073907
 20
10.13513513513513
 11
371.75678150073907
 21
30.135133073136615
  0
LINE
  8
_0-0_
  6
CONTINUOUS
 62
    5
 10
137.02703939901818
 20
30.135133073136615
 11
137.02703939901818
 21
10.13513513513513
  0
LINE
  8
_0-0_
  6
CONTINUOUS
 62
    5
 10
214.86486486486487
 20
30.135133073136615
 11
214.86486486486487
 21
10.13513513513513
  0
LINE
  8
_0-0_
  6
CONTINUOUS
 62
    5
 10
137.02703939901818
 20
20.135134104135886
 11
214.86486486486487
 21
20.135134104135886
  0
LINE
  8
_0-0_
  6
CONTINUOUS
 62
    5
 10
396.48648648648651
 20
25.945945945945951
 11
383.91891891891896
 21
13.378379924877265
  0
LINE
  8
ADD_LINE
  6
DOT
 62
    5
 10
224.59459459459461
 20
33.243243243243242
 11
224.59459459459461
 21
4.8648644782401504
  0
LINE
  8
_1-0_
  6
CONTINUOUS
 62
    7
 10
135.8514404296875
 20
122.95946688265414
 11
365.04136369035052
 21
226.0949212151605
  0
LINE
  8
_1-0_
  6
CONTINUOUS
 62
    7
 10
136.26180700353675
 20
122.04753978832349
 11
365.45174263619089
 21
225.18300649282097
  0
LINE
  8
_1-0_
  6
CONTINUOUS
 62
    7
 10
160.08457080737966
 20
134.52232979439401
 11
158.60725609031886
 21
137.80523764120568
  0
LINE
  8
_1-0_
  6
CONTINUOUS
 62
    7
 10
158.60725609031886
 20
137.80523764120568
 11
162.98447892472552
 21
139.7749947212838
  0
LINE
  8
_1-0_
  6
CONTINUOUS
 62
    7
 10
162.98447892472552
 20
139.7749947212838
 11
164.46179364178633
 21
136.49207450248102
  0
LINE
  8
_1-0_
  6
CONTINUOUS
 62
    7
 10
164.46179364178633
 20
136.49207450248102
 11
160.08457080737966
 21
134.52232979439401
  0
LINE
  8
_1-0_
  6
CONTINUOUS
 62
    7
 10
158.60725609031886
 20
137.80523764120568
 11
164.46179364178633
 21
136.49207450248102
  0
LINE
  8
_1-1_
  6
CONTINUOUS
 62
    3
 10
104.40028010187923
 20
125.57420060441301
 11
105.72362538930533
 21
121.16867065429687
  0
LINE
  8
_1-1_
  6
CONTINUOUS
 62
    3
 10
106.184457314981
 20
121.7201769029772
 11
106.95062998178844
 21
121.95032068201014
  0
LINE
  8
_1-1_
  6
CONTINUOUS
 62
    3
 10
106.10672409470017
 20
121.28374254381335
 11
105.72362538930533
 21
121.16867065429687
  0
LINE
  8
_1-1_
  6
CONTINUOUS
 62
    3
 10
106.24073750263936
 20
121.53282784126901
 11
106.184457314981
 21
121.7201769029772
  0
LINE
  8
_1-1_
  6
CONTINUOUS
 62
    3
 10
107.00689779745566
 20
121.76297162030195
 11
106.95062998178844
 21
121.95032068201014
  0
LINE
  8
_1-1_
  6
CONTINUOUS
 62
    3
 10
107.44753863360431
 20
121.6865127151077
 11
107.25598309491133
 21
121.62897058435389
  0
LINE
  8
_1-1_
  6
CONTINUOUS
 62
    3
 10
107.35139589051943
 20
122.70177067937078
 11
107.58153966955237
 21
121.93558564057221
  0
LINE
  8
_1-1_
  6
CONTINUOUS
 62
    3
 10
164.00818695893159
 20
137.500094851932
 11
165.56152756149706
 21
137.96667975348396
  0
LINE
  8
_1-1_
  6
CONTINUOUS
 62
    3
 10
107.75341137035474
 20
123.44901419974663
 11
163.22380272117823
 21
140.11136441617398
  0
LINE
  8
_1-1_
  6
CONTINUOUS
 62
    3
 10
163.22380272117823
 20
140.11136441617398
 11
164.00818695893159
 21
137.500094851932
  0
LINE
  8
_1-1_
  6
CONTINUOUS
 62
    3
 10
104.40028010187923
 20
125.57420060441301
 11
161.9986291833826
 21
142.87576211465372
  0
LINE
  8
_1-1_
  6
CONTINUOUS
 62
    3
 10
161.9986291833826
 20
142.87576211465372
 11
161.82602753510346
 21
143.45040398675042
  0
LINE
  8
_1-1_
  6
CONTINUOUS
 62
    3
 10
163.74147157411318
 20
144.02577580632391
 11
165.56152756149706
 21
137.96667975348396
  0
LINE
  8
_1-1_
  6
CONTINUOUS
 62
    3
 10
161.82602753510346
 20
143.45040398675042
 11
163.74147157411318
 21
144.02577580632391
  0
LINE
  8
_1-1_
  6
CONTINUOUS
 62
    3
 10
163.91408559438347
 20
143.45113393422722
 11
163.74147157411318
 21
144.02577580632391
  0
LINE
  8
ADD_LINE
  6
DOT
 62
    7
 10
163.68328609982052
 20
137.35389503272805
 11
164.23307264173354
 21
136.13213616448479
  0
LINE
  8
_1-0_
  6
CONTINUOUS
 62
    7
 10
207.50448278478675
 20
155.8612802866343
 11
206.02716806772594
 21
159.14420050543708
  0
LINE
  8
_1-0_
  6
CONTINUOUS
 62
    7
 10
206.02716806772594
 20
159.14420050543708
 11
210.4043909021326
 21
161.11394521352409
  0
LINE
  8
_1-0_
  6
CONTINUOUS
 62
    7
 10
210.4043909021326
 20
161.11394521352409
 11
211.88170561919341
 21
157.8310249947213
  0
LINE
  8
_1-0_
  6
CONTINUOUS
 62
    7
 10
211.88170561919341
 20
157.8310249947213
 11
207.50448278478675
 21
155.8612802866343
  0
LINE
  8
_1-0_
  6
CONTINUOUS
 62
    7
 10
206.02716806772594
 20
159.14420050543708
 11
211.88170561919341
 21
157.8310249947213
  0
LINE
  8
_1-0_
  6
CONTINUOUS
 62
    7
 10
257.82430287953969
 20
182.4529080777555
 11
259.30161759660052
 21
179.16998785895271
  0
LINE
  8
_1-0_
  6
CONTINUOUS
 62
    7
 10
259.30161759660052
 20
179.16998785895271
 11
254.92438239020271
 21
177.20024315086573
  0
LINE
  8
_1-0_
  6
CONTINUOUS
 62
    7
 10
305.24421485694683
 20
203.79187094198693
 11
306.7215295740076
 21
200.50895072318414
  0
LINE
  8
_1-0_
  6
CONTINUOUS
 62
    7
 10
306.7215295740076
 20
200.50895072318414
 11
302.34429436760979
 21
198.53920601509714
  0
LINE
  8
_1-1_
  6
CONTINUOUS
 62
    7
 10
104.40028010187923
 20
125.57420060441301
 11
100.25762403333511
 21
139.36544469884925
  0
LINE
  8
_1-2_
  6
CONTINUOUS
 62
    3
 10
211.50294948268584
 20
158.87273427602409
 11
213.32249821843328
 21
159.48455398147172
  0
LINE
  8
ADD_LINE
  6
DOT
 62
    7
 10
209.84267776076859
 20
164.11699862093539
 11
209.66998950855154
 21
164.69192504882813
  0
LINE
  8
_1-2_
  6
CONTINUOUS
 62
    3
 10
209.66998950855154
 20
164.69192504882813
 11
209.84267776076859
 21
164.11699862093539
  0
LINE
  8
_1-2_
  6
CONTINUOUS
 62
    3
 10
210.70619325380068
 20
161.24229224952492
 11
211.50552285684122
 21
158.86507601351352
  0
LINE
  8
_1-2_
  6
CONTINUOUS
 62
    3
 10
154.88937377929687
 20
141.62777462521115
 11
155.64804901947846
 21
141.88288508234797
  0
LINE
  8
_1-2_
  6
CONTINUOUS
 62
    3
 10
156.82117359058279
 20
143.12356072503167
 11
210.70619325380068
 21
161.24229224952492
  0
LINE
  8
_1-2_
  6
CONTINUOUS
 62
    3
 10
155.78166652370143
 20
141.4380625131968
 11
155.64804901947846
 21
141.88288508234797
  0
LINE
  8
_1-2_
  6
CONTINUOUS
 62
    3
 10
155.02673999683279
 20
141.17046871700802
 11
154.88937377929687
 21
141.62777462521115
  0
LINE
  8
_1-2_
  6
CONTINUOUS
 62
    3
 10
156.51113149282097
 20
141.46546647355365
 11
156.03696256070523
 21
141.3060286238387
  0
LINE
  8
_1-2_
  6
CONTINUOUS
 62
    3
 10
156.63893416121201
 20
141.71257225242823
 11
156.43777795740075
 21
142.38224338840794
  0
LINE
  8
_1-2_
  6
CONTINUOUS
 62
    3
 10
154.4247560243349
 20
140.76392508841852
 11
154.89893732844172
 21
140.92336293813347
  0
LINE
  8
_1-2_
  6
CONTINUOUS
 62
    3
 10
154.16945998733109
 20
140.89595897777662
 11
152.94146563555745
 21
144.98407312341638
  0
LINE
  8
_1-2_
  6
CONTINUOUS
 62
    3
 10
209.66998950855154
 20
164.69192504882813
 11
211.56668998099664
 21
165.32970119167018
  0
LINE
  8
_1-2_
  6
CONTINUOUS
 62
    3
 10
213.32249821843328
 20
159.48455398147172
 11
211.56668998099664
 21
165.32970119167018
  0
LINE
  8
_1-2_
  6
CONTINUOUS
 62
    7
 10
152.94146563555745
 20
144.98407312341638
 11
148.35200129328547
 21
158.63312592377534
  0
LINE
  8
_1-1_
  6
CONTINUOUS
 62
    7
 10
100.25762403333511
 20
139.36544469884925
 11
149.82433009792018
 21
154.25444319441513
  0
LINE
  8
_1-1_
  6
CONTINUOUS
 62
    7
 10
163.74147157411318
 20
144.02577580632391
 11
163.35276835673565
 21
145.31979947476773
  0
LINE
  8
_1-1_
  6
CONTINUOUS
 62
    7
 10
103.70983639278928
 20
127.87274334881758
 11
153.58149348078547
 21
142.85334406672297
  0
LINE
  8
_1-0_
  6
CONTINUOUS
 62
    7
 10
257.82430287953969
 20
182.45289570576438
 11
259.30161759660052
 21
179.16997548696159
  0
LINE
  8
_1-0_
  6
CONTINUOUS
 62
    7
 10
259.30161759660052
 20
179.16997548696159
 11
254.92438239020271
 21
177.20023077887458
  0
LINE
  8
_1-2_
  6
CONTINUOUS
 62
    3
 10
258.91378041860219
 20
180.20835670264992
 11
260.72793496621625
 21
180.83602492873734
  0
LINE
  8
ADD_LINE
  6
DOT
 62
    7
 10
257.20783130542651
 20
185.43793549408784
 11
257.03009528082771
 21
186.01132779508023
  0
LINE
  8
_1-2_
  6
CONTINUOUS
 62
    3
 10
257.03009528082771
 20
186.01132779508023
 11
257.20783130542651
 21
185.43793549408784
  0
LINE
  8
_1-2_
  6
CONTINUOUS
 62
    3
 10
258.09638770850933
 20
182.57086264120568
 11
258.91642802470443
 21
180.2007108121305
  0
LINE
  8
_1-2_
  6
CONTINUOUS
 62
    3
 10
202.45286271378802
 20
162.47001441749367
 11
203.20924913561024
 21
162.73173151789484
  0
LINE
  8
_1-2_
  6
CONTINUOUS
 62
    3
 10
204.37154821447425
 20
163.98260168127112
 11
258.09638770850933
 21
182.57086264120568
  0
LINE
  8
_1-2_
  6
CONTINUOUS
 62
    3
 10
203.34676381703972
 20
162.28809665989232
 11
203.20924913561024
 21
162.73173151789484
  0
LINE
  8
_1-2_
  6
CONTINUOUS
 62
    3
 10
202.59421271246833
 20
162.01392096442146
 11
202.45286271378802
 21
162.47001441749367
  0
LINE
  8
_1-2_
  6
CONTINUOUS
 62
    3
 10
204.07595660235432
 20
162.32185982369089
 11
203.60321044921875
 21
162.1582773569468
  0
LINE
  8
_1-2_
  6
CONTINUOUS
 62
    3
 10
204.20159417229732
 20
162.5700667097762
 11
203.99461076066302
 21
163.23795627903294
  0
LINE
  8
_1-2_
  6
CONTINUOUS
 62
    3
 10
201.99579187341641
 20
161.60213161159206
 11
202.46856277053422
 21
161.76571407833615
  0
LINE
  8
_1-2_
  6
CONTINUOUS
 62
    3
 10
257.20783130542651
 20
185.43793549408784
 11
200.47573192699537
 21
165.80917770798143
  0
LINE
  8
_1-2_
  6
CONTINUOUS
 62
    3
 10
201.73935761322846
 20
161.73193854254646
 11
200.47573192699537
 21
165.80917770798143
  0
LINE
  8
_1-2_
  6
CONTINUOUS
 62
    3
 10
260.72793496621625
 20
180.83602492873734
 11
258.92117886929901
 21
186.66563291807432
  0
LINE
  8
_1-2_
  6
CONTINUOUS
 62
    7
 10
200.47573192699537
 20
165.80917770798143
 11
195.76732326198271
 21
179.41765037742823
  0
LINE
  8
_1-2_
  6
CONTINUOUS
 62
    7
 10
197.40142822265625
 20
175.12590562975086
 11
148.35200129328547
 21
158.63312592377534
  0
LINE
  8
_1-2_
  6
CONTINUOUS
 62
    7
 10
201.14222346125425
 20
163.72353218697214
 11
152.17655491184544
 21
147.2589111328125
  0
LINE
  8
_1-2_
  6
CONTINUOUS
 62
    3
 10
209.84267776076859
 20
164.11699862093539
 11
152.94146563555745
 21
144.98407312341638
  0
LINE
  8
_1-0_
  6
CONTINUOUS
 62
    7
 10
254.92438239020271
 20
177.20024315086573
 11
253.46421525285052
 21
180.44509475295609
  0
LINE
  8
_1-0_
  6
CONTINUOUS
 62
    7
 10
254.92438239020271
 20
177.20023077887458
 11
253.46419050886826
 21
180.44508238096495
  0
LINE
  8
_1-0_
  6
CONTINUOUS
 62
    7
 10
253.46421525285052
 20
180.44509475295609
 11
259.30161759660052
 21
179.16998785895271
  0
LINE
  8
_1-2_
  6
CONTINUOUS
 62
    7
 10
211.56668998099664
 20
165.32970119167018
 11
211.22262490762247
 21
166.35300095016893
  0
LINE
  8
_1-0_
  6
CONTINUOUS
 62
    7
 10
209.66998950855154
 20
164.69192504882813
 11
209.36417863175677
 21
165.71000382706927
  0
LINE
  8
_1-0_
  6
CONTINUOUS
 62
    7
 10
305.24421485694683
 20
203.79187094198693
 11
306.7215295740076
 21
200.50895072318414
  0
LINE
  8
_1-0_
  6
CONTINUOUS
 62
    7
 10
306.7215295740076
 20
200.50895072318414
 11
302.34429436760979
 21
198.53920601509714
  0
LINE
  8
_1-0_
  6
CONTINUOUS
 62
    7
 10
305.24421485694683
 20
203.79185856999578
 11
306.7215295740076
 21
200.508938351193
  0
LINE
  8
_1-0_
  6
CONTINUOUS
 62
    7
 10
306.7215295740076
 20
200.508938351193
 11
302.34429436760979
 21
198.53919364310602
  0
LINE
  8
_1-2_
  6
CONTINUOUS
 62
    3
 10
306.33369239600933
 20
201.54731956688136
 11
308.14784694362334
 21
202.17498779296875
  0
LINE
  8
ADD_LINE
  6
DOT
 62
    7
 10
304.62774328283365
 20
206.77689835831927
 11
304.45000725823479
 21
207.35029065931167
  0
LINE
  8
_1-2_
  6
CONTINUOUS
 62
    3
 10
304.45000725823479
 20
207.35029065931167
 11
304.62774328283365
 21
206.77689835831927
  0
LINE
  8
_1-2_
  6
CONTINUOUS
 62
    3
 10
305.51629968591641
 20
203.90982550543708
 11
306.33634000211151
 21
201.53967367636193
  0
LINE
  8
_1-2_
  6
CONTINUOUS
 62
    3
 10
249.8727746911951
 20
183.80897728172511
 11
250.62917348500847
 21
184.07069438212628
  0
LINE
  8
_1-2_
  6
CONTINUOUS
 62
    3
 10
251.79144781989021
 20
185.32156454550255
 11
305.51629968591641
 21
203.90982550543708
  0
LINE
  8
_1-2_
  6
CONTINUOUS
 62
    3
 10
250.7666757944468
 20
183.62705952412375
 11
250.62917348500847
 21
184.07069438212628
  0
LINE
  8
_1-2_
  6
CONTINUOUS
 62
    3
 10
250.01413706186656
 20
183.35288382865289
 11
249.8727746911951
 21
183.80897728172511
  0
LINE
  8
_1-2_
  6
CONTINUOUS
 62
    3
 10
251.49585620777029
 20
183.66082268792232
 11
251.02312242662586
 21
183.49724022117823
  0
LINE
  8
_1-2_
  6
CONTINUOUS
 62
    3
 10
251.6215061497044
 20
183.9090295740076
 11
251.4145227380701
 21
184.57691914326438
  0
LINE
  8
_1-2_
  6
CONTINUOUS
 62
    3
 10
249.41570385082349
 20
182.94109447582349
 11
249.88848711993245
 21
183.10467694256758
  0
LINE
  8
_1-2_
  6
CONTINUOUS
 62
    3
 10
249.15928196262669
 20
183.07090140677789
 11
247.89565627639359
 21
187.14814057221284
  0
LINE
  8
_1-2_
  6
CONTINUOUS
 62
    3
 10
308.14784694362334
 20
202.17498779296875
 11
306.34109084670609
 21
208.00459578230576
  0
LINE
  8
_1-2_
  6
CONTINUOUS
 62
    7
 10
247.89565627639359
 20
187.14814057221284
 11
243.18722286739867
 21
200.75661324165964
  0
LINE
  8
_1-0_
  6
CONTINUOUS
 62
    7
 10
302.34429436760979
 20
198.53920601509714
 11
300.8841272302576
 21
201.7840576171875
  0
LINE
  8
_1-0_
  6
CONTINUOUS
 62
    7
 10
302.34429436760979
 20
198.53919364310602
 11
300.88410248627537
 21
201.78404524519638
  0
LINE
  8
_1-0_
  6
CONTINUOUS
 62
    7
 10
300.88410248627537
 20
201.78404524519638
 11
305.21563555743245
 21
203.77884323532518
  0
LINE
  8
_1-0_
  6
CONTINUOUS
 62
    7
 10
300.8841272302576
 20
201.7840576171875
 11
306.7215295740076
 21
200.50895072318414
  0
LINE
  8
_1-0_
  6
CONTINUOUS
 62
    7
 10
352.66415157833615
 20
225.13084617820948
 11
354.14146629539698
 21
221.84791358741555
  0
LINE
  8
_1-0_
  6
CONTINUOUS
 62
    7
 10
354.14146629539698
 20
221.84791358741555
 11
349.76423108899917
 21
219.87816887932857
  0
LINE
  8
_1-0_
  6
CONTINUOUS
 62
    7
 10
352.66415157833615
 20
225.13082143422722
 11
354.14146629539698
 21
221.84791358741555
  0
LINE
  8
ADD_LINE
  6
DOT
 62
    7
 10
355.56778366501271
 20
223.51395065720018
 11
352.12715767525339
 21
234.61551150760135
  0
LINE
  8
_1-2_
  6
CONTINUOUS
 62
    3
 10
353.75362911739865
 20
222.88627005912164
 11
355.56778366501271
 21
223.51395065720018
  0
LINE
  8
ADD_LINE
  6
DOT
 62
    7
 10
352.04768000422297
 20
228.11586122255068
 11
351.86994397962417
 21
228.6892535235431
  0
LINE
  8
_1-2_
  6
CONTINUOUS
 62
    3
 10
351.86994397962417
 20
228.6892535235431
 11
352.04768000422297
 21
228.11586122255068
  0
LINE
  8
_1-2_
  6
CONTINUOUS
 62
    3
 10
352.93623640730578
 20
225.24877599767737
 11
353.75627672350089
 21
222.87864891258448
  0
LINE
  8
_1-2_
  6
CONTINUOUS
 62
    3
 10
297.29271141258448
 20
205.14794014595651
 11
298.04908546241558
 21
205.40965724635771
  0
LINE
  8
_1-2_
  6
CONTINUOUS
 62
    3
 10
299.21140928526182
 20
206.66052740973396
 11
352.93623640730578
 21
225.24877599767737
  0
LINE
  8
_1-2_
  6
CONTINUOUS
 62
    3
 10
298.18661251583615
 20
204.96602238835516
 11
298.04908546241558
 21
205.40965724635771
  0
LINE
  8
_1-2_
  6
CONTINUOUS
 62
    3
 10
297.43404903927365
 20
204.6918466928843
 11
297.29271141258448
 21
205.14794014595651
  0
LINE
  8
_1-2_
  6
CONTINUOUS
 62
    3
 10
298.91581767314193
 20
204.99978555215372
 11
298.44305914801521
 21
204.83620308540964
  0
LINE
  8
_1-2_
  6
CONTINUOUS
 62
    3
 10
299.04144287109375
 20
205.24799243823904
 11
298.83445945945948
 21
205.91588200749578
  0
LINE
  8
_1-2_
  6
CONTINUOUS
 62
    3
 10
296.83564057221287
 20
204.28005734005492
 11
297.30839909733953
 21
204.44363980679898
  0
LINE
  8
_1-2_
  6
CONTINUOUS
 62
    3
 10
352.04768000422297
 20
228.11586122255068
 11
295.31556825380068
 21
208.48710343644427
  0
LINE
  8
_1-2_
  6
CONTINUOUS
 62
    3
 10
296.5791939400338
 20
204.4098642710093
 11
295.31556825380068
 21
208.48710343644427
  0
LINE
  8
_1-2_
  6
CONTINUOUS
 62
    3
 10
351.86994397962417
 20
228.6892535235431
 11
353.76102756809547
 21
229.34355864653716
  0
LINE
  8
_1-2_
  6
CONTINUOUS
 62
    3
 10
355.56778366501271
 20
223.51395065720018
 11
353.76102756809547
 21
229.34355864653716
  0
LINE
  8
_1-2_
  6
CONTINUOUS
 62
    7
 10
295.31556825380068
 20
208.48710343644427
 11
290.60718433277026
 21
222.09557610589107
  0
LINE
  8
_1-2_
  6
CONTINUOUS
 62
    7
 10
349.24878919446792
 20
242.38502296241555
 11
290.60718433277026
 21
222.09557610589107
  0
LINE
  8
_1-2_
  6
CONTINUOUS
 62
    7
 10
353.76102756809547
 20
229.34355864653716
 11
349.24878919446792
 21
242.38502296241555
  0
LINE
  8
_1-2_
  6
CONTINUOUS
 62
    7
 10
353.22789372624578
 20
231.06380978146117
 11
294.53083760029563
 21
210.75518633868245
  0
LINE
  8
_1-0_
  6
CONTINUOUS
 62
    7
 10
349.76423108899917
 20
219.87816887932857
 11
348.30406395164698
 21
223.12302048141893
  0
LINE
  8
_1-0_
  6
CONTINUOUS
 62
    7
 10
349.76423108899917
 20
219.8781441353463
 11
348.30403920766474
 21
223.12302048141893
  0
LINE
  8
_1-0_
  6
CONTINUOUS
 62
    7
 10
348.30406395164698
 20
223.12302048141893
 11
354.14146629539698
 21
221.84791358741555
  0
LINE
  8
_1-2_
  6
CONTINUOUS
 62
    7
 10
244.711254222973
 20
196.35178849503802
 11
195.76732326198271
 21
179.41765037742823
  0
LINE
  8
_1-2_
  6
CONTINUOUS
 62
    7
 10
258.92117886929901
 20
186.66563291807432
 11
258.57424349398229
 21
187.6683333113387
  0
LINE
  8
_1-2_
  6
CONTINUOUS
 62
    3
 10
257.03009528082771
 20
186.01132779508023
 11
258.92120361328125
 21
186.66563291807432
  0
LINE
  8
ADD_LINE
  6
DOT
 62
    7
 10
260.72793496621625
 20
180.83602492873734
 11
258.92120361328125
 21
186.66563291807432
  0
LINE
  8
_1-2_
  6
CONTINUOUS
 62
    7
 10
257.03009528082771
 20
186.01132779508023
 11
256.71582196209886
 21
187.02534856023016
  0
LINE
  8
_1-2_
  6
CONTINUOUS
 62
    7
 10
248.5653521563556
 20
184.98731046109586
 11
199.69100127349029
 21
168.07726061021961
  0
LINE
  8
ADD_LINE
  6
DOT
 62
    7
 10
308.14784694362334
 20
202.17498779296875
 11
306.34111559068839
 21
208.00459578230576
  0
LINE
  8
_1-2_
  6
CONTINUOUS
 62
    3
 10
304.45000725823479
 20
207.35029065931167
 11
306.34111559068839
 21
208.00459578230576
  0
LINE
  8
_1-2_
  6
CONTINUOUS
 62
    7
 10
292.13119094436234
 20
217.69075135926943
 11
243.18722286739867
 21
200.75661324165964
  0
LINE
  8
_1-2_
  6
CONTINUOUS
 62
    7
 10
306.34109084670609
 20
208.00459578230576
 11
305.99415547138938
 21
209.0072961755701
  0
LINE
  8
_1-2_
  6
CONTINUOUS
 62
    7
 10
295.98526413376271
 20
206.32628569731841
 11
247.11092562288852
 21
189.41622347445102
  0
LINE
  8
_1-0_
  6
CONTINUOUS
 62
    7
 10
348.30403920766474
 20
223.12302048141893
 11
352.66407734638938
 21
225.13094515413852
  0
LINE
  8
_1-0_
  6
CONTINUOUS
 62
    7
 10
352.66407734638938
 20
225.13094515413852
 11
354.14144155141474
 21
221.84791358741555
  0
LINE
  8
_1-0_
  6
CONTINUOUS
 62
    7
 10
354.14144155141474
 20
221.84791358741555
 11
349.78642644108953
 21
219.88816544816302
  0
LINE
  8
_1-0_
  6
CONTINUOUS
 62
    7
 10
349.78642644108953
 20
219.88816544816302
 11
349.76420634501693
 21
219.87816887932857
  0
LINE
  8
_1-0_
  6
CONTINUOUS
 62
    7
 10
135.60522543417443
 20
123.50661819045609
 11
349.78914827913854
 21
219.88937790329393
  0
LINE
  8
_1-0_
  6
CONTINUOUS
 62
    7
 10
349.78914827913854
 20
219.88937790329393
 11
364.7951363228463
 21
226.6420601509713
  0
LINE
  8
_1-0_
  6
CONTINUOUS
 62
    7
 10
253.46419050886826
 20
180.44508238096495
 11
257.82427813555745
 21
182.45301942567568
  0
LINE
  8
_1-3_
  6
CONTINUOUS
 62
    7
 10
75.834478429845859
 20
188.0984826990076
 11
123.27412373310811
 21
209.44632865287164
  0
LINE
  8
_1-3_
  6
CONTINUOUS
 62
    7
 10
91.035919189453125
 20
154.31751560520482
 11
75.834478429845859
 21
188.0984826990076
  0
LINE
  8
_1-3_
  6
CONTINUOUS
 62
    7
 10
138.47556449271539
 20
175.66536155906886
 11
123.27412373310811
 21
209.44632865287164
  0
LINE
  8
_1-3_
  6
CONTINUOUS
 62
    7
 10
123.27412373310811
 20
209.44632865287164
 11
170.61124234586148
 21
230.74802707981419
  0
LINE
  8
_1-3_
  6
CONTINUOUS
 62
    7
 10
185.81267073347763
 20
196.96705998601141
 11
170.61122997387037
 21
230.74802707981419
  0
LINE
  8
_1-3_
  6
CONTINUOUS
 62
    7
 10
170.61124234586148
 20
230.74802707981419
 11
218.09009448902029
 21
252.11351549303211
  0
LINE
  8
_1-3_
  6
CONTINUOUS
 62
    7
 10
233.29153524862755
 20
218.33256077122044
 11
218.09009448902029
 21
252.11351549303211
  0
LINE
  8
_1-3_
  6
CONTINUOUS
 62
    7
 10
218.09009448902029
 20
252.11351549303211
 11
265.4660611539274
 21
273.432707915435
  0
LINE
  8
_1-3_
  6
CONTINUOUS
 62
    7
 10
280.66750191353464
 20
239.65172844964107
 11
265.4660611539274
 21
273.432707915435
  0
LINE
  8
_1-3_
  6
CONTINUOUS
 62
    7
 10
190.98462079022383
 20
56.63568445154138
 11
195.03676955764359
 21
56.63568445154138
  0
LINE
  8
_1-3_
  6
CONTINUOUS
 62
    7
 10
195.03676955764359
 20
62.407812170080234
 11
188.88373297614021
 21
62.407812170080234
  0
LINE
  8
_1-3_
  6
CONTINUOUS
 62
    7
 10
195.03676955764359
 20
68.578689162795612
 11
186.63772170608109
 21
68.578689162795612
  0
LINE
  8
_1-3_
  6
CONTINUOUS
 62
    7
 10
195.03676955764359
 20
74.521005991342903
 11
184.4748997043919
 21
74.521005991342903
  0
LINE
  8
_1-3_
  6
CONTINUOUS
 62
    7
 10
195.03676955764359
 20
80.920418404244089
 11
182.14569916596284
 21
80.920418404244089
  0
LINE
  8
_1-3_
  6
CONTINUOUS
 62
    7
 10
234.00188549144849
 20
186.83397860140414
 11
223.85551658836573
 21
214.71085831925677
  0
LINE
  8
_1-3_
  6
CONTINUOUS
 62
    7
 10
223.85551658836573
 20
214.71085831925677
 11
222.58164689347552
 21
214.71085831925677
  0
LINE
  8
_1-0_
  6
CONTINUOUS
 62
    3
 10
138.83338722022805
 20
114.87069619668497
 11
139.19817537874789
 21
115.03484777502112
  0
LINE
  8
_1-0_
  6
CONTINUOUS
 62
    3
 10
144.12254952095651
 20
104.091796875
 11
143.75777373442779
 21
103.92764529666385
  0
LINE
  8
_1-0_
  6
CONTINUOUS
 62
    3
 10
136.44415778082771
 20
117.74324984163852
 11
129.87836683118667
 21
114.78864515149917
  0
LINE
  8
_1-0_
  6
CONTINUOUS
 62
    3
 10
137.76643907701649
 20
117.2416893211571
 11
138.83338722022805
 21
114.87069619668497
  0
LINE
  8
_1-0_
  6
CONTINUOUS
 62
    3
 10
137.96707565720018
 20
117.77060431403083
 11
139.19817537874789
 21
115.03484777502112
  0
LINE
  8
_1-0_
  6
CONTINUOUS
 62
    3
 10
136.64478198902029
 20
118.27216483451225
 11
129.3494394663218
 21
114.9892569877006
  0
LINE
  8
_1-0_
  6
CONTINUOUS
 62
    3
 10
144.82472187763938
 20
101.55664598619616
 11
143.75777373442779
 21
103.92764529666385
  0
LINE
  8
_1-0_
  6
CONTINUOUS
 62
    3
 10
145.35364924250422
 20
101.35602796399917
 11
144.12254952095651
 21
104.091796875
  0
LINE
  8
_1-0_
  6
CONTINUOUS
 62
    3
 10
137.7573704075169
 20
97.279753813872475
 11
144.32316135715794
 21
100.23435850401182
  0
LINE
  8
_1-0_
  6
CONTINUOUS
 62
    3
 10
136.43507673933701
 20
97.781301962362761
 11
129.37680631070523
 21
113.46635148331926
  0
LINE
  8
_1-0_
  6
CONTINUOUS
 62
    3
 10
136.23445253114443
 20
97.252386969489024
 11
128.84787894584039
 21
113.6669633195207
  0
LINE
  8
_1-0_
  6
CONTINUOUS
 62
    3
 10
137.5567338273332
 20
96.750832635003178
 11
144.85208872202281
 21
100.03374666781039
  0
LINE
  8
ADD_LINE
  6
DOT
 62
    3
 10
129.3494394663218
 20
114.9892569877006
 11
128.07433257231841
 21
114.41545641100085
  0
LINE
  8
ADD_LINE
  6
DOT
 62
    3
 10
128.84787894584039
 20
113.6669633195207
 11
128.2277081463788
 21
115.04510415566935
  0
LINE
  8
ADD_LINE
  6
DOT
 62
    3
 10
137.5567338273332
 20
96.750832635003178
 11
135.82472930083404
 21
95.971428123680326
  0
LINE
  8
ADD_LINE
  6
DOT
 62
    3
 10
136.23445253114443
 20
97.252386969489024
 11
136.82196127401818
 21
95.946795489336992
  0
LINE
  8
_1-0_
  6
CONTINUOUS
 62
    3
 10
301.15396035684125
 20
192.30095115867823
 11
293.85861783414276
 21
189.01804331186656
  0
LINE
  8
ADD_LINE
  6
DOT
 62
    3
 10
302.06592456714526
 20
170.77962514516472
 11
300.33389529666385
 21
170.0002144478463
  0
LINE
  8
_1-1_
  6
CONTINUOUS
 62
    7
 10
128.43751237199115
 20
114.57889041385135
 11
138.28622354043497
 21
92.692763869826862
  0
LINE
  8
_1-3_
  6
CONTINUOUS
 62
    7
 10
180.2635481550887
 20
86.091589025548984
 11
190.98462079022383
 21
56.63568445154138
  0
LINE
  8
_1-3_
  6
CONTINUOUS
 62
    7
 10
142.88228215398016
 20
82.479239798880911
 11
146.16519000079182
 21
75.183860160209036
  0
LINE
  8
_1-3_
  6
CONTINUOUS
 62
    3
 10
301.46251781566724
 20
115.67915632918076
 11
290.06348481049412
 21
110.54960508604309
  0
LINE
  8
_1-3_
  6
CONTINUOUS
 62
    3
 10
269.54525509396115
 20
156.14566287478885
 11
280.94426335515203
 21
161.27521411792654
  0
LINE
  8
_1-3_
  6
CONTINUOUS
 62
    3
 10
270.03768508498734
 20
155.05136025918497
 11
269.54525509396115
 21
156.14566287478885
  0
LINE
  8
_1-3_
  6
CONTINUOUS
 62
    3
 10
289.57105481946792
 20
111.64390770164697
 11
290.06348481049412
 21
110.54960508604309
  0
LINE
  8
_1-3_
  6
CONTINUOUS
 62
    3
 10
280.40623020481422
 20
159.05925441432643
 11
270.8310513883024
 21
154.75042394689612
  0
LINE
  8
_1-3_
  6
CONTINUOUS
 62
    3
 10
299.44716994826859
 20
116.74610447239232
 11
289.87199113175677
 21
112.43727400496201
  0
LINE
  8
_1-3_
  6
CONTINUOUS
 62
    3
 10
299.84841836465375
 20
117.80393445813979
 11
281.46406019056167
 21
158.6580059979413
  0
LINE
  8
_1-3_
  6
CONTINUOUS
 62
    3
 10
301.46251781566724
 20
115.67915632918076
 11
312.86152607685813
 21
120.80870757231843
  0
LINE
  8
_1-3_
  6
CONTINUOUS
 62
    3
 10
292.34327161634292
 20
166.40477773305534
 11
280.94426335515203
 21
161.27521411792654
  0
LINE
  8
_1-3_
  6
CONTINUOUS
 62
    3
 10
292.83570160736912
 20
165.31047511745143
 11
292.34327161634292
 21
166.40477773305534
  0
LINE
  8
_1-3_
  6
CONTINUOUS
 62
    3
 10
312.36907134184969
 20
121.90302255991344
 11
312.86152607685813
 21
120.80870757231843
  0
LINE
  8
_1-3_
  6
CONTINUOUS
 62
    3
 10
282.95961122255068
 20
160.20826597471495
 11
292.5347900390625
 21
164.51709644214529
  0
LINE
  8
_1-3_
  6
CONTINUOUS
 62
    3
 10
302.00052622202281
 20
117.89512840477197
 11
311.57570503853464
 21
122.20395887220229
  0
LINE
  8
_1-3_
  6
CONTINUOUS
 62
    3
 10
300.94269623627537
 20
118.29636444916596
 11
282.55836280616558
 21
159.1504359889675
  0
LINE
  8
_1-4_
  6
CONTINUOUS
 62
    7
 10
161.60805779534419
 20
137.3471399255701
 11
180.2635481550887
 21
86.091589025548984
  0
LINE
  8
_1-4_
  6
CONTINUOUS
 62
    7
 10
137.57957252296242
 20
83.55968578441724
 11
127.12824641047298
 21
54.84490678117082
  0
LINE
  8
_1-4_
  6
CONTINUOUS
 62
    4
 10
365.51239013671875
 20
221.26256994298987
 11
366.68723441459036
 21
222.43743896484375
  0
LINE
  8
_1-4_
  6
CONTINUOUS
 62
    4
 10
360.36977407094599
 20
218.94841374577703
 11
365.80944164379224
 21
224.38808131862334
  0
LINE
  8
_1-4_
  6
CONTINUOUS
 62
    4
 10
355.22715800517318
 20
216.63423280458193
 11
362.40481814822635
 21
223.81189294763516
  0
LINE
  8
_1-4_
  6
CONTINUOUS
 62
    4
 10
350.0845914273649
 20
214.32007660736909
 11
357.26227631440037
 21
221.49773675042232
  0
LINE
  8
_1-4_
  6
CONTINUOUS
 62
    4
 10
344.94197536159209
 20
212.00589566617398
 11
352.11963550464532
 21
219.18355580922722
  0
LINE
  8
_1-4_
  6
CONTINUOUS
 62
    4
 10
339.7994087837838
 20
209.69173946896117
 11
346.97706892683703
 21
216.86939961201438
  0
LINE
  8
_1-4_
  6
CONTINUOUS
 62
    4
 10
334.65679271801099
 20
207.37757089975719
 11
341.83445286106422
 21
214.55521867081927
  0
LINE
  8
_1-4_
  6
CONTINUOUS
 62
    4
 10
329.51422614020271
 20
205.06340233055323
 11
336.69186153927365
 21
212.24106247360643
  0
LINE
  8
_1-4_
  6
CONTINUOUS
 62
    4
 10
324.3716100744299
 20
202.74923376134925
 11
331.54924547350089
 21
209.92688153241133
  0
LINE
  8
_1-4_
  6
CONTINUOUS
 62
    4
 10
319.22899400865714
 20
200.43506519214529
 11
326.40665415171031
 21
207.61272533519849
  0
LINE
  8
_1-4_
  6
CONTINUOUS
 62
    4
 10
314.08640268686656
 20
198.1208966229413
 11
321.26408757390203
 21
205.29856913798565
  0
LINE
  8
_1-4_
  6
CONTINUOUS
 62
    4
 10
308.94383610905828
 20
195.80674042572846
 11
316.12149625211151
 21
202.98440056878169
  0
LINE
  8
_1-4_
  6
CONTINUOUS
 62
    4
 10
303.80122004328547
 20
193.49257185652451
 11
310.9788801863387
 21
200.67021962758659
  0
LINE
  8
_1-4_
  6
CONTINUOUS
 62
    4
 10
298.65862872149495
 20
191.1783909153294
 11
305.83628886454818
 21
198.3560510583826
  0
LINE
  8
_1-4_
  6
CONTINUOUS
 62
    4
 10
293.51603739970443
 20
188.86422234612544
 11
300.69367279877537
 21
196.04188248917865
  0
LINE
  8
_1-4_
  6
CONTINUOUS
 62
    4
 10
288.37344607791385
 20
186.55005377692146
 11
295.55108147698479
 21
193.72771391997466
  0
LINE
  8
_1-4_
  6
CONTINUOUS
 62
    4
 10
283.2308052681588
 20
184.23587283572635
 11
290.40849015519427
 21
191.4135453507707
  0
LINE
  8
_1-4_
  6
CONTINUOUS
 62
    4
 10
278.08823869035052
 20
181.92171663851352
 11
285.26589883340375
 21
189.09937678156675
  0
LINE
  8
_1-4_
  6
CONTINUOUS
 62
    4
 10
272.94567211254224
 20
179.60756044130068
 11
280.12330751161318
 21
186.78522058435391
  0
LINE
  8
_1-4_
  6
CONTINUOUS
 62
    4
 10
267.80308079075172
 20
177.29339187209672
 11
274.98071618982266
 21
184.4710396431588
  0
LINE
  8
_1-4_
  6
CONTINUOUS
 62
    4
 10
262.66046472497891
 20
174.97922330289273
 11
269.83810012404984
 21
182.15687107395482
  0
LINE
  8
_1-4_
  6
CONTINUOUS
 62
    4
 10
257.51787340318833
 20
172.6650671056799
 11
264.69550880225933
 21
179.84270250475086
  0
LINE
  8
_1-4_
  6
CONTINUOUS
 62
    4
 10
252.37525733741555
 20
170.35088616448482
 11
259.55289273648651
 21
177.52853393554687
  0
LINE
  8
_1-4_
  6
CONTINUOUS
 62
    4
 10
247.232666015625
 20
168.03671759528083
 11
254.4103509026605
 21
175.21437773833404
  0
LINE
  8
_1-4_
  6
CONTINUOUS
 62
    4
 10
242.09007469383448
 20
165.72254902607688
 11
249.26771009290542
 21
172.90020916913008
  0
LINE
  8
_1-4_
  6
CONTINUOUS
 62
    4
 10
236.9475081160262
 20
163.40839282886404
 11
244.12514351509714
 21
170.58604059992609
  0
LINE
  8
_1-4_
  6
CONTINUOUS
 62
    4
 10
231.80491679423565
 20
161.09422425966005
 11
238.98252744932435
 21
168.27187203072214
  0
LINE
  8
_1-4_
  6
CONTINUOUS
 62
    4
 10
226.66230072846284
 20
158.78005569045609
 11
233.8399361275338
 21
165.95769108952703
  0
LINE
  8
_1-4_
  6
CONTINUOUS
 62
    4
 10
221.51970940667232
 20
156.46588712125211
 11
228.69734480574326
 21
163.64353489231419
  0
LINE
  8
_1-4_
  6
CONTINUOUS
 62
    4
 10
216.37711808488177
 20
154.15171855204815
 11
223.55475348395271
 21
161.32936632311024
  0
LINE
  8
_1-4_
  6
CONTINUOUS
 62
    4
 10
211.23450201910896
 20
151.83753761085305
 11
218.41216216216216
 21
159.01519775390625
  0
LINE
  8
_1-4_
  6
CONTINUOUS
 62
    4
 10
206.09193544130068
 20
149.52338141364021
 11
213.26957084037164
 21
156.70104155669341
  0
LINE
  8
_1-4_
  6
CONTINUOUS
 62
    4
 10
200.94931937552789
 20
147.20921284443625
 11
208.12697951858109
 21
154.38686061549831
  0
LINE
  8
_1-4_
  6
CONTINUOUS
 62
    4
 10
195.8067156817462
 20
144.89504427523227
 11
202.98436345280828
 21
152.07269204629435
  0
LINE
  8
_1-4_
  6
CONTINUOUS
 62
    4
 10
190.6641367319468
 20
142.58087570602831
 11
197.84177213101773
 21
149.75852347709039
  0
LINE
  8
_1-4_
  6
CONTINUOUS
 62
    4
 10
185.52153303816513
 20
140.26670713682432
 11
192.69916843723607
 21
147.44435490788641
  0
LINE
  8
_1-4_
  6
CONTINUOUS
 62
    4
 10
180.37892934438347
 20
137.95253856762037
 11
187.5565647434544
 21
145.13018633868245
  0
LINE
  8
_1-4_
  6
CONTINUOUS
 62
    4
 10
175.23633802259292
 20
135.63836999841638
 11
182.41397342166385
 21
142.81603014146961
  0
LINE
  8
_1-4_
  6
CONTINUOUS
 62
    4
 10
170.09375907279352
 20
133.32421380120354
 11
177.27139447186445
 21
140.50184920027451
  0
LINE
  8
_1-4_
  6
CONTINUOUS
 62
    4
 10
164.95115537901182
 20
131.01003286000847
 11
172.12879077808279
 21
138.18769300306167
  0
LINE
  8
_1-4_
  6
CONTINUOUS
 62
    4
 10
159.80855168523016
 20
128.69586429080448
 11
166.98619945629224
 21
135.87351206186656
  0
LINE
  8
_1-4_
  6
CONTINUOUS
 62
    4
 10
154.66597273543076
 20
126.38170809359164
 11
161.84360813450169
 21
133.55935586465372
  0
LINE
  8
_1-4_
  6
CONTINUOUS
 62
    4
 10
149.52335666965794
 20
124.06752715239655
 11
156.70099206872888
 21
131.24517492345862
  0
LINE
  8
_1-4_
  6
CONTINUOUS
 62
    4
 10
144.38077771985854
 20
121.75337095518371
 11
151.55842549092063
 21
128.93101872624578
  0
LINE
  8
_1-4_
  6
CONTINUOUS
 62
    4
 10
139.238186398068
 20
119.43920238597974
 11
146.41583416913008
 21
126.61686252903294
  0
LINE
  8
_1-4_
  6
CONTINUOUS
 62
    4
 10
137.5761702254012
 20
122.63901994035051
 11
140.29875059385557
 21
119.91646431587839
  0
LINE
  8
_1-4_
  6
CONTINUOUS
 62
    4
 10
139.52683732316302
 20
123.51681271114866
 11
142.24940531962628
 21
120.79424471468539
  0
LINE
  8
_1-4_
  6
CONTINUOUS
 62
    4
 10
141.47745493296031
 20
124.39458073796453
 11
144.20002292942357
 21
121.67203748548354
  0
LINE
  8
_1-4_
  6
CONTINUOUS
 62
    4
 10
143.42809728673987
 20
125.27237350876267
 11
146.15065291121201
 21
122.54981788429055
  0
LINE
  8
_1-4_
  6
CONTINUOUS
 62
    4
 10
145.37873964051943
 20
126.15016627956082
 11
148.10129526499156
 21
123.42761065508869
  0
LINE
  8
_1-4_
  6
CONTINUOUS
 62
    4
 10
147.32935725031672
 20
127.02794667836783
 11
150.05192524678
 21
124.3053910538957
  0
LINE
  8
_1-4_
  6
CONTINUOUS
 62
    4
 10
149.2799996040963
 20
127.90572707717484
 11
152.00255522856841
 21
125.18317145270271
  0
LINE
  8
_1-4_
  6
CONTINUOUS
 62
    4
 10
151.23064195787586
 20
128.78351984797297
 11
153.95319758234797
 21
126.06096422350085
  0
LINE
  8
_1-4_
  6
CONTINUOUS
 62
    4
 10
153.18125956767315
 20
129.66128787478885
 11
155.90382756413641
 21
126.93874462230787
  0
LINE
  8
_1-4_
  6
CONTINUOUS
 62
    4
 10
155.13187717747044
 20
130.53908064558701
 11
157.85445754592484
 21
127.81652502111487
  0
LINE
  8
_1-4_
  6
CONTINUOUS
 62
    4
 10
157.08251953125
 20
131.41687341638513
 11
159.8050998997044
 21
128.69431779191302
  0
LINE
  8
_1-4_
  6
CONTINUOUS
 62
    4
 10
159.03316188502956
 20
132.29465381519216
 11
161.75572988149284
 21
129.57209819072003
  0
LINE
  8
_1-4_
  6
CONTINUOUS
 62
    4
 10
160.98380423880914
 20
133.17243421399917
 11
163.7063722352724
 21
130.44989096151818
  0
LINE
  8
_1-4_
  6
CONTINUOUS
 62
    4
 10
162.93445896457982
 20
134.05023935678844
 11
165.65702696104307
 21
131.3276837323163
  0
LINE
  8
_1-4_
  6
CONTINUOUS
 62
    4
 10
164.88510131835937
 20
134.92801975559544
 11
167.60766931482266
 21
132.20546413112331
  0
LINE
  8
_1-4_
  6
CONTINUOUS
 62
    4
 10
166.83574367213893
 20
135.80581252639359
 11
169.55831166860222
 21
133.08325690192146
  0
LINE
  8
_1-4_
  6
CONTINUOUS
 62
    4
 10
168.78638602591852
 20
136.68360529719172
 11
171.50895402238177
 21
133.96104967271961
  0
LINE
  8
_1-4_
  6
CONTINUOUS
 62
    4
 10
170.73702837969807
 20
137.56139806798987
 11
173.45959637616133
 21
134.83884244351773
  0
LINE
  8
_1-4_
  6
CONTINUOUS
 62
    4
 10
172.68768310546875
 20
138.43919083878802
 11
175.41025110193203
 21
135.71663521431589
  0
LINE
  8
_1-4_
  6
CONTINUOUS
 62
    4
 10
174.63833783123945
 20
139.31698360958615
 11
177.36090582770271
 21
136.59442798511404
  0
LINE
  8
_1-4_
  6
CONTINUOUS
 62
    4
 10
176.58898018501901
 20
140.1947763803843
 11
179.31154818148227
 21
137.47222075591216
  0
LINE
  8
_1-4_
  6
CONTINUOUS
 62
    4
 10
178.53964728278083
 20
141.07256915118245
 11
181.26219053526182
 21
138.35001352671031
  0
LINE
  8
_1-4_
  6
CONTINUOUS
 62
    4
 10
180.49027726456927
 20
141.95036192198057
 11
183.21284526103253
 21
139.22779392551732
  0
LINE
  8
_1-4_
  6
CONTINUOUS
 62
    4
 10
182.44091961834883
 20
142.82814232078761
 11
185.16348761481208
 21
140.10558669631547
  0
LINE
  8
_1-4_
  6
CONTINUOUS
 62
    4
 10
184.39157434411953
 20
143.70593509158573
 11
187.11412996859164
 21
140.98337946711359
  0
LINE
  8
_1-4_
  6
CONTINUOUS
 62
    4
 10
186.34220432590794
 20
144.58371549039273
 11
189.06478469436234
 21
141.86117223791175
  0
LINE
  8
_1-4_
  6
CONTINUOUS
 62
    4
 10
188.29285905167865
 20
145.46150826119089
 11
191.0154270481419
 21
142.73895263671875
  0
LINE
  8
_1-4_
  6
CONTINUOUS
 62
    4
 10
190.24348903346709
 20
146.33930103198904
 11
192.96606940192146
 21
143.6167454075169
  0
LINE
  8
_1-4_
  6
CONTINUOUS
 62
    4
 10
192.19415613122891
 20
147.21709380278716
 11
194.91671175570102
 21
144.49453817831505
  0
LINE
  8
_1-4_
  6
CONTINUOUS
 62
    4
 10
194.14479848500847
 20
148.09488657358531
 11
196.86735410948057
 21
145.37233094911318
  0
LINE
  8
_1-4_
  6
CONTINUOUS
 62
    4
 10
196.09542846679687
 20
148.97267934438347
 11
198.81799646326016
 21
146.25012371991133
  0
LINE
  8
_1-4_
  6
CONTINUOUS
 62
    4
 10
198.04608319256758
 20
149.85047211518159
 11
200.76866356102198
 21
147.12791649070948
  0
LINE
  8
_1-4_
  6
CONTINUOUS
 62
    4
 10
199.99673791833828
 20
150.72826488597974
 11
202.71929354281039
 21
148.00569688951649
  0
LINE
  8
_1-4_
  6
CONTINUOUS
 62
    4
 10
201.94738027211784
 20
151.60605765677789
 11
204.66993589658995
 21
148.88348966031461
  0
LINE
  8
_1-4_
  6
CONTINUOUS
 62
    4
 10
203.8980226258974
 20
152.4838380555849
 11
206.62059062236065
 21
149.76128243111276
  0
LINE
  8
_1-4_
  6
CONTINUOUS
 62
    4
 10
205.84866497967695
 20
153.3616184543919
 11
208.57123297614021
 21
150.63907520191091
  0
LINE
  8
_1-4_
  6
CONTINUOUS
 62
    4
 10
207.79931970544766
 20
154.23941122519005
 11
210.52187532991977
 21
151.51685560071792
  0
LINE
  8
_1-4_
  6
CONTINUOUS
 62
    4
 10
209.74993731524495
 20
155.11720399598818
 11
212.47251768369932
 21
152.39464837151607
  0
LINE
  8
_1-4_
  6
CONTINUOUS
 62
    4
 10
211.70060441300677
 20
155.99499676678633
 11
214.42316003747891
 21
153.27244114231419
  0
LINE
  8
_1-4_
  6
CONTINUOUS
 62
    4
 10
213.65127151076859
 20
156.87278953758448
 11
216.37382713524073
 21
154.15023391311234
  0
LINE
  8
_1-4_
  6
CONTINUOUS
 62
    4
 10
215.60188912056589
 20
157.7505823083826
 11
218.32446948902029
 21
155.02802668391047
  0
LINE
  8
_1-4_
  6
CONTINUOUS
 62
    4
 10
217.55255621832771
 20
158.62837507918076
 11
220.27511184279984
 21
155.90581945470862
  0
LINE
  8
_1-4_
  6
CONTINUOUS
 62
    4
 10
219.503173828125
 20
159.50616784997891
 11
222.2257541965794
 21
156.78361222550677
  0
LINE
  8
_1-4_
  6
CONTINUOUS
 62
    4
 10
221.45384092588682
 20
160.38396062077703
 11
224.17639655035896
 21
157.66139262431378
  0
LINE
  8
_1-4_
  6
CONTINUOUS
 62
    4
 10
223.40450802364867
 20
161.26175339157518
 11
226.12703890413852
 21
158.53918539511193
  0
LINE
  8
_1-4_
  6
CONTINUOUS
 62
    4
 10
225.35512563344597
 20
162.13953379038219
 11
228.07770600190034
 21
159.41697816591005
  0
LINE
  8
_1-4_
  6
CONTINUOUS
 62
    4
 10
227.30576798722552
 20
163.01731418918919
 11
230.02832361169766
 21
160.29475856471706
  0
LINE
  8
_1-4_
  6
CONTINUOUS
 62
    4
 10
229.25641034100508
 20
163.89510695998734
 11
231.97899070945948
 21
161.17255133551521
  0
LINE
  8
_1-4_
  6
CONTINUOUS
 62
    4
 10
231.20705269478464
 20
164.77289973078547
 11
233.92963306323904
 21
162.05034410631336
  0
LINE
  8
_1-4_
  6
CONTINUOUS
 62
    4
 10
233.15769504856419
 20
165.65069250158362
 11
235.88027541701859
 21
162.92813687711148
  0
LINE
  8
_1-4_
  6
CONTINUOUS
 62
    4
 10
235.10836214632602
 20
166.52848527238177
 11
237.83094251478042
 21
163.80592964790964
  0
LINE
  8
_1-4_
  6
CONTINUOUS
 62
    4
 10
237.05897975612334
 20
167.4062780431799
 11
239.78156012457771
 21
164.68372241870779
  0
LINE
  8
_1-4_
  6
CONTINUOUS
 62
    4
 10
239.00964685388516
 20
168.28405844198693
 11
241.732177734375
 21
165.56150281751479
  0
LINE
  8
_1-4_
  6
CONTINUOUS
 62
    4
 10
240.96026446368245
 20
169.16185121278505
 11
243.68284483213685
 21
166.43929558831294
  0
LINE
  8
_1-4_
  6
CONTINUOUS
 62
    4
 10
242.91093156144427
 20
170.0396439835832
 11
245.63351192989867
 21
167.31708835911107
  0
LINE
  8
_1-4_
  6
CONTINUOUS
 62
    4
 10
244.86159865920609
 20
170.91744912637247
 11
247.58415428367823
 21
168.19488112990922
  0
LINE
  8
_1-4_
  6
CONTINUOUS
 62
    4
 10
246.81221626900339
 20
171.79522952517948
 11
249.53479663745779
 21
169.07267390070734
  0
LINE
  8
_1-4_
  6
CONTINUOUS
 62
    4
 10
248.76288336676521
 20
172.67302229597763
 11
251.48546373521961
 21
169.9504666715055
  0
LINE
  8
_1-4_
  6
CONTINUOUS
 62
    4
 10
250.71352572054477
 20
173.55081506677578
 11
253.4360813450169
 21
170.8282470703125
  0
LINE
  8
_1-4_
  6
CONTINUOUS
 62
    4
 10
252.66416807432435
 20
174.42860783757391
 11
255.38674844277872
 21
171.70603984111065
  0
LINE
  8
_1-4_
  6
CONTINUOUS
 62
    4
 10
254.61481042810391
 20
175.30638823638091
 11
257.33739079655828
 21
172.5838326119088
  0
LINE
  8
_1-4_
  6
CONTINUOUS
 62
    4
 10
256.56545278188344
 20
176.18418100717906
 11
259.28803315033787
 21
173.46162538270693
  0
LINE
  8
_1-4_
  6
CONTINUOUS
 62
    4
 10
258.51611987964526
 20
177.06197377797722
 11
261.2386755041174
 21
174.33941815350508
  0
LINE
  8
_1-4_
  6
CONTINUOUS
 62
    4
 10
260.46673748944261
 20
177.93976654877534
 11
263.18931785789698
 21
175.21721092430323
  0
LINE
  8
_1-4_
  6
CONTINUOUS
 62
    4
 10
262.41740458720443
 20
178.81755931957349
 11
265.13996021167651
 21
176.09500369510135
  0
LINE
  8
_1-4_
  6
CONTINUOUS
 62
    4
 10
264.36804694098396
 20
179.69535209037164
 11
267.09060256545609
 21
176.97278409390836
  0
LINE
  8
_1-4_
  6
CONTINUOUS
 62
    4
 10
266.31868929476354
 20
180.57313248917865
 11
269.04124491923568
 21
177.85057686470651
  0
LINE
  8
_1-4_
  6
CONTINUOUS
 62
    4
 10
268.26933164854307
 20
181.45092525997677
 11
270.99188727301521
 21
178.72836963550466
  0
LINE
  8
_1-4_
  6
CONTINUOUS
 62
    4
 10
270.21997400232266
 20
182.32871803077492
 11
272.94255437077703
 21
179.60615003431167
  0
LINE
  8
_1-4_
  6
CONTINUOUS
 62
    4
 10
272.17064110008448
 20
183.20651080157307
 11
274.89319672455662
 21
180.48395517710094
  0
LINE
  8
_1-4_
  6
CONTINUOUS
 62
    4
 10
274.12128345386401
 20
184.0843035723712
 11
276.84383907833615
 21
181.36174794789909
  0
LINE
  8
_1-4_
  6
CONTINUOUS
 62
    4
 10
276.07192580764359
 20
184.96209634316935
 11
278.79450617609797
 21
182.23952834670609
  0
LINE
  8
_1-4_
  6
CONTINUOUS
 62
    4
 10
278.02259290540542
 20
185.8398891139675
 11
280.74512378589526
 21
183.11732111750425
  0
LINE
  8
_1-4_
  6
CONTINUOUS
 62
    4
 10
279.97321051520271
 20
186.71766951277451
 11
282.69579088365708
 21
183.99511388830237
  0
LINE
  8
_1-4_
  6
CONTINUOUS
 62
    4
 10
281.92387761296453
 20
187.59546228357266
 11
284.64643323743667
 21
184.87290665910052
  0
LINE
  8
_1-4_
  6
CONTINUOUS
 62
    4
 10
283.87451996674412
 20
188.47325505437078
 11
286.59707559121625
 21
185.75069942989865
  0
LINE
  8
_1-4_
  6
CONTINUOUS
 62
    4
 10
285.82516232052365
 20
189.35104782516893
 11
288.54771794499578
 21
186.6284922006968
  0
LINE
  8
_1-4_
  6
CONTINUOUS
 62
    4
 10
287.77580467430323
 20
190.22884059596709
 11
290.49836029877537
 21
187.50628497149495
  0
LINE
  8
_1-4_
  6
CONTINUOUS
 62
    4
 10
289.72644702808276
 20
191.10662099477409
 11
292.4490026525549
 21
188.38406537030195
  0
LINE
  8
_1-4_
  6
CONTINUOUS
 62
    4
 10
291.67708938186234
 20
191.98441376557221
 11
294.39964500633448
 21
189.26185814110011
  0
LINE
  8
_1-4_
  6
CONTINUOUS
 62
    4
 10
293.62773173564193
 20
192.86220653637037
 11
296.3503121040963
 21
190.13965091189823
  0
LINE
  8
_1-4_
  6
CONTINUOUS
 62
    4
 10
295.57837408942146
 20
193.73998693517737
 11
298.30092971389359
 21
191.01743131070523
  0
LINE
  8
_1-4_
  6
CONTINUOUS
 62
    4
 10
297.52901644320104
 20
194.61777970597552
 11
300.25159681165542
 21
191.89522408150339
  0
LINE
  8
_1-4_
  6
CONTINUOUS
 62
    4
 10
299.47968354096287
 20
195.49557247677365
 11
302.202239165435
 21
192.77301685230154
  0
LINE
  8
_1-4_
  6
CONTINUOUS
 62
    4
 10
301.43030115076016
 20
196.3733652475718
 11
304.15288151921453
 21
193.65080962309966
  0
LINE
  8
_1-4_
  6
CONTINUOUS
 62
    4
 10
303.38096824852198
 20
197.25115801836995
 11
306.10352387299412
 21
194.52860239389781
  0
LINE
  8
_1-4_
  6
CONTINUOUS
 62
    4
 10
305.33161060230151
 20
198.12895078916807
 11
308.05416622677365
 21
195.40639516469597
  0
LINE
  8
_1-4_
  6
CONTINUOUS
 62
    4
 10
307.28225295608109
 20
199.00674355996622
 11
310.00483332453547
 21
196.28418793549409
  0
LINE
  8
_1-4_
  6
CONTINUOUS
 62
    4
 10
309.23289530986068
 20
199.88452395877323
 11
311.95545093433276
 21
197.16196833430112
  0
LINE
  8
_1-4_
  6
CONTINUOUS
 62
    4
 10
311.18353766364021
 20
200.76231672957138
 11
313.90611803209464
 21
198.03976110509925
  0
LINE
  8
_1-4_
  6
CONTINUOUS
 62
    4
 10
313.13420476140203
 20
201.64010950036953
 11
315.85673564189193
 21
198.91754150390625
  0
LINE
  8
_1-4_
  6
CONTINUOUS
 62
    4
 10
315.08482237119932
 20
202.51790227116766
 11
317.80740273965375
 21
199.7953342747044
  0
LINE
  8
_1-4_
  6
CONTINUOUS
 62
    4
 10
317.03548946896115
 20
203.39568266997466
 11
319.75802034945104
 21
200.67312704550255
  0
LINE
  8
_1-4_
  6
CONTINUOUS
 62
    4
 10
318.98613182274073
 20
204.27347544077281
 11
321.70868744721287
 21
201.55091981630068
  0
LINE
  8
_1-4_
  6
CONTINUOUS
 62
    4
 10
320.93677417652032
 20
205.15126821157097
 11
323.6593298009924
 21
202.42871258709883
  0
LINE
  8
_1-4_
  6
CONTINUOUS
 62
    4
 10
322.88741653029984
 20
206.02906098236909
 11
325.60999689875422
 21
203.30650535789698
  0
LINE
  8
_1-4_
  6
CONTINUOUS
 62
    4
 10
324.83808362806167
 20
206.90685375316724
 11
327.5606392525338
 21
204.1842981286951
  0
LINE
  8
_1-4_
  6
CONTINUOUS
 62
    4
 10
326.78870123785896
 20
207.78464652396539
 11
329.51125686233109
 21
205.06209089949326
  0
LINE
  8
_1-4_
  6
CONTINUOUS
 62
    4
 10
328.73936833562078
 20
208.66243929476352
 11
331.46192396009292
 21
205.93988367029141
  0
LINE
  8
_1-4_
  6
CONTINUOUS
 62
    4
 10
330.69001068940037
 20
209.54023206556167
 11
333.4125663138725
 21
206.81767644108953
  0
LINE
  8
_1-4_
  6
CONTINUOUS
 62
    4
 10
332.6406530431799
 20
210.41802483635982
 11
335.36320866765203
 21
207.69546921188768
  0
LINE
  8
_1-4_
  6
CONTINUOUS
 62
    4
 10
334.59129539695948
 20
211.29579286317568
 11
337.31387576541385
 21
208.57326198268584
  0
LINE
  8
_1-4_
  6
CONTINUOUS
 62
    4
 10
336.54193775073907
 20
212.17361037795609
 11
339.26449337521115
 21
209.45103000950169
  0
LINE
  8
_1-4_
  6
CONTINUOUS
 62
    4
 10
338.49258010451859
 20
213.05137840477198
 11
341.21516047297297
 21
210.32884752428211
  0
LINE
  8
_1-4_
  6
CONTINUOUS
 62
    4
 10
340.44322245829818
 20
213.9291711755701
 11
343.16580282675255
 21
211.206615551098
  0
LINE
  8
_1-4_
  6
CONTINUOUS
 62
    4
 10
342.39388955606
 20
214.80696394636826
 11
345.11644518053214
 21
212.08440832189612
  0
LINE
  8
_1-4_
  6
CONTINUOUS
 62
    4
 10
344.34453190983953
 20
215.68475671716641
 11
347.06708753431167
 21
212.96220109269427
  0
LINE
  8
_1-4_
  6
CONTINUOUS
 62
    4
 10
346.29517426361912
 20
216.56254948796453
 11
349.01772988809125
 21
213.83999386349242
  0
LINE
  8
_1-4_
  6
CONTINUOUS
 62
    4
 10
348.24581661739865
 20
217.44034225876268
 11
350.96839698585308
 21
214.71778663429055
  0
LINE
  8
_1-4_
  6
CONTINUOUS
 62
    4
 10
350.19645897117823
 20
218.31813502956084
 11
352.91901459565037
 21
215.5955794050887
  0
LINE
  8
_1-4_
  6
CONTINUOUS
 62
    4
 10
352.14712606894005
 20
219.19592780035896
 11
354.86968169341219
 21
216.47337217588682
  0
LINE
  8
_1-4_
  6
CONTINUOUS
 62
    4
 10
354.09774367873734
 20
220.07372057115711
 11
356.82032404719172
 21
217.35116494668497
  0
LINE
  8
_1-4_
  6
CONTINUOUS
 62
    4
 10
356.04838603251693
 20
220.95151334195526
 11
358.7709664009713
 21
218.22895771748313
  0
LINE
  8
_1-4_
  6
CONTINUOUS
 62
    4
 10
357.99905313027875
 20
221.82928136877112
 11
360.72160875475089
 21
219.10672574429901
  0
LINE
  8
_1-4_
  6
CONTINUOUS
 62
    4
 10
359.94969548405828
 20
222.70707413956927
 11
362.67225110853042
 21
219.98451851509714
  0
LINE
  8
_1-4_
  6
CONTINUOUS
 62
    4
 10
361.90033783783787
 20
223.58486691036742
 11
364.62289346231
 21
220.86231128589529
  0
LINE
  8
_1-4_
  6
CONTINUOUS
 62
    4
 10
363.8509801916174
 20
224.46265968116555
 11
366.57353581608953
 21
221.74010405669341
  0
LINE
  8
_1-3_
  6
CONTINUOUS
 62
    7
 10
137.04596854544977
 20
71.080219165698907
 11
146.16519000079182
 21
75.183860160209036
  0
LINE
  8
_1-3_
  6
CONTINUOUS
 62
    7
 10
133.49816399651604
 20
103.33294842694258
 11
127.97022226694469
 21
91.248643204972552
  0
LINE
  8
_1-3_
  6
CONTINUOUS
 62
    7
 10
135.67944500897383
 20
98.485645603489232
 11
130.15150327940245
 21
86.401328009528086
  0
LINE
  8
_1-3_
  6
CONTINUOUS
 62
    7
 10
134.58880450274495
 20
100.90929392221813
 11
129.06086277317357
 21
88.82498251425254
  0
LINE
  8
_1-4_
  6
CONTINUOUS
 62
    7
 10
138.28622354043497
 20
92.692763869826862
 11
142.88228215398016
 21
82.479239798880911
  0
LINE
  8
_1-4_
  6
CONTINUOUS
 62
    7
 10
189.68902587890625
 20
120.21036096521327
 11
185.02270672772383
 21
107.14467229069891
  0
LINE
  8
_1-4_
  6
CONTINUOUS
 62
    7
 10
190.95423518000425
 20
120.77970762510559
 11
186.2879160288218
 21
107.71400657860009
  0
LINE
  8
_1-4_
  6
CONTINUOUS
 62
    7
 10
192.21943210911107
 20
121.34904191300676
 11
187.55311295792865
 21
108.28335323849241
  0
LINE
  8
_1-4_
  6
CONTINUOUS
 62
    7
 10
127.12824641047298
 20
54.84490678117082
 11
121.62162162162163
 21
54.84490678117082
  0
LINE
  8
ADD_LINE
  6
DOT
 62
    3
 10
293.85861783414276
 20
189.01804331186656
 11
292.58351094013938
 21
188.44424273516682
  0
LINE
  8
_1-0_
  6
CONTINUOUS
 62
    7
 10
137.73912172059755
 20
118.7646195695207
 11
366.92905735325172
 21
221.9000986460093
  0
LINE
  8
_1-0_
  6
DASHED1
 62
    7
 10
298.69205784153297
 20
190.7548357989337
 11
298.69584367081927
 21
190.7565431337099
  0
LINE
  8
_1-0_
  6
DASHED1
 62
    7
 10
298.69584367081927
 20
190.7565431337099
 11
367.09315944362334
 21
221.53532285948057
  0
LINE
  8
_1-3_
  6
CONTINUOUS
 62
    7
 10
136.64476961702914
 20
96.34044750316724
 11
303.75193003061656
 21
171.53867154508023
  0
LINE
  8
_1-4_
  6
CONTINUOUS
 62
    7
 10
139.38057564400339
 20
115.11693593618033
 11
368.57052364864865
 21
218.25241501266893
  0
LINE
  8
_1-4_
  6
CONTINUOUS
 62
    7
 10
137.73910934860643
 20
118.7646195695207
 11
136.39758960620779
 21
118.16092826224663
  0
LINE
  8
_1-4_
  6
CONTINUOUS
 62
    7
 10
137.96707565720018
 20
117.77060431403083
 11
137.55670908335094
 21
118.6825314083615
  0
LINE
  8
_1-0_
  6
DASHED1
 62
    7
 10
137.72086066168708
 20
118.31775562183277
 11
298.68824726826438
 21
190.75311609216641
  0
LINE
  8
_1-4_
  6
CONTINUOUS
 62
    7
 10
139.38057564400339
 20
115.11693593618033
 11
139.19817537874789
 21
115.03486014701225
  0
LINE
  8
_1-4_
  6
CONTINUOUS
 62
    7
 10
143.75777373442779
 20
103.92763292467272
 11
302.11048847920188
 21
175.18635517842063
  0
LINE
  8
_1-4_
  6
CONTINUOUS
 62
    7
 10
139.19817537874789
 20
115.03484777502112
 11
145.76397870038008
 21
100.44408849767737
  0
LINE
  8
_1-4_
  6
DASHED1
 62
    7
 10
145.50134607263513
 20
101.02772480732686
 11
303.48929740287161
 21
172.12230785472974
  0
LINE
  8
_1-4_
  6
CONTINUOUS
 62
    7
 10
224.60399730785474
 20
101.46808727367505
 11
219.09737251900339
 21
101.46808727367505
  0
LINE
  8
_1-4_
  6
CONTINUOUS
 62
    7
 10
224.60399730785474
 20
101.46808727367505
 11
235.81863815720018
 21
132.28004249366555
  0
LINE
  8
_1-3_
  6
CONTINUOUS
 62
    7
 10
303.77984124260979
 20
171.55121674408784
 11
375.13631459828974
 21
203.66165573532518
  0
LINE
  8
_1-4_
  6
DASHED1
 62
    7
 10
303.48929740287161
 20
172.12230785472974
 11
374.8736572265625
 21
204.24529204497466
  0
LINE
  8
_1-4_
  6
CONTINUOUS
 62
    7
 10
302.11048847920188
 20
175.18635517842063
 11
373.494873046875
 21
207.30933936866555
  0
LINE
  8
_1-4_
  6
CONTINUOUS
 62
    7
 10
140.74841061153927
 20
87.221232233820743
 11
247.75874782252959
 21
135.37588583456505
  0
LINE
  8
_1-2_
  6
CONTINUOUS
 62
    3
 10
304.62774328283365
 20
206.77689835831927
 11
247.89565627639359
 21
187.14814057221284
  0
LINE
  8
_1-4_
  6
CONTINUOUS
 62
    5
 10
406.75677325274495
 20
30.135133073136615
 11
6.7567526327597136
 21
30.135133073136615
  0
LINE
  8
_1-0_
  6
CONTINUOUS
 62
    7
 10
137.73910934860643
 20
118.7646195695207
 11
128.43751237199115
 21
114.57890278584249
  0
LINE
  8
_1-0_
  6
CONTINUOUS
 62
    7
 10
126.96021002692146
 20
117.86182300464527
 11
128.22772051836995
 21
115.04511652766048
  0
LINE
  8
_1-4_
  6
CONTINUOUS
 62
    7
 10
117.8409885715794
 20
113.75816963814401
 11
137.04596854544977
 21
71.080219165698907
  0
LINE
  8
_1-4_
  6
CONTINUOUS
 62
    4
 10
134.09559507627745
 20
117.12503381677577
 11
141.27321810335727
 21
124.30268158783784
  0
LINE
  8
_1-4_
  6
CONTINUOUS
 62
    4
 10
135.62556498759503
 20
121.7612395415435
 11
138.34813298405828
 21
119.03867154508025
  0
LINE
  8
_1-4_
  6
CONTINUOUS
 62
    4
 10
130.75980933936867
 20
119.7279894029772
 11
127.56023922482053
 21
116.52840691643793
  0
LINE
  8
_1-4_
  6
CONTINUOUS
 62
    4
 10
135.95660235430745
 20
121.78611961570947
 11
128.53431083060602
 21
114.36380334802577
  0
LINE
  8
_1-4_
  6
CONTINUOUS
 62
    4
 10
131.52358183989654
 20
119.91533846468539
 11
134.22837128510346
 21
117.21054901947846
  0
LINE
  8
_1-4_
  6
CONTINUOUS
 62
    4
 10
133.47422419367609
 20
120.79313123548354
 11
136.19679219013938
 21
118.07056323902027
  0
LINE
  8
_1-4_
  6
CONTINUOUS
 62
    4
 10
129.57293948611698
 20
119.03754569388725
 11
132.29551985457138
 21
116.31499006941513
  0
LINE
  8
_1-4_
  6
CONTINUOUS
 62
    4
 10
127.62232187631969
 20
118.15977766707138
 11
130.34488987278294
 21
115.43720967060811
  0
LINE
  8
_1-4_
  6
CONTINUOUS
 62
    7
 10
113.39147619298987
 20
125.14259132179055
 11
133.13002302839951
 21
125.14259132179055
  0
LINE
  8
_1-0_
  6
CONTINUOUS
 62
    7
 10
136.26180700353675
 20
122.04753978832349
 11
121.41979733028928
 21
115.36863172376479
  0
LINE
  8
_1-0_
  6
CONTINUOUS
 62
    7
 10
121.41979733028928
 20
115.36863172376479
 11
117.8409885715794
 21
113.75816963814401
  0
LINE
  8
_1-4_
  6
CONTINUOUS
 62
    7
 10
118.40105623812289
 20
114.01019946948902
 11
113.39147619298987
 21
125.14259132179055
  0
LINE
  8
_1-4_
  6
CONTINUOUS
 62
    7
 10
134.8156449601457
 20
121.39676068280195
 11
133.13002302839951
 21
125.14259132179055
  0
LINE
  8
_1-0_
  6
DASHED1
 62
    3
 10
114.87251487938134
 20
125.58747575089738
 11
133.22820715002112
 21
125.390625
  0
LINE
  8
_1-0_
  6
DASHED1
 62
    3
 10
135.94833786423143
 20
122.40520167995145
 11
133.22820715002112
 21
125.390625
  0
LINE
  8
_1-0_
  6
DASHED1
 62
    3
 10
135.94833786423143
 20
122.40520167995145
 11
365.26509877797724
 21
225.59771563555745
  0
LINE
  8
_1-0_
  6
CONTINUOUS
 62
    7
 10
135.60522543417443
 20
123.50661819045609
 11
135.8514404296875
 21
122.95946688265414
  0
LINE
  8
_1-0_
  6
CONTINUOUS
 62
    7
 10
118.40105623812289
 20
114.01019946948902
 11
133.13002302839951
 21
125.14259132179055
  0
LINE
  8
_1-0_
  6
CONTINUOUS
 62
    7
 10
113.39147619298987
 20
125.14259132179055
 11
134.8156449601457
 21
121.39676068280195
  0
LINE
  8
_1-0_
  6
CONTINUOUS
 62
    3
 10
113.23806350295608
 20
125.03494262695312
 11
118.2684037492082
 21
113.85641561972129
  0
LINE
  8
_1-0_
  6
CONTINUOUS
 62
    7
 10
127.92289940086572
 20
123.95878972233953
 11
109.7063920304582
 21
164.43991996146539
  0
LINE
  8
_1-0_
  6
CONTINUOUS
 62
    7
 10
103.96424164643159
 20
113.69079177444046
 11
89.841978743269635
 21
145.07360922323693
  0
LINE
  8
_1-0_
  6
CONTINUOUS
 62
    7
 10
103.96424164643159
 20
113.69079177444046
 11
116.35665893554687
 21
118.05764688027872
  0
LINE
  8
_1-4_
  6
CONTINUOUS
 62
    7
 10
89.841978743269635
 20
145.07360922323693
 11
86.435276753193634
 21
145.07360922323693
  0
LINE
  8
_1-3_
  6
CONTINUOUS
 62
    7
 10
109.7063920304582
 20
164.43991996146539
 11
106.61047445761191
 21
164.43991996146539
  0
ARC
  8
_1-1_
  6
CONTINUOUS
 62
    3
 10
106.04918196394637
 20
121.47529808250634
 40
0.1999999904954755
 50
286.71995544433594
 51
16.716552734374996
  0
ARC
  8
_1-1_
  6
CONTINUOUS
 62
    3
 10
107.19845333614866
 20
121.82051375105576
 40
0.1999999904954755
 50
196.71995544433597
 51
286.71757507324219
  0
ARC
  8
_1-1_
  6
CONTINUOUS
 62
    3
 10
107.38999650285051
 20
121.87805588180954
 40
0.1999999904954755
 50
286.72097778320312
 51
16.717575073242202
  0
ARC
  8
_1-1_
  6
CONTINUOUS
 62
    3
 10
107.926025390625
 20
122.87437232764992
 40
0.599999959404404
 50
106.71949768066406
 51
196.71870422363284
  0
ARC
  8
_1-2_
  6
CONTINUOUS
 62
    3
 10
157.01240745750636
 20
142.55485740867823
 40
0.599999959404404
 50
108.58587646484376
 51
196.71983337402344
  0
ARC
  8
_1-2_
  6
CONTINUOUS
 62
    3
 10
155.97320969040331
 20
141.49559227195948
 40
0.1999999904954755
 50
196.71755981445312
 51
288.5885009765625
  0
ARC
  8
_1-2_
  6
CONTINUOUS
 62
    3
 10
154.83519683013091
 20
141.11293895824537
 40
0.1999999904954755
 50
288.58401489257812
 51
16.717575073242227
  0
ARC
  8
_1-2_
  6
CONTINUOUS
 62
    3
 10
156.44737862251901
 20
141.65503012167443
 40
0.1999999904954755
 50
288.5885009765625
 51
16.719955444335923
  0
ARC
  8
_1-2_
  6
CONTINUOUS
 62
    3
 10
154.36101552602409
 20
140.95348873653927
 40
0.1999999904954755
 50
196.716552734375
 51
288.58514404296875
  0
ARC
  8
_1-2_
  6
CONTINUOUS
 62
    3
 10
204.56771850585937
 20
163.41558095571159
 40
0.599999959404404
 50
109.08587646484375
 51
197.21983337402344
  0
ARC
  8
_1-2_
  6
CONTINUOUS
 62
    3
 10
203.53782447608742
 20
162.34728426546664
 40
0.1999999904954755
 50
197.21755981445312
 51
289.0885009765625
  0
ARC
  8
_1-2_
  6
CONTINUOUS
 62
    3
 10
202.40315205342063
 20
161.95470861486487
 40
0.1999999904954755
 50
289.08401489257812
 51
17.217575073242223
  0
ARC
  8
_1-2_
  6
CONTINUOUS
 62
    3
 10
204.01054588524073
 20
162.51085436021961
 40
0.1999999904954755
 50
289.0885009765625
 51
17.219955444335916
  0
ARC
  8
_1-2_
  6
CONTINUOUS
 62
    3
 10
201.93039352829393
 20
161.79115089210305
 40
0.1999999904954755
 50
197.216552734375
 51
289.08514404296875
  0
ARC
  8
_1-2_
  6
CONTINUOUS
 62
    3
 10
251.98761811127534
 20
184.754543819943
 40
0.599999959404404
 50
109.08587646484375
 51
197.21983337402344
  0
ARC
  8
_1-2_
  6
CONTINUOUS
 62
    3
 10
250.95772408150339
 20
183.68624712969807
 40
0.1999999904954755
 50
197.21755981445312
 51
289.0885009765625
  0
ARC
  8
_1-2_
  6
CONTINUOUS
 62
    3
 10
249.82306403082771
 20
183.2936714790963
 40
0.1999999904954755
 50
289.08401489257812
 51
17.217575073242223
  0
ARC
  8
_1-2_
  6
CONTINUOUS
 62
    3
 10
251.43045786264781
 20
183.84981722445102
 40
0.1999999904954755
 50
289.0885009765625
 51
17.219955444335916
  0
ARC
  8
_1-2_
  6
CONTINUOUS
 62
    3
 10
249.35030550570102
 20
183.13011375633448
 40
0.1999999904954755
 50
197.216552734375
 51
289.08514404296875
  0
ARC
  8
_1-2_
  6
CONTINUOUS
 62
    3
 10
299.40757957664698
 20
206.09350668417443
 40
0.599999959404404
 50
109.08587646484375
 51
197.21983337402344
  0
ARC
  8
_1-2_
  6
CONTINUOUS
 62
    3
 10
298.377685546875
 20
205.02520999392948
 40
0.1999999904954755
 50
197.21755981445312
 51
289.0885009765625
  0
ARC
  8
_1-2_
  6
CONTINUOUS
 62
    3
 10
297.24300075221709
 20
204.63263434332771
 40
0.1999999904954755
 50
289.08401489257812
 51
17.217575073242223
  0
ARC
  8
_1-2_
  6
CONTINUOUS
 62
    3
 10
298.85039458403719
 20
205.18878008868245
 40
0.1999999904954755
 50
289.0885009765625
 51
17.219955444335916
  0
ARC
  8
_1-2_
  6
CONTINUOUS
 62
    3
 10
296.77024222709036
 20
204.46907662056589
 40
0.1999999904954755
 50
197.216552734375
 51
289.08514404296875
  0
ARC
  8
_1-0_
  6
CONTINUOUS
 62
    3
 10
129.75980604017104
 20
114.07732989336994
 40
0.9999999162313101
 50
114.22776794433594
 51
204.22776794433594
  0
ARC
  8
_1-0_
  6
CONTINUOUS
 62
    3
 10
130.28873340503591
 20
113.8767180571685
 40
0.9999999162313101
 50
114.22776794433594
 51
204.22776794433594
  0
ARC
  8
_1-0_
  6
CONTINUOUS
 62
    3
 10
136.85452435467695
 20
116.83132274730787
 40
0.9999999162313101
 50
24.227767944335938
 51
114.22776794433594
  0
ARC
  8
_1-0_
  6
CONTINUOUS
 62
    3
 10
137.0551485628695
 20
117.36023774018159
 40
0.9999999162313101
 50
24.227767944335938
 51
114.22776794433594
  0
ARC
  8
_1-0_
  6
CONTINUOUS
 62
    3
 10
143.9127947833087
 20
101.14627941234693
 40
0.9999999162313101
 50
294.22776794433594
 51
24.227767944335941
  0
ARC
  8
_1-0_
  6
CONTINUOUS
 62
    3
 10
144.44172214817357
 20
100.94566139014992
 40
0.9999999162313101
 50
294.22776794433594
 51
24.227767944335941
  0
ARC
  8
_1-0_
  6
CONTINUOUS
 62
    3
 10
137.34700383366766
 20
98.191668536211992
 40
0.9999999162313101
 50
204.22776794433594
 51
294.22776794433594
  0
ARC
  8
_1-0_
  6
CONTINUOUS
 62
    3
 10
137.14636725348396
 20
97.662753543338269
 40
0.9999999162313101
 50
204.22776794433594
 51
294.22776794433594
  0
ARC
  8
_1-3_
  6
CONTINUOUS
 62
    3
 10
270.58484876478042
 20
155.29757525469807
 40
0.599999959404404
 50
204.22775268554687
 51
294.22775268554687
  0
ARC
  8
_1-3_
  6
CONTINUOUS
 62
    3
 10
290.11819375527875
 20
111.89012269716005
 40
0.599999959404404
 50
114.22775268554687
 51
204.22775268554687
  0
ARC
  8
_1-3_
  6
CONTINUOUS
 62
    3
 10
280.73453336148651
 20
158.32971521326013
 40
0.7999999619819022
 50
24.227752685546875
 51
114.22775268554687
  0
ARC
  8
_1-3_
  6
CONTINUOUS
 62
    3
 10
299.1188667915963
 20
117.47564367345862
 40
0.7999999619819022
 50
294.22775268554687
 51
24.227752685546868
  0
ARC
  8
_1-3_
  6
CONTINUOUS
 62
    3
 10
292.28856267155828
 20
165.06426012193836
 40
0.599999959404404
 50
294.22775268554687
 51
24.227752685546868
  0
ARC
  8
_1-3_
  6
CONTINUOUS
 62
    3
 10
311.82193240603885
 20
121.65680756440034
 40
0.599999959404404
 50
24.227752685546868
 51
114.22775268554687
  0
ARC
  8
_1-3_
  6
CONTINUOUS
 62
    3
 10
283.28788963524073
 20
159.47872677364865
 40
0.7999999619819022
 50
114.22775268554687
 51
204.22775268554687
  0
ARC
  8
_1-3_
  6
CONTINUOUS
 62
    3
 10
301.67224780933276
 20
118.62465523384714
 40
0.7999999619819022
 50
204.22775268554687
 51
294.22775268554687
  0
ARC
  8
_1-3_
  6
CONTINUOUS
 62
    7
 10
244.81938542546453
 20
141.08251623205237
 40
3.9335145177067941
 50
104.1177978515625
 51
269.56785583496094
  0
ARC
  8
_1-3_
  6
CONTINUOUS
 62
    7
 10
244.7897173907306
 20
133.77685546875
 40
3.3722595266393713
 50
248.43130493164062
 51
90
  0
TEXT
  8
_0-0_
 62
    7
 10
141.89189395389042
 20
14.594594594594582
 40
2.5
 41
1
 50
0
  1
縮尺
  0
TEXT
  8
_0-0_
 62
    7
 10
377.10214563318203
 20
22.865493362014362
 40
2.5
 41
1
 50
0
  1
ＮＯ
  0
TEXT
  8
_1-0_
 62
    7
 10
169.90681828679266
 20
13.3181144095756
 40
2.5
 41
1
 50
0
  1
1/5
  0
TEXT
  8
_0-0_
 62
    7
 10
14.594594336844779
 20
24.324324324324323
 40
2.5
 41
1
 50
0
  1
Ｓ型
  0
TEXT
  8
_0-0_
 62
    7
 10
39.721903414339636
 20
15.395235628695104
 40
2.5
 41
1
 50
0
  1
軒先　1
  0
TEXT
  8
_0-0_
 62
    7
 10
383.97877873601146
 20
17.689098667454061
 40
2.5
 41
1
 50
0
  1
Ｓ
  0
TEXT
  8
_1-3_
 62
    7
 10
198.45322273872995
 20
55.569441511824323
 40
2.5
 41
1
 50
0
  1
垂木
  0
TEXT
  8
_1-3_
 62
    7
 10
198.45322067673143
 20
61.569436563027878
 40
2.5
 41
1
 50
0
  1
野地板
  0
TEXT
  8
_1-3_
 62
    7
 10
198.45322480072849
 20
67.569431614231419
 40
2.5
 41
1
 50
0
  1
下葺き材
  0
TEXT
  8
_1-3_
 62
    7
 10
198.45322067673143
 20
73.569426665434975
 40
2.5
 41
1
 50
0
  1
流し桟
  0
TEXT
  8
_1-3_
 62
    7
 10
198.45322273872995
 20
79.569421716638516
 40
2.5
 41
1
 50
0
  1
瓦桟
  0
TEXT
  8
_1-3_
 62
    7
 10
205.55149800068625
 20
212.88010055954393
 40
2.5
 41
1
 50
0
  1
Ｓ型　桟瓦
  0
TEXT
  8
_0-0_
 62
    7
 10
394.44850199931375
 20
15.268444370579061
 40
2.5
 41
1
 50
0
  1
23
  0
TEXT
  8
_0-0_
 62
    7
 10
25.556194717819636
 20
20.211577544341225
 40
2.5
 41
1
 50
0
  1
鉄骨
  0
TEXT
  8
_1-4_
 62
    7
 10
212.88638965503588
 20
55.569441511824323
 40
2.5
 41
1
 50
0
  1
Ｃ－100ｘ50ｘ20ｘ3.2
  0
TEXT
  8
_1-3_
 62
    7
 10
97.639264625110243
 20
198.45893622475569
 40
2.5
 41
1
 50
24.227719460851628
  1
262
  0
TEXT
  8
_1-3_
 62
    7
 10
145.02764889804735
 20
219.78369708489066
 40
2.5
 41
1
 50
24.227891841336653
  1
262
  0
TEXT
  8
_1-3_
 62
    7
 10
192.43563427600341
 20
241.11729050497087
 40
2.5
 41
1
 50
24.227891841336664
  1
262
  0
TEXT
  8
_1-3_
 62
    7
 10
239.86303853577286
 20
262.45964097983233
 40
2.5
 41
1
 50
24.227969413213476
  1
262
  0
TEXT
  8
_1-4_
 62
    7
 10
110.07617641139674
 20
53.929874317066094
 40
2.5
 41
1
 50
0
  1
ＡＬＣ板
  0
TEXT
  8
_1-4_
 62
    7
 10
207.5519149367874
 20
100.55305480957031
 40
2.5
 41
1
 50
0
  1
ＡＬＣ板
  0
TEXT
  8
_1-4_
 62
    7
 10
212.88638140704182
 20
67.569431614231419
 40
2.5
 41
1
 50
0
  1
ゴムアス系ルーフィング
  0
TEXT
  8
_1-4_
 62
    7
 10
212.88638965503588
 20
61.569436563027878
 40
2.5
 41
1
 50
0
  1
硬質木片セメント板　ｔ＝18
  0
TEXT
  8
_1-4_
 62
    3
 10
285.40540540540542
 20
42.162162162162161
 40
3
 41
1
 50
0
  1
＊　耐火仕様ではありません
  0
TEXT
  8
_1-4_
 62
    7
 10
238.15110490128802
 20
79.672802074535483
 40
2.5
 41
1
 50
0
  1
※　地域により瓦桟木の大きさは、異なります
  0
TEXT
  8
_1-4_
 62
    7
 10
213.76964259792021
 20
79.77932491817991
 40
2.5
 41
1
 50
0
  1
15×30　樹脂桟木
  0
TEXT
  8
_1-4_
 62
    7
 10
79.942529008195208
 20
143.98096445444469
 40
2.5
 41
1
 50
0
  1
面戸
  0
TEXT
  8
_1-3_
 62
    7
 10
95.90087890625
 20
163.3236075736381
 40
2.5
 41
1
 50
0
  1
瓦座
  0
TEXT
  8
_1-4_
 62
    7
 10
242.18081500079182
 20
55.622486423801732
 40
2.5
 41
1
 50
0
  1
＠606
  0
POINT
  8
_1-3_
 62
    7
 10
75.834478429845859
 20
188.0984826990076
  0
POINT
  8
_1-3_
 62
    7
 10
123.27412373310811
 20
209.44632865287164
  0
POINT
  8
_1-3_
 62
    7
 10
170.61124234586148
 20
230.74802707981419
  0
POINT
  8
_1-3_
 62
    7
 10
218.09009448902029
 20
252.11351549303211
  0
POINT
  8
_1-3_
 62
    7
 10
265.4660611539274
 20
273.432707915435
  0
LINE
  8
_1-0_
  6
DASHED1
 62
    3
 10
113.23806350295608
 20
125.03494262695312
 11
108.40237761519927
 21
135.78090465981131
  0
TEXT
  8
_1-f_
 62
    7
 10
152.2737063297167
 20
43.90290586127945
 40
2.5
 41
1
 50
0
  1
※軒面戸の納まりには、木製、金属製、樹脂製、面戸付き軒瓦等があります。
  0
TEXT
  8
_1-f_
 62
    7
 10
154.54230470015312
 20
40.14768369965752
 40
2.5
 41
1
 50
0
  1
その他に漆喰またはモルタル仕上げもありますが、この場合は、左官仕事となります。
  0
ENDSEC
  0
EOF
