  0
SECTION
  2
HEADER
  9
$ACADVER
  1
AC1009
  9
$INSBASE
 10
0
 20
0
 30
0
  9
$EXTMIN
 10
0
 20
0
  9
$EXTMAX
 10
420
 20
297
  9
$LIMMIN
 10
0
 20
0
  9
$LIMMAX
 10
420
 20
297
  9
$LTSCALE
 40
1
  0
ENDSEC
  0
SECTION
  2
TABLES
  0
TABLE
  2
LTYPE
 70
     9
  0
LTYPE
  2
CONTINUOUS
 70
    64
  3
実線
 72
    65
 73
     0
 40
0.0
  0
LTYPE
  2
DASHED1
 70
    64
  3
--  --  --  --  --  --  --  --  
 72
    65
 73
     2
 40
2.5
 49
1.25
 49
-1.25
  0
LTYPE
  2
DASHED2
 70
    64
  3
----    ----    ----    ----    
 72
    65
 73
     2
 40
5.0
 49
2.5
 49
-2.5
  0
LTYPE
  2
DASHED3
 70
    64
  3
------  ------  ------  ------  
 72
    65
 73
     2
 40
5.0
 49
3.75
 49
-1.25
  0
LTYPE
  2
CENTER1
 70
    64
  3
----- - ----- - ----- - ----- - 
 72
    65
 73
     4
 40
10.0
 49
6.25
 49
-1.25
 49
1.25
 49
-1.25
  0
LTYPE
  2
CENTER2
 70
    64
  3
----------  --  ----------  --  
 72
    65
 73
     4
 40
20.0
 49
12.5
 49
-2.5
 49
2.5
 49
-2.5
  0
LTYPE
  2
PHANTOM1
 70
    64
  3
--- - - --- - - --- - - --- - - 
 72
    65
 73
     6
 40
10.0
 49
3.25
 49
-1.25
 49
1.25
 49
-1.25
 49
1.25
 49
-1.25
  0
LTYPE
  2
PHANTOM2
 70
    64
  3
--------  -  -  --------  -  -  
 72
    65
 73
     6
 40
20.0
 49
10.0
 49
-2.5
 49
1.25
 49
-2.5
 49
1.25
 49
-2.5
  0
LTYPE
  2
DOT
 70
    64
  3
-   -   -   -   -   -   -   -   
 72
    65
 73
     2
 40
2.5
 49
0.625
 49
-1.875
  0
LTYPE
  2
DUMMY
 70
    64
  3
ダミー
 72
    65
 73
     0
 40
0.0
  0
LTYPE
  2
RAND1
 70
    64
  3
ランダム線1
 72
    65
 73
     4
 40
10.0
 49
1.0
 49
-2.0
 49
3.0
 49
-4.0
  0
LTYPE
  2
RAND2
 70
    64
  3
ランダム線2
 72
    65
 73
     4
 40
14.0
 49
2.0
 49
-3.0
 49
4.0
 49
-5.0
  0
LTYPE
  2
RAND3
 70
    64
  3
ランダム線3
 72
    65
 73
     4
 40
18.0
 49
3.0
 49
-4.0
 49
5.0
 49
-6.0
  0
LTYPE
  2
RAND4
 70
    64
  3
ランダム線4
 72
    65
 73
     4
 40
22.0
 49
4.0
 49
-5.0
 49
6.0
 49
-7.0
  0
LTYPE
  2
RAND5
 70
    64
  3
ランダム線5
 72
    65
 73
     4
 40
26.0
 49
5.0
 49
-6.0
 49
7.0
 49
-8.0
  0
LTYPE
  2
LONG1
 70
    64
  3
----------  --  ----------  --  
 72
    65
 73
     4
 40
40.0
 49
32.5
 49
-2.5
 49
2.5
 49
-2.5
  0
LTYPE
  2
LONG2
 70
    64
  3
--------  -  -  --------  -  -  
 72
    65
 73
     6
 40
40.0
 49
30.0
 49
-2.5
 49
1.25
 49
-2.5
 49
1.25
 49
-2.5
  0
LTYPE
  2
LONG3
 70
    64
  3
+++++++++++++++..+++++++++++++++
 72
    65
 73
     2
 40
40.0
 49
37.5
 49
-2.5
  0
LTYPE
  2
LONG4
 70
    64
  3
+++++++++++++++..+++++++++++++++
 72
    65
 73
     2
 40
80.0
 49
75.0
 49
-5.0
  0
LTYPE
  2
LONG5
 70
    64
  3
----------  --  ----------  --  
 72
    65
 73
     4
 40
60.0
 49
37.5
 49
-7.5
 49
7.5
 49
-7.5
  0
LTYPE
  2
dashed
 70
   64
  3
-------   -------------   ------
 72
   65
 73
    2
 40
7.5
 49
6
 49
-1.5
  0
LTYPE
  2
dashed_spaced
 70
   64
  3
----        --------        ----
 72
   65
 73
    2
 40
12
 49
6
 49
-6
  0
LTYPE
  2
long_dashed_dotted
 70
   64
  3
------------- --- --------------
 72
   65
 73
    4
 40
15.25
 49
12
 49
-1.5
 49
0.25
 49
-1.5
  0
LTYPE
  2
long_dashed_double-dotted
 70
   64
  3
----------- --- --- ------------
 72
   65
 73
    6
 40
17
 49
12
 49
-1.5
 49
0.25
 49
-1.5
 49
0.25
 49
-1.5
  0
LTYPE
  2
long_dashed_triplicate-dotted
 70
   64
  3
--------- --- --- --- ----------
 72
   65
 73
    8
 40
18.75
 49
12
 49
-1.5
 49
0.25
 49
-1.5
 49
0.25
 49
-1.5
 49
0.25
 49
-1.5
  0
LTYPE
  2
dotted
 70
   64
  3
   -       -       -       -    
 72
   65
 73
    2
 40
1.75
 49
0.25
 49
-1.5
  0
LTYPE
  2
chain
 70
   64
  3
-------------- -- --------------
 72
   65
 73
    4
 40
18.5
 49
12
 49
-1.5
 49
3.5
 49
-1.5
  0
LTYPE
  2
chain_double_dash
 70
   64
  3
------------ -- -- -------------
 72
   65
 73
    6
 40
23.5
 49
12
 49
-1.5
 49
3.5
 49
-1.5
 49
3.5
 49
-1.5
  0
LTYPE
  2
dashed_dotted
 70
   64
  3
-----------     -     ----------
 72
   65
 73
    4
 40
9.25
 49
6
 49
-1.5
 49
0.25
 49
-1.5
  0
LTYPE
  2
double-dashed_dotted
 70
   64
  3
------   -----------   -   -----
 72
   65
 73
    6
 40
16.75
 49
6
 49
-1.5
 49
6
 49
-1.5
 49
0.25
 49
-1.5
  0
LTYPE
  2
dashed_double-dotted
 70
   64
  3
---------    -    -    ---------
 72
   65
 73
    6
 40
11
 49
6
 49
-1.5
 49
0.25
 49
-1.5
 49
0.25
 49
-1.5
  0
LTYPE
  2
double-dashed_double-dotted
 70
   64
  3
-----   ---------   -   -   ----
 72
   65
 73
    8
 40
18.5
 49
6
 49
-1.5
 49
6
 49
-1.5
 49
0.25
 49
-1.5
 49
0.25
 49
-1.5
  0
LTYPE
  2
dashed_triplicate-dotted
 70
   64
  3
-------    -    -    -    ------
 72
   65
 73
    8
 40
12.75
 49
6
 49
-1.5
 49
0.25
 49
-1.5
 49
0.25
 49
-1.5
 49
0.25
 49
-1.5
  0
LTYPE
  2
double-dashed_triplicate-dotted
 70
   64
  3
-----  ---------  -  -  -  -----
 72
   65
 73
   10
 40
20.25
 49
6
 49
-1.5
 49
6
 49
-1.5
 49
0.25
 49
-1.5
 49
0.25
 49
-1.5
 49
0.25
 49
-1.5
  0
LTYPE
  2
undefined
 70
   64
  3
--------------------------------
 72
   65
 73
    0
 40
0
  0
ENDTAB
  0
TABLE
  2
STYLE
  5
3
100
AcDbSymbolTable
 70
     1
  0
STYLE
  5
10
100
AcDbSymbolTableRecord
100
AcDbTextStyleTableRecord
  2
STANDARD
 70
     0
 40
0.0
 41
1.0
 50
0.0
 71
     0
 42
0.2
  3
txt
  4
bigfont.shx
  0
STYLE
  5
26
100
AcDbSymbolTableRecord
100
AcDbTextStyleTableRecord
  2
TATEGAKI
 70
    68
 40
0.0
 41
1.0
 50
0.0
 71
     0
 42
1.0
  3
txt
  4
bigfont.shx
  0
ENDTAB
  0
TABLE
  2
LAYER
 70
    5
  0
LAYER
  2
_0-0_
 70
   64
 62
    7
  6
CONTINUOUS
  0
LAYER
  2
_1-0_
 70
   64
 62
    7
  6
CONTINUOUS
  0
LAYER
  2
_1-2_
 70
   64
 62
    7
  6
CONTINUOUS
  0
LAYER
  2
_1-3_
 70
   64
 62
    7
  6
CONTINUOUS
  0
LAYER
  2
ADD_LINE
 70
   64
 62
    7
  6
CONTINUOUS
  0
ENDTAB
  0
ENDSEC
  0
SECTION
  2
BLOCKS
  0
ENDSEC
  0
SECTION
  2
ENTITIES
  0
LINE
  8
_0-0_
  6
CONTINUOUS
 62
    5
 10
6.7567526327597136
 20
280.13513513513516
 11
406.75677325274495
 21
280.13513513513516
  0
LINE
  8
_0-0_
  6
CONTINUOUS
 62
    5
 10
406.75677325274495
 20
10.13513513513513
 11
6.7567526327597136
 21
10.13513513513513
  0
LINE
  8
_0-0_
  6
CONTINUOUS
 62
    5
 10
406.75677325274495
 20
30.135133073136615
 11
6.7567402607685949
 21
30.135133073136615
  0
LINE
  8
_0-0_
  6
CONTINUOUS
 62
    5
 10
371.75678150073907
 20
10.13513513513513
 11
371.75678150073907
 21
30.135133073136615
  0
LINE
  8
_0-0_
  6
CONTINUOUS
 62
    5
 10
137.02703939901818
 20
30.135133073136615
 11
137.02703939901818
 21
10.13513513513513
  0
LINE
  8
_0-0_
  6
CONTINUOUS
 62
    5
 10
214.86486486486487
 20
30.135133073136615
 11
214.86486486486487
 21
10.13513513513513
  0
LINE
  8
_0-0_
  6
CONTINUOUS
 62
    5
 10
137.02703939901818
 20
20.135134104135886
 11
214.86486486486487
 21
20.135134104135886
  0
LINE
  8
_0-0_
  6
CONTINUOUS
 62
    5
 10
396.48648648648651
 20
25.945945945945951
 11
383.91891891891896
 21
13.378379924877265
  0
LINE
  8
_1-0_
  6
CONTINUOUS
 62
    7
 10
272.36933527766047
 20
155.8612802866343
 11
270.89202056059969
 21
159.14420050543708
  0
LINE
  8
_1-0_
  6
CONTINUOUS
 62
    7
 10
270.89202056059969
 20
159.14420050543708
 11
275.2692557669975
 21
161.11394521352409
  0
LINE
  8
_1-0_
  6
CONTINUOUS
 62
    7
 10
275.2692557669975
 20
161.11394521352409
 11
276.74657048405828
 21
157.8310249947213
  0
LINE
  8
_1-0_
  6
CONTINUOUS
 62
    7
 10
276.74657048405828
 20
157.8310249947213
 11
272.36933527766047
 21
155.8612802866343
  0
LINE
  8
_1-0_
  6
CONTINUOUS
 62
    7
 10
270.89202056059969
 20
159.14420050543708
 11
276.74657048405828
 21
157.8310249947213
  0
LINE
  8
_1-0_
  6
CONTINUOUS
 62
    7
 10
322.68916774440459
 20
182.4529080777555
 11
324.16648246146536
 21
179.16998785895271
  0
LINE
  8
_1-0_
  6
CONTINUOUS
 62
    7
 10
324.16648246146536
 20
179.16998785895271
 11
319.78924725506761
 21
177.20024315086573
  0
LINE
  8
_1-0_
  6
CONTINUOUS
 62
    7
 10
370.10907972181167
 20
203.79187094198693
 11
371.5863944388725
 21
200.50895072318414
  0
LINE
  8
_1-0_
  6
CONTINUOUS
 62
    7
 10
371.5863944388725
 20
200.50895072318414
 11
367.20915923247469
 21
198.53920601509714
  0
LINE
  8
_1-2_
  6
CONTINUOUS
 62
    3
 10
276.36781434755068
 20
158.87273427602409
 11
278.18736308329818
 21
159.48455398147172
  0
LINE
  8
ADD_LINE
  6
DOT
 62
    7
 10
274.70754262563344
 20
164.11699862093539
 11
274.53485437341641
 21
164.69192504882813
  0
LINE
  8
_1-2_
  6
CONTINUOUS
 62
    3
 10
274.53485437341641
 20
164.69192504882813
 11
274.70754262563344
 21
164.11699862093539
  0
LINE
  8
_1-2_
  6
CONTINUOUS
 62
    3
 10
275.57105811866558
 20
161.24229224952492
 11
276.37038772170609
 21
158.86507601351352
  0
LINE
  8
_1-2_
  6
CONTINUOUS
 62
    3
 10
219.75422627217063
 20
141.62777462521115
 11
220.51292625633448
 21
141.88288508234797
  0
LINE
  8
_1-2_
  6
CONTINUOUS
 62
    3
 10
221.68603845544766
 20
143.12356072503167
 11
275.57105811866558
 21
161.24229224952492
  0
LINE
  8
_1-2_
  6
CONTINUOUS
 62
    3
 10
220.64654376055745
 20
141.4380625131968
 11
220.51292625633448
 21
141.88288508234797
  0
LINE
  8
_1-2_
  6
CONTINUOUS
 62
    3
 10
219.89160486169766
 20
141.17046871700802
 11
219.75422627217063
 21
141.62777462521115
  0
LINE
  8
_1-2_
  6
CONTINUOUS
 62
    3
 10
221.37599635768584
 20
141.46546647355365
 11
220.9018274255701
 21
141.3060286238387
  0
LINE
  8
_1-2_
  6
CONTINUOUS
 62
    3
 10
221.50379902607688
 20
141.71257225242823
 11
221.30265519425677
 21
142.38224338840794
  0
LINE
  8
_1-2_
  6
CONTINUOUS
 62
    3
 10
219.28963326119089
 20
140.76392508841852
 11
219.76380219330659
 21
140.92336293813347
  0
LINE
  8
_1-2_
  6
CONTINUOUS
 62
    3
 10
274.53485437341641
 20
164.69192504882813
 11
276.43155484586151
 21
165.32970119167018
  0
LINE
  8
_1-2_
  6
CONTINUOUS
 62
    3
 10
278.18736308329818
 20
159.48455398147172
 11
276.43155484586151
 21
165.32970119167018
  0
LINE
  8
_1-0_
  6
CONTINUOUS
 62
    7
 10
322.68916774440459
 20
182.45289570576438
 11
324.16648246146536
 21
179.16997548696159
  0
LINE
  8
_1-0_
  6
CONTINUOUS
 62
    7
 10
324.16648246146536
 20
179.16997548696159
 11
319.78924725506761
 21
177.20023077887458
  0
LINE
  8
_1-2_
  6
CONTINUOUS
 62
    3
 10
323.77864528346709
 20
180.20835670264992
 11
325.59279983108109
 21
180.83602492873734
  0
LINE
  8
ADD_LINE
  6
DOT
 62
    7
 10
322.07269617029141
 20
185.43793549408784
 11
321.89496014569261
 21
186.01132779508023
  0
LINE
  8
_1-2_
  6
CONTINUOUS
 62
    3
 10
321.89496014569261
 20
186.01132779508023
 11
322.07269617029141
 21
185.43793549408784
  0
LINE
  8
_1-2_
  6
CONTINUOUS
 62
    3
 10
322.96125257337417
 20
182.57086264120568
 11
323.78129288956927
 21
180.2007108121305
  0
LINE
  8
_1-2_
  6
CONTINUOUS
 62
    3
 10
267.31772757865286
 20
162.47001441749367
 11
268.07412637246625
 21
162.73173151789484
  0
LINE
  8
_1-2_
  6
CONTINUOUS
 62
    3
 10
269.23640070734797
 20
163.98260168127112
 11
322.96125257337417
 21
182.57086264120568
  0
LINE
  8
_1-2_
  6
CONTINUOUS
 62
    3
 10
268.21162868190459
 20
162.28809665989232
 11
268.07412637246625
 21
162.73173151789484
  0
LINE
  8
_1-2_
  6
CONTINUOUS
 62
    3
 10
268.94080909522808
 20
162.32185982369089
 11
268.46807531408365
 21
162.1582773569468
  0
LINE
  8
_1-2_
  6
CONTINUOUS
 62
    3
 10
269.06645903716219
 20
162.5700667097762
 11
268.85947562552786
 21
163.23795627903294
  0
LINE
  8
_1-2_
  6
CONTINUOUS
 62
    3
 10
266.86065673828125
 20
161.60213161159206
 11
267.33344000739021
 21
161.76571407833615
  0
LINE
  8
_1-2_
  6
CONTINUOUS
 62
    3
 10
322.07269617029141
 20
185.43793549408784
 11
265.34060916385135
 21
165.80917770798143
  0
LINE
  8
_1-2_
  6
CONTINUOUS
 62
    3
 10
266.60423485008448
 20
161.73193854254646
 11
265.34060916385135
 21
165.80917770798143
  0
LINE
  8
_1-2_
  6
CONTINUOUS
 62
    3
 10
325.59279983108109
 20
180.83602492873734
 11
323.78604373416385
 21
186.66563291807432
  0
LINE
  8
_1-2_
  6
CONTINUOUS
 62
    7
 10
265.34060916385135
 20
165.80917770798143
 11
260.63217575485641
 21
179.41765037742823
  0
LINE
  8
_1-0_
  6
CONTINUOUS
 62
    7
 10
319.78924725506761
 20
177.20024315086573
 11
318.32908011771536
 21
180.44509475295609
  0
LINE
  8
_1-0_
  6
CONTINUOUS
 62
    7
 10
319.78924725506761
 20
177.20023077887458
 11
318.32905537373313
 21
180.44508238096495
  0
LINE
  8
_1-0_
  6
CONTINUOUS
 62
    7
 10
318.32908011771536
 20
180.44509475295609
 11
324.16648246146536
 21
179.16998785895271
  0
LINE
  8
_1-2_
  6
CONTINUOUS
 62
    7
 10
276.43155484586151
 20
165.32970119167018
 11
276.08748977248734
 21
166.35300095016893
  0
LINE
  8
_1-0_
  6
CONTINUOUS
 62
    7
 10
274.53485437341641
 20
164.69192504882813
 11
274.22904349662161
 21
165.71000382706927
  0
LINE
  8
_1-0_
  6
CONTINUOUS
 62
    7
 10
370.10907972181167
 20
203.79187094198693
 11
371.5863944388725
 21
200.50895072318414
  0
LINE
  8
_1-0_
  6
CONTINUOUS
 62
    7
 10
371.5863944388725
 20
200.50895072318414
 11
367.20915923247469
 21
198.53920601509714
  0
LINE
  8
_1-0_
  6
CONTINUOUS
 62
    7
 10
370.10907972181167
 20
203.79185856999578
 11
371.5863944388725
 21
200.508938351193
  0
LINE
  8
_1-0_
  6
CONTINUOUS
 62
    7
 10
371.5863944388725
 20
200.508938351193
 11
367.20915923247469
 21
198.53919364310602
  0
LINE
  8
_1-2_
  6
CONTINUOUS
 62
    3
 10
371.19855726087417
 20
201.54731956688136
 11
373.01271180848818
 21
202.17498779296875
  0
LINE
  8
ADD_LINE
  6
DOT
 62
    7
 10
369.49260814769849
 20
206.77689835831927
 11
369.31487212309969
 21
207.35029065931167
  0
LINE
  8
_1-2_
  6
CONTINUOUS
 62
    3
 10
369.31487212309969
 20
207.35029065931167
 11
369.49260814769849
 21
206.77689835831927
  0
LINE
  8
_1-2_
  6
CONTINUOUS
 62
    3
 10
370.38116455078125
 20
203.90982550543708
 11
371.20120486697635
 21
201.53967367636193
  0
LINE
  8
_1-2_
  6
CONTINUOUS
 62
    3
 10
314.73763955606
 20
183.80897728172511
 11
315.49403834987334
 21
184.07069438212628
  0
LINE
  8
_1-2_
  6
CONTINUOUS
 62
    3
 10
316.65631268475511
 20
185.32156454550255
 11
370.38116455078125
 21
203.90982550543708
  0
LINE
  8
_1-2_
  6
CONTINUOUS
 62
    3
 10
315.63154065931167
 20
183.62705952412375
 11
315.49403834987334
 21
184.07069438212628
  0
LINE
  8
_1-2_
  6
CONTINUOUS
 62
    3
 10
314.87900192673146
 20
183.35288382865289
 11
314.73763955606
 21
183.80897728172511
  0
LINE
  8
_1-2_
  6
CONTINUOUS
 62
    3
 10
316.36072107263516
 20
183.66082268792232
 11
315.88798729149073
 21
183.49724022117823
  0
LINE
  8
_1-2_
  6
CONTINUOUS
 62
    3
 10
316.48637101456927
 20
183.9090295740076
 11
316.279387602935
 21
184.57691914326438
  0
LINE
  8
_1-2_
  6
CONTINUOUS
 62
    3
 10
314.28056871568839
 20
182.94109447582349
 11
314.75335198479729
 21
183.10467694256758
  0
LINE
  8
_1-2_
  6
CONTINUOUS
 62
    3
 10
369.49260814769849
 20
206.77689835831927
 11
312.76052114125844
 21
187.14814057221284
  0
LINE
  8
_1-2_
  6
CONTINUOUS
 62
    3
 10
314.02414682749156
 20
183.07090140677789
 11
312.76052114125844
 21
187.14814057221284
  0
LINE
  8
_1-2_
  6
CONTINUOUS
 62
    3
 10
373.01271180848818
 20
202.17498779296875
 11
371.20595571157099
 21
208.00459578230576
  0
LINE
  8
_1-2_
  6
CONTINUOUS
 62
    7
 10
312.76052114125844
 20
187.14814057221284
 11
308.05208773226354
 21
200.75661324165964
  0
LINE
  8
_1-0_
  6
CONTINUOUS
 62
    7
 10
367.20915923247469
 20
198.53920601509714
 11
365.7489920951225
 21
201.7840576171875
  0
LINE
  8
_1-0_
  6
CONTINUOUS
 62
    7
 10
367.20915923247469
 20
198.53919364310602
 11
365.74896735114021
 21
201.78404524519638
  0
LINE
  8
_1-0_
  6
CONTINUOUS
 62
    7
 10
365.74896735114021
 20
201.78404524519638
 11
370.08050042229729
 21
203.77884323532518
  0
LINE
  8
_1-0_
  6
CONTINUOUS
 62
    7
 10
365.7489920951225
 20
201.7840576171875
 11
371.5863944388725
 21
200.50895072318414
  0
LINE
  8
_1-2_
  6
CONTINUOUS
 62
    3
 10
362.15757627744932
 20
205.14794014595651
 11
362.91395032728042
 21
205.40965724635771
  0
LINE
  8
_1-2_
  6
CONTINUOUS
 62
    3
 10
363.05147738070104
 20
204.96602238835516
 11
362.91395032728042
 21
205.40965724635771
  0
LINE
  8
_1-2_
  6
CONTINUOUS
 62
    3
 10
362.29891390413854
 20
204.6918466928843
 11
362.15757627744932
 21
205.14794014595651
  0
LINE
  8
_1-2_
  6
CONTINUOUS
 62
    3
 10
363.78068253800677
 20
204.99978555215372
 11
363.30792401288011
 21
204.83620308540964
  0
LINE
  8
_1-2_
  6
CONTINUOUS
 62
    3
 10
363.90630773595865
 20
205.24799243823904
 11
363.69932432432432
 21
205.91588200749578
  0
LINE
  8
_1-2_
  6
CONTINUOUS
 62
    3
 10
361.70050543707771
 20
204.28005734005492
 11
362.17326396220443
 21
204.44363980679898
  0
LINE
  8
_1-2_
  6
CONTINUOUS
 62
    3
 10
361.44405880489865
 20
204.4098642710093
 11
360.18043311866558
 21
208.48710343644427
  0
LINE
  8
_1-2_
  6
CONTINUOUS
 62
    7
 10
360.18043311866558
 20
208.48710343644427
 11
355.47204919763516
 21
222.09557610589107
  0
LINE
  8
_1-2_
  6
CONTINUOUS
 62
    7
 10
309.57611908783787
 20
196.35178849503802
 11
260.63217575485641
 21
179.41765037742823
  0
LINE
  8
_1-2_
  6
CONTINUOUS
 62
    7
 10
323.78604373416385
 20
186.66563291807432
 11
323.43910835884714
 21
187.6683333113387
  0
LINE
  8
_1-2_
  6
CONTINUOUS
 62
    3
 10
321.89496014569261
 20
186.01132779508023
 11
323.78606847814615
 21
186.66563291807432
  0
LINE
  8
ADD_LINE
  6
DOT
 62
    7
 10
325.59279983108109
 20
180.83602492873734
 11
323.78606847814615
 21
186.66563291807432
  0
LINE
  8
_1-2_
  6
CONTINUOUS
 62
    7
 10
321.89496014569261
 20
186.01132779508023
 11
321.5806868269637
 21
187.02534856023016
  0
LINE
  8
ADD_LINE
  6
DOT
 62
    7
 10
373.01271180848818
 20
202.17498779296875
 11
371.20598045555323
 21
208.00459578230576
  0
LINE
  8
_1-2_
  6
CONTINUOUS
 62
    3
 10
369.31487212309969
 20
207.35029065931167
 11
371.20598045555323
 21
208.00459578230576
  0
LINE
  8
_1-2_
  6
CONTINUOUS
 62
    7
 10
356.99605580922724
 20
217.69075135926943
 11
308.05208773226354
 21
200.75661324165964
  0
LINE
  8
_1-2_
  6
CONTINUOUS
 62
    7
 10
371.20595571157099
 20
208.00459578230576
 11
370.85902033625422
 21
209.0072961755701
  0
LINE
  8
_1-0_
  6
CONTINUOUS
 62
    7
 10
318.32905537373313
 20
180.44508238096495
 11
322.68914300042229
 21
182.45301942567568
  0
LINE
  8
_1-3_
  6
CONTINUOUS
 62
    7
 10
301.62162162162161
 20
118.41102806297509
 11
288.73055122994089
 21
118.41102806297509
  0
LINE
  8
_1-3_
  6
CONTINUOUS
 62
    7
 10
298.86675035631339
 20
186.83397860140414
 11
288.72038145323057
 21
214.71085831925677
  0
LINE
  8
_1-3_
  6
CONTINUOUS
 62
    7
 10
288.72038145323057
 20
214.71085831925677
 11
287.44651175834036
 21
214.71085831925677
  0
LINE
  8
_1-0_
  6
CONTINUOUS
 62
    7
 10
124.06438466664908
 20
155.8612802866343
 11
125.54169938370988
 21
159.14420050543708
  0
LINE
  8
_1-0_
  6
CONTINUOUS
 62
    7
 10
125.54169938370988
 20
159.14420050543708
 11
121.16447654930322
 21
161.11394521352409
  0
LINE
  8
_1-0_
  6
CONTINUOUS
 62
    7
 10
121.16447654930322
 20
161.11394521352409
 11
119.68716183224241
 21
157.8310249947213
  0
LINE
  8
_1-0_
  6
CONTINUOUS
 62
    7
 10
119.68716183224241
 20
157.8310249947213
 11
124.06438466664908
 21
155.8612802866343
  0
LINE
  8
_1-0_
  6
CONTINUOUS
 62
    7
 10
125.54169938370988
 20
159.14420050543708
 11
119.68716183224241
 21
157.8310249947213
  0
LINE
  8
_1-0_
  6
CONTINUOUS
 62
    7
 10
73.74456457189612
 20
182.4529080777555
 11
72.267249854835313
 21
179.16998785895271
  0
LINE
  8
_1-0_
  6
CONTINUOUS
 62
    7
 10
72.267249854835313
 20
179.16998785895271
 11
76.644485061233127
 21
177.20024315086573
  0
LINE
  8
_1-0_
  6
CONTINUOUS
 62
    7
 10
26.32465259448901
 20
203.79187094198693
 11
24.847337877428203
 21
200.50895072318414
  0
LINE
  8
_1-0_
  6
CONTINUOUS
 62
    7
 10
24.847337877428203
 20
200.50895072318414
 11
29.224573083826016
 21
198.53920601509714
  0
LINE
  8
_1-2_
  6
CONTINUOUS
 62
    3
 10
120.06591796875
 20
158.87273427602409
 11
118.24636923300254
 21
159.48455398147172
  0
LINE
  8
ADD_LINE
  6
DOT
 62
    7
 10
121.72618969066724
 20
164.11699862093539
 11
121.8988779428843
 21
164.69192504882813
  0
LINE
  8
_1-2_
  6
CONTINUOUS
 62
    3
 10
121.8988779428843
 20
164.69192504882813
 11
121.72618969066724
 21
164.11699862093539
  0
LINE
  8
_1-2_
  6
CONTINUOUS
 62
    3
 10
120.86267419763514
 20
161.24229224952492
 11
120.0633445945946
 21
158.86507601351352
  0
LINE
  8
_1-2_
  6
CONTINUOUS
 62
    3
 10
176.67949367213893
 20
141.62777462521115
 11
175.92081843195737
 21
141.88288508234797
  0
LINE
  8
_1-2_
  6
CONTINUOUS
 62
    3
 10
174.74769386085305
 20
143.12356072503167
 11
120.86267419763514
 21
161.24229224952492
  0
LINE
  8
_1-2_
  6
CONTINUOUS
 62
    3
 10
175.78720092773437
 20
141.4380625131968
 11
175.92081843195737
 21
141.88288508234797
  0
LINE
  8
_1-2_
  6
CONTINUOUS
 62
    3
 10
176.54212745460305
 20
141.17046871700802
 11
176.67949367213893
 21
141.62777462521115
  0
LINE
  8
_1-2_
  6
CONTINUOUS
 62
    3
 10
175.05773595861487
 20
141.46546647355365
 11
175.53190489073057
 21
141.3060286238387
  0
LINE
  8
_1-2_
  6
CONTINUOUS
 62
    3
 10
174.92993329022383
 20
141.71257225242823
 11
175.13108949403505
 21
142.38224338840794
  0
LINE
  8
_1-2_
  6
CONTINUOUS
 62
    3
 10
177.14411142710094
 20
140.76392508841852
 11
176.66993012299409
 21
140.92336293813347
  0
LINE
  8
_1-2_
  6
CONTINUOUS
 62
    3
 10
121.8988779428843
 20
164.69192504882813
 11
120.00217747043919
 21
165.32970119167018
  0
LINE
  8
_1-2_
  6
CONTINUOUS
 62
    3
 10
118.24636923300254
 20
159.48455398147172
 11
120.00217747043919
 21
165.32970119167018
  0
LINE
  8
_1-0_
  6
CONTINUOUS
 62
    7
 10
73.74456457189612
 20
182.45289570576438
 11
72.267249854835313
 21
179.16997548696159
  0
LINE
  8
_1-0_
  6
CONTINUOUS
 62
    7
 10
72.267249854835313
 20
179.16997548696159
 11
76.644485061233127
 21
177.20023077887458
  0
LINE
  8
_1-2_
  6
CONTINUOUS
 62
    3
 10
72.65508703283362
 20
180.20835670264992
 11
70.840932485219582
 21
180.83602492873734
  0
LINE
  8
ADD_LINE
  6
DOT
 62
    7
 10
74.361036146009297
 20
185.43793549408784
 11
74.538772170608127
 21
186.01132779508023
  0
LINE
  8
_1-2_
  6
CONTINUOUS
 62
    3
 10
74.538772170608127
 20
186.01132779508023
 11
74.361036146009297
 21
185.43793549408784
  0
LINE
  8
_1-2_
  6
CONTINUOUS
 62
    3
 10
73.47247974292651
 20
182.57086264120568
 11
72.652439426731405
 21
180.2007108121305
  0
LINE
  8
_1-2_
  6
CONTINUOUS
 62
    3
 10
129.11600473764781
 20
162.47001441749367
 11
128.3596183158256
 21
162.73173151789484
  0
LINE
  8
_1-2_
  6
CONTINUOUS
 62
    3
 10
127.19731923696158
 20
163.98260168127112
 11
73.47247974292651
 21
182.57086264120568
  0
LINE
  8
_1-2_
  6
CONTINUOUS
 62
    3
 10
128.22210363439612
 20
162.28809665989232
 11
128.3596183158256
 21
162.73173151789484
  0
LINE
  8
_1-2_
  6
CONTINUOUS
 62
    3
 10
128.9746547389675
 20
162.01392096442146
 11
129.11600473764781
 21
162.47001441749367
  0
LINE
  8
_1-2_
  6
CONTINUOUS
 62
    3
 10
127.49291084908151
 20
162.32185982369089
 11
127.96565700221707
 21
162.1582773569468
  0
LINE
  8
_1-2_
  6
CONTINUOUS
 62
    3
 10
127.36727327913852
 20
162.5700667097762
 11
127.57425669077281
 21
163.23795627903294
  0
LINE
  8
_1-2_
  6
CONTINUOUS
 62
    3
 10
129.57307557801943
 20
161.60213161159206
 11
129.10030468090162
 21
161.76571407833615
  0
LINE
  8
_1-2_
  6
CONTINUOUS
 62
    3
 10
74.361036146009297
 20
185.43793549408784
 11
131.09313552444047
 21
165.80917770798143
  0
LINE
  8
_1-2_
  6
CONTINUOUS
 62
    3
 10
129.82950983820734
 20
161.73193854254646
 11
131.09313552444047
 21
165.80917770798143
  0
LINE
  8
_1-2_
  6
CONTINUOUS
 62
    3
 10
70.840932485219582
 20
180.83602492873734
 11
72.647688582136823
 21
186.66563291807432
  0
LINE
  8
_1-2_
  6
CONTINUOUS
 62
    7
 10
131.09313552444047
 20
165.80917770798143
 11
135.80154418945313
 21
179.41765037742823
  0
LINE
  8
_1-0_
  6
CONTINUOUS
 62
    7
 10
76.644485061233127
 20
177.20024315086573
 11
78.104652198585313
 21
180.44509475295609
  0
LINE
  8
_1-0_
  6
CONTINUOUS
 62
    7
 10
76.644485061233127
 20
177.20023077887458
 11
78.104676942567551
 21
180.44508238096495
  0
LINE
  8
_1-0_
  6
CONTINUOUS
 62
    7
 10
78.104652198585313
 20
180.44509475295609
 11
72.267249854835313
 21
179.16998785895271
  0
LINE
  8
_1-2_
  6
CONTINUOUS
 62
    7
 10
120.00217747043919
 20
165.32970119167018
 11
120.34624254381335
 21
166.35300095016893
  0
LINE
  8
_1-0_
  6
CONTINUOUS
 62
    7
 10
121.8988779428843
 20
164.69192504882813
 11
122.20468881967906
 21
165.71000382706927
  0
LINE
  8
_1-0_
  6
CONTINUOUS
 62
    7
 10
26.32465259448901
 20
203.79187094198693
 11
24.847337877428203
 21
200.50895072318414
  0
LINE
  8
_1-0_
  6
CONTINUOUS
 62
    7
 10
24.847337877428203
 20
200.50895072318414
 11
29.224573083826016
 21
198.53920601509714
  0
LINE
  8
_1-0_
  6
CONTINUOUS
 62
    7
 10
26.32465259448901
 20
203.79185856999578
 11
24.847337877428203
 21
200.508938351193
  0
LINE
  8
_1-0_
  6
CONTINUOUS
 62
    7
 10
24.847337877428203
 20
200.508938351193
 11
29.224573083826016
 21
198.53919364310602
  0
LINE
  8
_1-2_
  6
CONTINUOUS
 62
    3
 10
25.23517505542651
 20
201.54731956688136
 11
23.4210205078125
 21
202.17498779296875
  0
LINE
  8
ADD_LINE
  6
DOT
 62
    7
 10
26.941124168602187
 20
206.77689835831927
 11
27.118860193201016
 21
207.35029065931167
  0
LINE
  8
_1-2_
  6
CONTINUOUS
 62
    3
 10
27.118860193201016
 20
207.35029065931167
 11
26.941124168602187
 21
206.77689835831927
  0
LINE
  8
_1-2_
  6
CONTINUOUS
 62
    3
 10
26.052567765519427
 20
203.90982550543708
 11
25.232527449324323
 21
201.53967367636193
  0
LINE
  8
_1-2_
  6
CONTINUOUS
 62
    3
 10
81.696092760240731
 20
183.80897728172511
 11
80.93969396642737
 21
184.07069438212628
  0
LINE
  8
_1-2_
  6
CONTINUOUS
 62
    3
 10
79.777419631545627
 20
185.32156454550255
 11
26.052567765519427
 21
203.90982550543708
  0
LINE
  8
_1-2_
  6
CONTINUOUS
 62
    3
 10
80.80219165698901
 20
183.62705952412375
 11
80.93969396642737
 21
184.07069438212628
  0
LINE
  8
_1-2_
  6
CONTINUOUS
 62
    3
 10
81.554730389569272
 20
183.35288382865289
 11
81.696092760240731
 21
183.80897728172511
  0
LINE
  8
_1-2_
  6
CONTINUOUS
 62
    3
 10
80.073011243665547
 20
183.66082268792232
 11
80.545745024809975
 21
183.49724022117823
  0
LINE
  8
_1-2_
  6
CONTINUOUS
 62
    3
 10
79.947361301731405
 20
183.9090295740076
 11
80.154344713365731
 21
184.57691914326438
  0
LINE
  8
_1-2_
  6
CONTINUOUS
 62
    3
 10
82.153163600612331
 20
182.94109447582349
 11
81.680380331503386
 21
183.10467694256758
  0
LINE
  8
_1-2_
  6
CONTINUOUS
 62
    3
 10
26.941124168602187
 20
206.77689835831927
 11
83.67321117504224
 21
187.14814057221284
  0
LINE
  8
_1-2_
  6
CONTINUOUS
 62
    3
 10
82.409585488809128
 20
183.07090140677789
 11
83.67321117504224
 21
187.14814057221284
  0
LINE
  8
_1-2_
  6
CONTINUOUS
 62
    3
 10
23.4210205078125
 20
202.17498779296875
 11
25.22777660472974
 21
208.00459578230576
  0
LINE
  8
_1-2_
  6
CONTINUOUS
 62
    7
 10
83.67321117504224
 20
187.14814057221284
 11
88.381644584037161
 21
200.75661324165964
  0
LINE
  8
_1-0_
  6
CONTINUOUS
 62
    7
 10
29.224573083826016
 20
198.53920601509714
 11
30.684740221178203
 21
201.7840576171875
  0
LINE
  8
_1-0_
  6
CONTINUOUS
 62
    7
 10
29.224573083826016
 20
198.53919364310602
 11
30.684764965160468
 21
201.78404524519638
  0
LINE
  8
_1-0_
  6
CONTINUOUS
 62
    7
 10
30.684764965160468
 20
201.78404524519638
 11
26.353231894003386
 21
203.77884323532518
  0
LINE
  8
_1-0_
  6
CONTINUOUS
 62
    7
 10
30.684740221178203
 20
201.7840576171875
 11
24.847337877428203
 21
200.50895072318414
  0
LINE
  8
_1-2_
  6
CONTINUOUS
 62
    3
 10
34.276156038851354
 20
205.14794014595651
 11
33.51978198902026
 21
205.40965724635771
  0
LINE
  8
_1-2_
  6
CONTINUOUS
 62
    3
 10
33.382254935599661
 20
204.96602238835516
 11
33.51978198902026
 21
205.40965724635771
  0
LINE
  8
_1-2_
  6
CONTINUOUS
 62
    3
 10
34.134818412162161
 20
204.6918466928843
 11
34.276156038851354
 21
205.14794014595651
  0
LINE
  8
_1-2_
  6
CONTINUOUS
 62
    3
 10
32.653049778293905
 20
204.99978555215372
 11
33.125808303420627
 21
204.83620308540964
  0
LINE
  8
_1-2_
  6
CONTINUOUS
 62
    3
 10
32.527424580342057
 20
205.24799243823904
 11
32.734407991976354
 21
205.91588200749578
  0
LINE
  8
_1-2_
  6
CONTINUOUS
 62
    3
 10
34.733226879222968
 20
204.28005734005492
 11
34.260468354096275
 21
204.44363980679898
  0
LINE
  8
_1-2_
  6
CONTINUOUS
 62
    3
 10
34.989673511402032
 20
204.4098642710093
 11
36.25329919763513
 21
208.48710343644427
  0
LINE
  8
_1-2_
  6
CONTINUOUS
 62
    7
 10
36.25329919763513
 20
208.48710343644427
 11
40.961683118665547
 21
222.09557610589107
  0
LINE
  8
_1-2_
  6
CONTINUOUS
 62
    7
 10
86.857613228462839
 20
196.35178849503802
 11
135.80154418945313
 21
179.41765037742823
  0
LINE
  8
_1-2_
  6
CONTINUOUS
 62
    7
 10
72.647688582136823
 20
186.66563291807432
 11
72.994623957453541
 21
187.6683333113387
  0
LINE
  8
_1-2_
  6
CONTINUOUS
 62
    3
 10
74.538772170608127
 20
186.01132779508023
 11
72.647663838154585
 21
186.66563291807432
  0
LINE
  8
ADD_LINE
  6
DOT
 62
    7
 10
70.840932485219582
 20
180.83602492873734
 11
72.647663838154585
 21
186.66563291807432
  0
LINE
  8
_1-2_
  6
CONTINUOUS
 62
    7
 10
74.538772170608127
 20
186.01132779508023
 11
74.853045489336978
 21
187.02534856023016
  0
LINE
  8
ADD_LINE
  6
DOT
 62
    7
 10
23.4210205078125
 20
202.17498779296875
 11
25.227751860747475
 21
208.00459578230576
  0
LINE
  8
_1-2_
  6
CONTINUOUS
 62
    3
 10
27.118860193201016
 20
207.35029065931167
 11
25.227751860747475
 21
208.00459578230576
  0
LINE
  8
_1-2_
  6
CONTINUOUS
 62
    7
 10
39.43767650707349
 20
217.69075135926943
 11
88.381644584037161
 21
200.75661324165964
  0
LINE
  8
_1-2_
  6
CONTINUOUS
 62
    7
 10
25.22777660472974
 20
208.00459578230576
 11
25.574711980046459
 21
209.0072961755701
  0
LINE
  8
_1-0_
  6
CONTINUOUS
 62
    7
 10
78.104676942567551
 20
180.44508238096495
 11
73.744589315878386
 21
182.45301942567568
  0
LINE
  8
_1-2_
  6
CONTINUOUS
 62
    3
 10
364.07627415012672
 20
206.66052740973396
 11
375.40540540540542
 21
210.58029587204393
  0
LINE
  8
_1-2_
  6
CONTINUOUS
 62
    3
 10
375.40540540540542
 20
213.75480033255914
 11
360.18043311866558
 21
208.48710343644427
  0
LINE
  8
_1-2_
  6
CONTINUOUS
 62
    7
 10
375.40540540540542
 20
228.99234256228885
 11
355.47204919763516
 21
222.09557610589107
  0
LINE
  8
_1-2_
  6
CONTINUOUS
 62
    3
 10
32.357458166173984
 20
206.66052740973396
 11
17.027027027027032
 21
211.96469693570523
  0
LINE
  8
_1-2_
  6
CONTINUOUS
 62
    3
 10
17.027027027027032
 20
215.13920139622044
 11
36.25329919763513
 21
208.48710343644427
  0
LINE
  8
_1-2_
  6
CONTINUOUS
 62
    7
 10
17.027027027027032
 20
230.37674362595018
 11
40.961683118665547
 21
222.09557610589107
  0
LINE
  8
_1-0_
  6
CONTINUOUS
 62
    7
 10
198.21686615815034
 20
120.73812536291175
 11
375.40540540540542
 21
200.472972972973
  0
LINE
  8
_1-0_
  6
CONTINUOUS
 62
    7
 10
198.21686615815034
 20
120.73812536291175
 11
17.027027027027032
 21
202.27354307432432
  0
LINE
  8
_1-0_
  6
CONTINUOUS
 62
    7
 10
197.82883102829393
 20
122.66728994008658
 11
17.027027027027032
 21
204.02808936866555
  0
LINE
  8
_1-2_
  6
CONTINUOUS
 62
    7
 10
197.82883102829393
 20
122.66728994008658
 11
197.58261603278083
 21
122.1201262602935
  0
LINE
  8
_1-0_
  6
CONTINUOUS
 62
    7
 10
197.58261603278083
 20
122.1201262602935
 11
17.027027027027032
 21
203.37014688027872
  0
LINE
  8
_1-0_
  6
CONTINUOUS
 62
    7
 10
198.8267063450169
 20
122.10915230415964
 11
375.40540540540542
 21
201.56956440693625
  0
LINE
  8
_1-0_
  6
CONTINUOUS
 62
    7
 10
198.5804913495038
 20
122.65630361196158
 11
375.40540540540542
 21
202.22750689532307
  0
LINE
  8
_1-2_
  6
CONTINUOUS
 62
    3
 10
198.21686615815034
 20
123.79408140440246
 11
229.22218941353464
 21
137.74647068332982
  0
LINE
  8
_1-2_
  6
CONTINUOUS
 62
    7
 10
227.36968169341216
 20
143.75491580447635
 11
235.13741158150339
 21
145.98814680769638
  0
LINE
  8
_1-2_
  6
CONTINUOUS
 62
    7
 10
227.36968169341216
 20
143.75491580447635
 11
230.41712580500425
 21
136.98279715873102
  0
LINE
  8
_1-2_
  6
CONTINUOUS
 62
    7
 10
235.13741158150339
 20
145.98814680769638
 11
237.71249307168497
 21
140.26570500554266
  0
LINE
  8
_1-2_
  6
CONTINUOUS
 62
    7
 10
227.36968169341216
 20
143.75491580447635
 11
237.71249307168497
 21
140.26570500554266
  0
LINE
  8
_1-2_
  6
CONTINUOUS
 62
    3
 10
229.22218941353464
 20
137.74647068332982
 11
226.51930525496201
 21
143.75289916992187
  0
LINE
  8
_1-2_
  6
CONTINUOUS
 62
    3
 10
226.51930525496201
 20
143.75289916992187
 11
234.75600783889359
 21
146.1417698215794
  0
LINE
  8
_1-2_
  6
CONTINUOUS
 62
    3
 10
234.75600783889359
 20
146.1417698215794
 11
230.88953791437925
 21
145.83651568438557
  0
LINE
  8
_1-2_
  6
CONTINUOUS
 62
    3
 10
176.67950604413008
 20
141.62777462521115
 11
175.92080605996622
 21
141.88288508234797
  0
LINE
  8
_1-2_
  6
CONTINUOUS
 62
    3
 10
175.78718855574326
 20
141.4380625131968
 11
175.92080605996622
 21
141.88288508234797
  0
LINE
  8
_1-2_
  6
CONTINUOUS
 62
    3
 10
176.54212745460305
 20
141.17046871700802
 11
176.67950604413008
 21
141.62777462521115
  0
LINE
  8
_1-2_
  6
CONTINUOUS
 62
    3
 10
175.05773595861487
 20
141.46546647355365
 11
175.53190489073057
 21
141.3060286238387
  0
LINE
  8
_1-2_
  6
CONTINUOUS
 62
    3
 10
174.92993329022383
 20
141.71257225242823
 11
175.13107712204393
 21
142.38224338840794
  0
LINE
  8
_1-2_
  6
CONTINUOUS
 62
    3
 10
177.14409905510982
 20
140.76392508841852
 11
176.66993012299409
 21
140.92336293813347
  0
LINE
  8
_1-2_
  6
CONTINUOUS
 62
    7
 10
198.60490128800677
 20
122.66728994008658
 11
198.85111628351987
 21
122.1201262602935
  0
LINE
  8
_1-2_
  6
CONTINUOUS
 62
    3
 10
198.21686615815034
 20
123.79408140440246
 11
167.21154290276607
 21
137.74647068332982
  0
LINE
  8
_1-2_
  6
CONTINUOUS
 62
    7
 10
169.06405062288852
 20
143.75491580447635
 11
161.29632073479732
 21
145.98814680769638
  0
LINE
  8
_1-2_
  6
CONTINUOUS
 62
    7
 10
169.06405062288852
 20
143.75491580447635
 11
166.01660651129646
 21
136.98279715873102
  0
LINE
  8
_1-2_
  6
CONTINUOUS
 62
    7
 10
161.29632073479732
 20
145.98814680769638
 11
158.72123924461573
 21
140.26570500554266
  0
LINE
  8
_1-2_
  6
CONTINUOUS
 62
    7
 10
169.06405062288852
 20
143.75491580447635
 11
158.72123924461573
 21
140.26570500554266
  0
LINE
  8
_1-2_
  6
CONTINUOUS
 62
    3
 10
167.21154290276607
 20
137.74647068332982
 11
169.9144270613387
 21
143.75289916992187
  0
LINE
  8
_1-2_
  6
CONTINUOUS
 62
    3
 10
169.9144270613387
 20
143.75289916992187
 11
161.67772447740711
 21
146.1417698215794
  0
LINE
  8
_1-2_
  6
CONTINUOUS
 62
    3
 10
161.67772447740711
 20
146.1417698215794
 11
165.54419440192146
 21
145.83651568438557
  0
LINE
  8
_1-3_
  6
CONTINUOUS
 62
    7
 10
198.21686615815034
 20
116.79040857263514
 11
375.40540540540542
 21
196.52525618269638
  0
LINE
  8
_1-3_
  6
CONTINUOUS
 62
    7
 10
198.21686615815034
 20
116.79040857263514
 11
17.027028573525911
 21
198.32583865603885
  0
LINE
  8
_1-3_
  6
CONTINUOUS
 62
    7
 10
17.027027027027032
 20
200.19611255542654
 11
20.427533742543801
 21
196.79560893290753
  0
LINE
  8
_1-3_
  6
CONTINUOUS
 62
    7
 10
17.36395346151815
 20
202.12192432300466
 11
24.541601232580234
 21
194.94427655194258
  0
LINE
  8
_1-3_
  6
CONTINUOUS
 62
    7
 10
21.47802404455237
 20
200.27059194203972
 11
28.655665629618881
 21
193.09295654296875
  0
LINE
  8
_1-3_
  6
CONTINUOUS
 62
    7
 10
25.592094627586562
 20
198.41925956107477
 11
32.769736212653072
 21
191.2416241620038
  0
LINE
  8
_1-3_
  6
CONTINUOUS
 62
    7
 10
29.706152838629635
 20
196.56792718010982
 11
36.883797516693932
 21
189.39029178103885
  0
LINE
  8
_1-3_
  6
CONTINUOUS
 62
    7
 10
33.820223421663854
 20
194.71660717113599
 11
40.997865006730365
 21
187.53895940007391
  0
LINE
  8
_1-3_
  6
CONTINUOUS
 62
    7
 10
37.934281632706927
 20
192.86528716216216
 11
45.111929403769011
 21
185.68762701910896
  0
LINE
  8
_1-3_
  6
CONTINUOUS
 62
    7
 10
42.048352215741147
 20
191.01394240920609
 11
49.225999986803203
 21
183.83630701013516
  0
LINE
  8
_1-3_
  6
CONTINUOUS
 62
    7
 10
46.16241042678422
 20
189.16262240023227
 11
53.340064383841849
 21
181.98497462917018
  0
LINE
  8
_1-3_
  6
CONTINUOUS
 62
    7
 10
50.276481009818411
 20
187.31129001926732
 11
57.454128780880495
 21
180.13364224820523
  0
LINE
  8
_1-3_
  6
CONTINUOUS
 62
    7
 10
54.390539220861484
 20
185.45995763830237
 11
61.568199363914687
 21
178.28230986724029
  0
LINE
  8
_1-3_
  6
CONTINUOUS
 62
    7
 10
58.504609803895704
 20
183.60863762932857
 11
65.682269946948907
 21
176.43097748627534
  0
LINE
  8
_1-3_
  6
CONTINUOUS
 62
    7
 10
62.61865564294763
 20
181.75731762035474
 11
69.796291042018595
 21
174.57966984929266
  0
LINE
  8
_1-3_
  6
CONTINUOUS
 62
    7
 10
66.732713853990731
 20
179.90599761138091
 11
73.910361625052786
 21
172.72833746832771
  0
LINE
  8
_1-3_
  6
CONTINUOUS
 62
    7
 10
70.846784437024922
 20
178.05465285842484
 11
78.024426022091433
 21
170.87700508736276
  0
LINE
  8
_1-3_
  6
CONTINUOUS
 62
    7
 10
74.960855020059114
 20
176.20333284945102
 11
82.138496605125638
 21
169.02567270639781
  0
LINE
  8
_1-3_
  6
CONTINUOUS
 62
    7
 10
79.074913231102187
 20
174.35198809649495
 11
86.252567188159844
 21
167.17434032543287
  0
LINE
  8
_1-3_
  6
CONTINUOUS
 62
    7
 10
83.188983814136407
 20
172.50066808752112
 11
90.36663777119405
 21
165.32300794446792
  0
LINE
  8
_1-3_
  6
CONTINUOUS
 62
    7
 10
87.303029653188347
 20
170.64934807854732
 11
94.48068361024599
 21
163.47168793549409
  0
LINE
  8
_1-3_
  6
CONTINUOUS
 62
    7
 10
91.417100236222552
 20
168.79801569758234
 11
98.594748007284636
 21
161.62036792652029
  0
LINE
  8
_1-3_
  6
CONTINUOUS
 62
    7
 10
95.531158447265625
 20
166.9466833166174
 11
102.70881240432327
 21
159.76903554555534
  0
LINE
  8
_1-3_
  6
CONTINUOUS
 62
    7
 10
99.645235216295404
 20
165.09535093565245
 11
106.82288917335305
 21
157.91770316459039
  0
LINE
  8
_1-3_
  6
CONTINUOUS
 62
    7
 10
103.75929342733848
 20
163.24403092667865
 11
110.93697212837839
 21
156.0663584116343
  0
LINE
  8
_1-3_
  6
CONTINUOUS
 62
    7
 10
107.87337019636826
 20
161.3926985457137
 11
115.05100559543919
 21
154.21503840266047
  0
LINE
  8
_1-3_
  6
CONTINUOUS
 62
    7
 10
111.98742840741133
 20
159.54136616474875
 11
119.16508855046453
 21
152.36370602169552
  0
LINE
  8
_1-3_
  6
CONTINUOUS
 62
    7
 10
116.10149899044553
 20
157.6900337837838
 11
123.2791467615076
 21
150.51237364073057
  0
LINE
  8
_1-3_
  6
CONTINUOUS
 62
    7
 10
120.21554482949747
 20
155.83871377480997
 11
127.39320497255068
 21
148.66105363175677
  0
LINE
  8
_1-3_
  6
CONTINUOUS
 62
    7
 10
124.32962778452281
 20
153.98738139384503
 11
131.5072755555849
 21
146.80972125079182
  0
LINE
  8
_1-3_
  6
CONTINUOUS
 62
    7
 10
128.44366125158362
 20
152.1360613848712
 11
135.62133376662797
 21
144.958401241818
  0
LINE
  8
_1-3_
  6
CONTINUOUS
 62
    7
 10
132.55771946262669
 20
150.28472900390625
 11
139.73540434966216
 21
143.10706886085305
  0
LINE
  8
_1-3_
  6
CONTINUOUS
 62
    7
 10
136.67180241765203
 20
148.4333966229413
 11
143.84946256070523
 21
141.25574885187922
  0
LINE
  8
_1-3_
  6
CONTINUOUS
 62
    7
 10
140.78587300068625
 20
146.58206424197635
 11
147.96353314373945
 21
139.40440409892315
  0
LINE
  8
_1-3_
  6
CONTINUOUS
 62
    7
 10
144.89993121172932
 20
144.73074423300255
 11
152.07760372677365
 21
137.55308408994932
  0
LINE
  8
_1-3_
  6
CONTINUOUS
 62
    7
 10
149.01400179476352
 20
142.87941185203761
 11
156.19166193781672
 21
135.70173933699326
  0
LINE
  8
_1-3_
  6
CONTINUOUS
 62
    7
 10
153.12808474978885
 20
141.02807947107263
 11
160.30573252085094
 21
133.85041932801943
  0
LINE
  8
_1-3_
  6
CONTINUOUS
 62
    7
 10
157.24214296083193
 20
139.17674709010768
 11
164.41981547587628
 21
131.99907457506336
  0
LINE
  8
_1-3_
  6
CONTINUOUS
 62
    7
 10
161.35621354386615
 20
137.32541470914273
 11
168.53386131492823
 21
130.14775456608953
  0
LINE
  8
_1-3_
  6
CONTINUOUS
 62
    7
 10
165.47028412690034
 20
135.47408232817779
 11
172.64795664194469
 21
128.29640981313347
  0
LINE
  8
_1-3_
  6
CONTINUOUS
 62
    7
 10
169.58436708192568
 20
133.62274994721284
 11
176.76201485298776
 21
126.44508980415964
  0
LINE
  8
_1-3_
  6
CONTINUOUS
 62
    7
 10
173.69841292097763
 20
131.77142993823904
 11
180.87608543602198
 21
124.59375742319469
  0
LINE
  8
_1-3_
  6
CONTINUOUS
 62
    7
 10
177.8124711320207
 20
129.92009755727409
 11
184.99013127507391
 21
122.74243741422087
  0
LINE
  8
_1-3_
  6
CONTINUOUS
 62
    7
 10
181.92651697107266
 20
128.06877754830026
 11
189.10418948611698
 21
120.89110503325593
  0
LINE
  8
_1-3_
  6
CONTINUOUS
 62
    7
 10
186.04058755410685
 20
126.21744516733531
 11
193.21824769716005
 21
119.0397850242821
  0
LINE
  8
_1-3_
  6
CONTINUOUS
 62
    7
 10
190.15464576514992
 20
124.3661251583615
 11
197.33233065218539
 21
117.18844027132602
  0
LINE
  8
_1-3_
  6
CONTINUOUS
 62
    7
 10
194.26871634818414
 20
122.51479277739655
 11
199.44185411607899
 21
117.34165500950169
  0
LINE
  8
_1-3_
  6
CONTINUOUS
 62
    7
 10
198.27981484902872
 20
120.76644485061233
 11
201.00237047350086
 21
118.04388922614021
  0
LINE
  8
_1-3_
  6
CONTINUOUS
 62
    7
 10
199.84030646246833
 20
121.46867906725085
 11
202.56287445893159
 21
118.74611107078759
  0
LINE
  8
_1-3_
  6
CONTINUOUS
 62
    7
 10
201.40081044789909
 20
122.17090091189823
 11
204.12337844436234
 21
119.44833291543497
  0
LINE
  8
_1-3_
  6
CONTINUOUS
 62
    7
 10
202.96132680532097
 20
122.87312275654561
 11
205.68388242979307
 21
120.15056713207349
  0
LINE
  8
_1-3_
  6
CONTINUOUS
 62
    7
 10
204.52184316274284
 20
123.57535697318413
 11
207.24439878721495
 21
120.85280134871201
  0
LINE
  8
_1-3_
  6
CONTINUOUS
 62
    7
 10
206.0823224041913
 20
124.27757881783151
 11
208.80489040065459
 21
121.55502319335937
  0
LINE
  8
_1-3_
  6
CONTINUOUS
 62
    7
 10
207.64283876161318
 20
124.97981303447003
 11
210.36539438608531
 21
122.25725740999789
  0
LINE
  8
_1-3_
  6
CONTINUOUS
 62
    7
 10
209.20334274704393
 20
125.68204725110854
 11
211.92592311549834
 21
122.95947925464527
  0
LINE
  8
_1-3_
  6
CONTINUOUS
 62
    7
 10
210.76384673247466
 20
126.38426909575593
 11
213.48642710092906
 21
123.66171347128379
  0
LINE
  8
_1-3_
  6
CONTINUOUS
 62
    7
 10
212.32437546188768
 20
127.08650331239443
 11
215.04693108635982
 21
124.36393531593117
  0
LINE
  8
_1-3_
  6
CONTINUOUS
 62
    7
 10
213.88485470333617
 20
127.78872515704181
 11
216.60743507179055
 21
125.06616953256969
  0
LINE
  8
_1-3_
  6
CONTINUOUS
 62
    7
 10
215.44538343274917
 20
128.49095937368034
 11
218.1679390572213
 21
125.76839137721707
  0
LINE
  8
_1-3_
  6
CONTINUOUS
 62
    7
 10
217.00588741817992
 20
129.19318121832771
 11
219.72844304265203
 21
126.47061322186445
  0
LINE
  8
_1-3_
  6
CONTINUOUS
 62
    7
 10
218.56639140361065
 20
129.89541543496622
 11
221.28894702808279
 21
127.17284743850297
  0
LINE
  8
_1-3_
  6
CONTINUOUS
 62
    7
 10
220.12689538904141
 20
130.59763727961359
 11
222.84945101351352
 21
127.87506928315034
  0
LINE
  8
_1-3_
  6
CONTINUOUS
 62
    7
 10
221.68739937447214
 20
131.29985912426099
 11
224.40997974292654
 21
128.57730349978885
  0
LINE
  8
_1-3_
  6
CONTINUOUS
 62
    7
 10
223.24792810388516
 20
132.00209334089951
 11
225.97048372835727
 21
129.27953771642737
  0
LINE
  8
_1-3_
  6
CONTINUOUS
 62
    7
 10
224.80840734533362
 20
132.70432755753802
 11
227.53098771378802
 21
129.98175956107477
  0
LINE
  8
_1-3_
  6
CONTINUOUS
 62
    7
 10
226.36893607474664
 20
133.40656177417654
 11
229.09149169921875
 21
130.68398140572214
  0
LINE
  8
_1-3_
  6
CONTINUOUS
 62
    7
 10
227.92944006017737
 20
134.10877124683279
 11
230.65199568464951
 21
131.38621562236065
  0
LINE
  8
_1-3_
  6
CONTINUOUS
 62
    7
 10
229.48994404560813
 20
134.8110054634713
 11
232.21249967008026
 21
132.08844983899917
  0
LINE
  8
_1-3_
  6
CONTINUOUS
 62
    7
 10
231.05044803103885
 20
135.51323968010979
 11
233.77300365551099
 21
132.79067168364654
  0
LINE
  8
_1-3_
  6
CONTINUOUS
 62
    7
 10
232.61095201646961
 20
136.21546152475719
 11
235.33350764094175
 21
133.49289352829393
  0
LINE
  8
_1-3_
  6
CONTINUOUS
 62
    7
 10
234.17145600190034
 20
136.9176957413957
 11
236.89403637035474
 21
134.19512774493245
  0
LINE
  8
_1-3_
  6
CONTINUOUS
 62
    7
 10
235.73195998733109
 20
137.61991758604307
 11
238.4545403557855
 21
134.89736196157097
  0
LINE
  8
_1-3_
  6
CONTINUOUS
 62
    7
 10
237.29246397276185
 20
138.32215180268159
 11
240.01504434121622
 21
135.59959617820948
  0
LINE
  8
_1-3_
  6
CONTINUOUS
 62
    7
 10
238.85299270217484
 20
139.0243860193201
 11
241.57554832664698
 21
136.30181802285685
  0
LINE
  8
_1-3_
  6
CONTINUOUS
 62
    7
 10
240.41347194362334
 20
139.72659549197635
 11
243.13605231207771
 21
137.00403986750422
  0
LINE
  8
_1-3_
  6
CONTINUOUS
 62
    7
 10
241.97397592905406
 20
140.42882970861487
 11
244.69655629750847
 21
137.70627408414273
  0
LINE
  8
_1-3_
  6
CONTINUOUS
 62
    7
 10
243.53447991448482
 20
141.13106392525339
 11
246.25706028293919
 21
138.40850830078125
  0
LINE
  8
_1-3_
  6
CONTINUOUS
 62
    7
 10
245.09500864389781
 20
141.83328576990075
 11
247.81756426836995
 21
139.1107177734375
  0
LINE
  8
_1-3_
  6
CONTINUOUS
 62
    7
 10
246.65551262932857
 20
142.53551998653927
 11
249.37806825380068
 21
139.81295199007602
  0
LINE
  8
_1-3_
  6
CONTINUOUS
 62
    7
 10
248.2160166147593
 20
143.23774183118667
 11
250.93857223923143
 21
140.51518620671453
  0
LINE
  8
_1-3_
  6
CONTINUOUS
 62
    7
 10
249.77652060019005
 20
143.93997604782518
 11
252.49907622466219
 21
141.21740805136193
  0
LINE
  8
_1-3_
  6
CONTINUOUS
 62
    7
 10
251.33704932960305
 20
144.6422102644637
 11
254.05960495407518
 21
141.91964226800042
  0
LINE
  8
_1-3_
  6
CONTINUOUS
 62
    7
 10
252.8975533150338
 20
145.34443210911107
 11
255.62010893950594
 21
142.62186411264781
  0
LINE
  8
_1-3_
  6
CONTINUOUS
 62
    7
 10
254.45805730046453
 20
146.04665395375847
 11
257.18063766891891
 21
143.32409832928633
  0
LINE
  8
_1-3_
  6
CONTINUOUS
 62
    7
 10
256.01856128589526
 20
146.74888817039698
 11
258.7411169103674
 21
144.0263201739337
  0
LINE
  8
_1-3_
  6
CONTINUOUS
 62
    7
 10
257.57906527132604
 20
147.45112238703547
 11
260.30164563978042
 21
144.72855439057221
  0
LINE
  8
_1-3_
  6
CONTINUOUS
 62
    7
 10
259.13956925675677
 20
148.15334423168287
 11
261.86212488122891
 21
145.43077623521961
  0
LINE
  8
_1-3_
  6
CONTINUOUS
 62
    7
 10
260.7000732421875
 20
148.85557844832138
 11
263.42265361064193
 21
146.13301045185813
  0
LINE
  8
_1-3_
  6
CONTINUOUS
 62
    7
 10
262.26057722761828
 20
149.55780029296875
 11
264.98315759607266
 21
146.83524466849664
  0
LINE
  8
_1-3_
  6
CONTINUOUS
 62
    7
 10
263.82110595703125
 20
150.26003450960727
 11
266.54366158150339
 21
147.53747888513513
  0
LINE
  8
_1-3_
  6
CONTINUOUS
 62
    7
 10
265.38158519847974
 20
150.96224398226352
 11
268.10416556693411
 21
148.23968835779138
  0
LINE
  8
_1-3_
  6
CONTINUOUS
 62
    7
 10
266.94208918391047
 20
151.66447819890203
 11
269.6646695523649
 21
148.9419225744299
  0
LINE
  8
_1-3_
  6
CONTINUOUS
 62
    7
 10
268.50259316934125
 20
152.36671241554055
 11
271.22517353779563
 21
149.64415679106841
  0
LINE
  8
_1-3_
  6
CONTINUOUS
 62
    7
 10
270.06309715477198
 20
153.06893426018794
 11
272.78567752322635
 21
150.34637863571581
  0
LINE
  8
_1-3_
  6
CONTINUOUS
 62
    7
 10
271.623625884185
 20
153.77116847682643
 11
274.34618150865708
 21
151.04860048036318
  0
LINE
  8
_1-3_
  6
CONTINUOUS
 62
    7
 10
273.18412986961573
 20
154.47339032147383
 11
275.90668549408787
 21
151.75083469700169
  0
LINE
  8
_1-3_
  6
CONTINUOUS
 62
    7
 10
274.74463385504646
 20
155.17562453811234
 11
277.46721422350083
 21
152.45306891364021
  0
LINE
  8
_1-3_
  6
CONTINUOUS
 62
    7
 10
276.30513784047719
 20
155.87785875475086
 11
279.02771820893162
 21
153.15529075828761
  0
LINE
  8
_1-3_
  6
CONTINUOUS
 62
    7
 10
277.86566656989021
 20
156.58008059939823
 11
280.58822219436234
 21
153.85751260293497
  0
LINE
  8
_1-3_
  6
CONTINUOUS
 62
    7
 10
279.42617055532094
 20
157.28231481603675
 11
282.14872617979307
 21
154.55974681957349
  0
LINE
  8
_1-3_
  6
CONTINUOUS
 62
    7
 10
280.98667454075172
 20
157.98453666068414
 11
283.70923016522386
 21
155.26198103621201
  0
LINE
  8
_1-3_
  6
CONTINUOUS
 62
    7
 10
282.54717852618245
 20
158.68677087732263
 11
285.26975889463682
 21
155.96420288085937
  0
LINE
  8
_1-3_
  6
CONTINUOUS
 62
    7
 10
284.10768251161318
 20
159.38900509396115
 11
286.83026288006761
 21
156.66643709749789
  0
LINE
  8
_1-3_
  6
CONTINUOUS
 62
    7
 10
285.66818649704396
 20
160.09122693860854
 11
288.39076686549834
 21
157.36865894214529
  0
LINE
  8
_1-3_
  6
CONTINUOUS
 62
    7
 10
287.22869048247469
 20
160.79344878325591
 11
289.95127085092906
 21
158.0708931587838
  0
LINE
  8
_1-3_
  6
CONTINUOUS
 62
    7
 10
288.78921921188771
 20
161.49568299989443
 11
291.51177483635979
 21
158.77311500343117
  0
LINE
  8
_1-3_
  6
CONTINUOUS
 62
    7
 10
290.34969845333615
 20
162.19790484454182
 11
293.07225407780828
 21
159.47533684807857
  0
LINE
  8
_1-3_
  6
CONTINUOUS
 62
    7
 10
291.91020243876693
 20
162.90012668918919
 11
294.6327828072213
 21
160.17757106471706
  0
LINE
  8
_1-3_
  6
CONTINUOUS
 62
    7
 10
293.47070642419766
 20
163.60236090582771
 11
296.19328679265203
 21
160.87980528135557
  0
LINE
  8
_1-3_
  6
CONTINUOUS
 62
    7
 10
295.03121040962839
 20
164.30459512246622
 11
297.75379077808276
 21
161.58202712600297
  0
LINE
  8
_1-3_
  6
CONTINUOUS
 62
    7
 10
296.59173913904141
 20
165.00682933910474
 11
299.31429476351354
 21
162.28426134264149
  0
LINE
  8
_1-3_
  6
CONTINUOUS
 62
    7
 10
298.15224312447214
 20
165.70905118375211
 11
300.87482349292651
 21
162.98648318728885
  0
LINE
  8
_1-3_
  6
CONTINUOUS
 62
    7
 10
299.71277185388516
 20
166.41127302839951
 11
302.43532747835729
 21
163.68871740392737
  0
LINE
  8
_1-3_
  6
CONTINUOUS
 62
    7
 10
301.27327583931589
 20
167.11350724503802
 11
303.99583146378802
 21
164.39093924857477
  0
LINE
  8
_1-3_
  6
CONTINUOUS
 62
    7
 10
302.83377982474661
 20
167.81572908968539
 11
305.55631070523651
 21
165.09316109322214
  0
LINE
  8
_1-3_
  6
CONTINUOUS
 62
    7
 10
304.3942838101774
 20
168.51796330632391
 11
307.11686417863177
 21
165.79540768185177
  0
LINE
  8
_1-3_
  6
CONTINUOUS
 62
    7
 10
305.95478779560813
 20
169.2201851509713
 11
308.67734342008026
 21
166.49762952649917
  0
LINE
  8
_1-3_
  6
CONTINUOUS
 62
    7
 10
307.51529178103885
 20
169.92241936760982
 11
310.23787214949328
 21
167.19986374313768
  0
LINE
  8
_1-3_
  6
CONTINUOUS
 62
    7
 10
309.07579576646964
 20
170.62464121225719
 11
311.79837613492401
 21
167.90208558778505
  0
LINE
  8
_1-3_
  6
CONTINUOUS
 62
    7
 10
310.6363244958826
 20
171.32688780088682
 11
313.35888012035474
 21
168.60431980442357
  0
LINE
  8
_1-3_
  6
CONTINUOUS
 62
    7
 10
312.19680373733109
 20
172.02909727354307
 11
314.91938410578547
 21
169.30654164907097
  0
LINE
  8
_1-3_
  6
CONTINUOUS
 62
    7
 10
313.75733246674412
 20
172.73133149018159
 11
316.47988809121625
 21
170.00877586570948
  0
LINE
  8
_1-3_
  6
CONTINUOUS
 62
    7
 10
315.31781170819261
 20
173.43355333482899
 11
318.04039207664698
 21
170.71098533836573
  0
LINE
  8
_1-3_
  6
CONTINUOUS
 62
    7
 10
316.87831569362334
 20
174.1357875514675
 11
319.60089606207771
 21
171.41321955500422
  0
LINE
  8
_1-3_
  6
CONTINUOUS
 62
    7
 10
318.43881967905406
 20
174.83800939611487
 11
321.16140004750844
 21
172.11545377164273
  0
LINE
  8
_1-3_
  6
CONTINUOUS
 62
    7
 10
319.99932366448479
 20
175.54024361275339
 11
322.72190403293922
 21
172.81767561629013
  0
LINE
  8
_1-3_
  6
CONTINUOUS
 62
    7
 10
321.55985239389781
 20
176.2424778293919
 11
324.28240801836995
 21
173.51990983292865
  0
LINE
  8
_1-3_
  6
CONTINUOUS
 62
    7
 10
323.12035637932854
 20
176.94469967403927
 11
325.84291200380068
 21
174.22213167757602
  0
LINE
  8
_1-3_
  6
CONTINUOUS
 62
    7
 10
324.68088510874156
 20
177.64693389067779
 11
327.40341598923146
 21
174.92436589421453
  0
LINE
  8
_1-3_
  6
CONTINUOUS
 62
    7
 10
326.24136435019005
 20
178.34915573532518
 11
328.96391997466219
 21
175.62660011085305
  0
LINE
  8
_1-3_
  6
CONTINUOUS
 62
    7
 10
327.80189307960308
 20
179.0513899519637
 11
330.52444870407521
 21
176.32883432749156
  0
LINE
  8
_1-3_
  6
CONTINUOUS
 62
    7
 10
329.36237232105157
 20
179.75361179661107
 11
332.08492794552365
 21
177.03104380014781
  0
LINE
  8
_1-3_
  6
CONTINUOUS
 62
    7
 10
330.92290105046453
 20
180.45584601324958
 11
333.64548141891896
 21
177.73327801678633
  0
LINE
  8
_1-3_
  6
CONTINUOUS
 62
    7
 10
332.48340503589532
 20
181.15806785789698
 11
335.2059606603674
 21
178.4354998614337
  0
LINE
  8
_1-3_
  6
CONTINUOUS
 62
    7
 10
334.04390902132604
 20
181.8603020745355
 11
336.76648938978042
 21
179.13773407807221
  0
LINE
  8
_1-3_
  6
CONTINUOUS
 62
    7
 10
335.60441300675677
 20
182.56252391918287
 11
338.32699337521115
 21
179.83996829471073
  0
LINE
  8
_1-3_
  6
CONTINUOUS
 62
    7
 10
337.1649169921875
 20
183.26475813582138
 11
339.88749736064193
 21
180.54219013935813
  0
LINE
  8
_1-3_
  6
CONTINUOUS
 62
    7
 10
338.72544572160052
 20
183.9669923524599
 11
341.44800134607266
 21
181.24442435599664
  0
LINE
  8
_1-3_
  6
CONTINUOUS
 62
    7
 10
340.28592496304901
 20
184.66921419710727
 11
343.00850533150339
 21
181.94664620064401
  0
LINE
  8
_1-3_
  6
CONTINUOUS
 62
    7
 10
341.84642894847974
 20
185.37143604175466
 11
344.56900931693411
 21
182.64886804529141
  0
LINE
  8
_1-3_
  6
CONTINUOUS
 62
    7
 10
343.40693293391047
 20
186.07365788640203
 11
346.1295133023649
 21
183.3511022619299
  0
LINE
  8
_1-3_
  6
CONTINUOUS
 62
    7
 10
344.96743691934125
 20
186.77589210304055
 11
347.69001728779563
 21
184.05333647856841
  0
LINE
  8
_1-3_
  6
CONTINUOUS
 62
    7
 10
346.52796564875422
 20
187.47812631967906
 11
349.25052127322635
 21
184.75555832321581
  0
LINE
  8
_1-3_
  6
CONTINUOUS
 62
    7
 10
348.088469634185
 20
188.18034816432646
 11
350.81102525865714
 21
185.45778016786318
  0
LINE
  8
_1-3_
  6
CONTINUOUS
 62
    7
 10
349.64897361961573
 20
188.88258238096495
 11
352.37152924408787
 21
186.16001438450169
  0
LINE
  8
_1-3_
  6
CONTINUOUS
 62
    7
 10
351.20947760504646
 20
189.58480422561234
 11
353.93203322951859
 21
186.86224860114021
  0
LINE
  8
_1-3_
  6
CONTINUOUS
 62
    7
 10
352.76998159047724
 20
190.28703844225086
 11
355.49253721494932
 21
187.56447044578761
  0
LINE
  8
_1-3_
  6
CONTINUOUS
 62
    7
 10
354.33051031989021
 20
190.98926028689823
 11
357.05309068834464
 21
188.26670466242612
  0
LINE
  8
_1-3_
  6
CONTINUOUS
 62
    7
 10
355.89101430532099
 20
191.69149450353675
 11
358.61356992979307
 21
188.96892650707349
  0
LINE
  8
_1-3_
  6
CONTINUOUS
 62
    7
 10
357.45151829075172
 20
192.39372872017526
 11
360.17409865920609
 21
189.67116072371201
  0
LINE
  8
_1-3_
  6
CONTINUOUS
 62
    7
 10
359.01202227618245
 20
193.09595056482266
 11
361.73457790065459
 21
190.37339494035052
  0
LINE
  8
_1-3_
  6
CONTINUOUS
 62
    7
 10
360.57252626161318
 20
193.79818478146115
 11
363.29510663006761
 21
191.07562915698904
  0
LINE
  8
_1-3_
  6
CONTINUOUS
 62
    7
 10
362.13303024704396
 20
194.50040662610854
 11
364.85561061549834
 21
191.77783862964529
  0
LINE
  8
_1-3_
  6
CONTINUOUS
 62
    7
 10
363.69355897645693
 20
195.20264084274706
 11
366.41611460092906
 21
192.4800728462838
  0
LINE
  8
_1-3_
  6
CONTINUOUS
 62
    7
 10
365.25406296188771
 20
195.90486268739443
 11
367.97661858635979
 21
193.18230706292232
  0
LINE
  8
_1-3_
  6
CONTINUOUS
 62
    7
 10
366.81454220333615
 20
196.60708453204182
 11
369.53712257179058
 21
193.88451653557857
  0
LINE
  8
_1-3_
  6
CONTINUOUS
 62
    7
 10
368.37504618876693
 20
197.30931874868034
 11
371.0976265572213
 21
194.58675075221709
  0
LINE
  8
_1-3_
  6
CONTINUOUS
 62
    7
 10
369.93555017419766
 20
198.01154059332771
 11
372.65813054265203
 21
195.28898496885557
  0
LINE
  8
_1-3_
  6
CONTINUOUS
 62
    7
 10
371.49607890361068
 20
198.71377480996622
 11
374.21863452808282
 21
195.99120681350297
  0
LINE
  8
_1-3_
  6
CONTINUOUS
 62
    7
 10
373.05658288904141
 20
199.41599665461362
 11
375.40540540540542
 21
197.06716176625847
  0
LINE
  8
_1-3_
  6
CONTINUOUS
 62
    7
 10
374.61708687447214
 20
200.11823087125211
 11
375.40540540540542
 21
199.32991234031886
  0
LINE
  8
_1-3_
  6
CONTINUOUS
 62
    7
 10
375.18073004645271
 20
196.4241646431588
 11
375.40540540540542
 21
196.64881525812925
  0
LINE
  8
_1-3_
  6
CONTINUOUS
 62
    7
 10
371.06667183540964
 20
194.57281989020271
 11
375.40540540540542
 21
198.91155346019849
  0
LINE
  8
_1-3_
  6
CONTINUOUS
 62
    7
 10
366.95261362436656
 20
192.72149988122891
 11
374.13027376741979
 21
199.89916002428211
  0
LINE
  8
_1-3_
  6
CONTINUOUS
 62
    7
 10
362.83858015730578
 20
190.8701922442462
 11
370.01626504434125
 21
198.04786475929055
  0
LINE
  8
_1-3_
  6
CONTINUOUS
 62
    7
 10
358.72449720228042
 20
189.01883511929898
 11
365.90218208931589
 21
196.19652000633448
  0
LINE
  8
_1-3_
  6
CONTINUOUS
 62
    7
 10
354.61046373521964
 20
187.1675274823163
 11
361.78809913429058
 21
194.34518762536953
  0
LINE
  8
_1-3_
  6
CONTINUOUS
 62
    7
 10
350.49638078019427
 20
185.31619510135135
 11
357.67406566722974
 21
192.4938676163957
  0
LINE
  8
_1-3_
  6
CONTINUOUS
 62
    7
 10
346.38229782516896
 20
183.46485034839529
 11
353.55998271220443
 21
190.64253523543076
  0
LINE
  8
_1-3_
  6
CONTINUOUS
 62
    7
 10
342.26828910209036
 20
181.61355508340372
 11
349.44594924514359
 21
188.79121522645693
  0
LINE
  8
_1-3_
  6
CONTINUOUS
 62
    7
 10
338.15420614706505
 20
179.76221033044766
 11
345.33189103410052
 21
186.93988284549198
  0
LINE
  8
_1-3_
  6
CONTINUOUS
 62
    7
 10
334.04012319203969
 20
177.91087794948268
 11
341.21780807907521
 21
185.08855046452703
  0
LINE
  8
_1-3_
  6
CONTINUOUS
 62
    7
 10
329.92606498099661
 20
176.05955794050888
 11
337.10372512404984
 21
183.23721808356208
  0
LINE
  8
_1-3_
  6
CONTINUOUS
 62
    7
 10
325.81203151393584
 20
174.20822555954393
 11
332.98966691300677
 21
181.38589807458828
  0
LINE
  8
_1-3_
  6
CONTINUOUS
 62
    7
 10
321.69794855891047
 20
172.3569055505701
 11
328.8756087019637
 21
179.53456569362331
  0
LINE
  8
_1-3_
  6
CONTINUOUS
 62
    7
 10
317.58386560388516
 20
170.50556079761404
 11
324.76155049092063
 21
177.68323331265836
  0
LINE
  8
_1-3_
  6
CONTINUOUS
 62
    7
 10
313.46983213682432
 20
168.65424078864021
 11
320.64746753589532
 21
175.83190093169341
  0
LINE
  8
_1-3_
  6
CONTINUOUS
 62
    7
 10
309.35569969383448
 20
166.80289603568414
 11
316.53338458086995
 21
173.98055617873734
  0
LINE
  8
_1-3_
  6
CONTINUOUS
 62
    7
 10
305.24166622677365
 20
164.95156365471919
 11
312.41932636982688
 21
172.12923616976352
  0
LINE
  8
_1-3_
  6
CONTINUOUS
 62
    7
 10
301.12755852776604
 20
163.1002189017631
 11
308.30521867081927
 21
170.27789141680745
  0
LINE
  8
_1-3_
  6
CONTINUOUS
 62
    7
 10
297.01345082875844
 20
161.24887414880703
 11
304.1911604597762
 21
168.4265590358425
  0
LINE
  8
_1-3_
  6
CONTINUOUS
 62
    7
 10
292.89939261771536
 20
159.3975541398332
 11
300.07705276076859
 21
166.57521428288641
  0
LINE
  8
_1-3_
  6
CONTINUOUS
 62
    7
 10
288.78528491870776
 20
157.54620938687711
 11
295.96296980574328
 21
164.72388190192146
  0
LINE
  8
_1-3_
  6
CONTINUOUS
 62
    7
 10
284.67122670766469
 20
155.69487700591216
 11
291.84888685071792
 21
162.87253714896539
  0
LINE
  8
_1-3_
  6
CONTINUOUS
 62
    7
 10
280.55716849662161
 20
153.84354462494721
 11
287.73482863967484
 21
161.02120476800044
  0
LINE
  8
_1-3_
  6
CONTINUOUS
 62
    7
 10
276.4430855415963
 20
151.99221224398227
 11
283.62074568464953
 21
159.16987238703547
  0
LINE
  8
_1-3_
  6
CONTINUOUS
 62
    7
 10
272.32900258657094
 20
150.14087986301732
 11
279.50668747360646
 21
157.31854000607052
  0
LINE
  8
_1-3_
  6
CONTINUOUS
 62
    7
 10
268.21491963154563
 20
148.28953511006125
 11
275.39260451858109
 21
155.46720762510557
  0
LINE
  8
_1-3_
  6
CONTINUOUS
 62
    7
 10
264.10083667652026
 20
146.4382027290963
 11
271.27852156355578
 21
153.61587524414062
  0
LINE
  8
_1-3_
  6
CONTINUOUS
 62
    7
 10
259.98675372149495
 20
144.58685797614021
 11
267.16441386454818
 21
151.76451811919341
  0
LINE
  8
_1-3_
  6
CONTINUOUS
 62
    7
 10
255.87267076646961
 20
142.73551322318414
 11
263.05030616554058
 21
149.91317336623734
  0
LINE
  8
_1-3_
  6
CONTINUOUS
 62
    7
 10
251.75858781144427
 20
140.88418084221917
 11
258.9362479544975
 21
148.06185335726352
  0
LINE
  8
_1-3_
  6
CONTINUOUS
 62
    7
 10
247.64450485641893
 20
139.03284846125422
 11
254.8221897434544
 21
146.21050860430745
  0
LINE
  8
_1-3_
  6
CONTINUOUS
 62
    7
 10
243.53044664537586
 20
137.18152845228042
 11
250.70810678842906
 21
144.35918859533362
  0
LINE
  8
_1-3_
  6
CONTINUOUS
 62
    7
 10
239.41633894636826
 20
135.3301713273332
 11
246.59402383340372
 21
142.50784384237755
  0
LINE
  8
_1-3_
  6
CONTINUOUS
 62
    7
 10
235.30228073532518
 20
133.47885131835937
 11
242.47994087837839
 21
140.65652383340372
  0
LINE
  8
_1-3_
  6
CONTINUOUS
 62
    7
 10
231.18819778029984
 20
131.62751893739443
 11
238.36585792335305
 21
138.80517908044763
  0
LINE
  8
_1-3_
  6
CONTINUOUS
 62
    7
 10
227.07411482527451
 20
129.77616181244721
 11
234.25177496832771
 21
136.95383432749156
  0
LINE
  8
_1-3_
  6
CONTINUOUS
 62
    7
 10
222.96003187024917
 20
127.92482943148227
 11
230.13769201330237
 21
135.10250194652662
  0
LINE
  8
_1-3_
  6
CONTINUOUS
 62
    7
 10
218.84594891522383
 20
126.07349705051732
 11
226.02360905827703
 21
133.25115719357052
  0
LINE
  8
_1-3_
  6
CONTINUOUS
 62
    7
 10
214.73186596019849
 20
124.22216466955237
 11
221.90952610325169
 21
131.39982481260557
  0
LINE
  8
_1-3_
  6
CONTINUOUS
 62
    7
 10
210.61780774915542
 20
122.37083228858742
 11
217.79546789220862
 21
129.54850480363177
  0
LINE
  8
_1-3_
  6
CONTINUOUS
 62
    7
 10
206.50371242213896
 20
120.51948753563134
 11
213.68140968116555
 21
127.69716005067568
  0
LINE
  8
_1-3_
  6
CONTINUOUS
 62
    7
 10
202.38964183910474
 20
118.66815515466639
 11
209.56730198215794
 21
125.8458152977196
  0
LINE
  8
_1-3_
  6
CONTINUOUS
 62
    7
 10
198.2755588840794
 20
116.81682277370145
 11
205.4532190271326
 21
123.99448291675465
  0
LINE
  8
_1-3_
  6
CONTINUOUS
 62
    7
 10
196.67860701277451
 20
117.48262147645693
 11
201.33914844409841
 21
122.1431505357897
  0
LINE
  8
_1-3_
  6
CONTINUOUS
 62
    7
 10
195.11810302734375
 20
118.18485569309544
 11
197.84065865181589
 21
120.90742368955871
  0
LINE
  8
_1-3_
  6
CONTINUOUS
 62
    7
 10
193.55758666992187
 20
118.88708990973396
 11
196.28015466638516
 21
121.60964553420609
  0
LINE
  8
_1-3_
  6
CONTINUOUS
 62
    7
 10
191.99708268449115
 20
119.58931175438134
 11
194.71963830896328
 21
122.3118797508446
  0
LINE
  8
_1-3_
  6
CONTINUOUS
 62
    7
 10
190.43656632706927
 20
120.29153359902872
 11
193.15912195154141
 21
123.01410159549198
  0
LINE
  8
_1-3_
  6
CONTINUOUS
 62
    7
 10
188.8760499696474
 20
120.99376781566724
 11
191.59861796611065
 21
123.7163358121305
  0
LINE
  8
_1-3_
  6
CONTINUOUS
 62
    7
 10
187.31554598421664
 20
121.69600203230576
 11
190.03810160868878
 21
124.41857002876901
  0
LINE
  8
_1-3_
  6
CONTINUOUS
 62
    7
 10
185.75505437077703
 20
122.39822387695312
 11
188.47759762325802
 21
125.12079187341639
  0
LINE
  8
_1-3_
  6
CONTINUOUS
 62
    7
 10
184.19452564136404
 20
123.10045809359164
 11
186.91709363782729
 21
125.82302609005491
  0
LINE
  8
_1-3_
  6
CONTINUOUS
 62
    7
 10
182.63402165593328
 20
123.80269231023016
 11
185.35657728040542
 21
126.52526030669343
  0
LINE
  8
_1-3_
  6
CONTINUOUS
 62
    7
 10
181.07351767050255
 20
124.50491415487754
 11
183.79607329497466
 21
127.22748215134079
  0
LINE
  8
_1-3_
  6
CONTINUOUS
 62
    7
 10
179.51300131308068
 20
125.20714837151606
 11
182.23555693755279
 21
127.92971636797931
  0
LINE
  8
_1-3_
  6
CONTINUOUS
 62
    7
 10
177.95249732764992
 20
125.90938258815457
 11
180.67505295212206
 21
128.63193821262669
  0
LINE
  8
_1-3_
  6
CONTINUOUS
 62
    7
 10
176.39198097022805
 20
126.61160443280195
 11
179.1145489666913
 21
129.33417242926521
  0
LINE
  8
_1-3_
  6
CONTINUOUS
 62
    7
 10
174.83146461280617
 20
127.31383864944047
 11
177.55403260926943
 21
130.03639427391258
  0
LINE
  8
_1-3_
  6
CONTINUOUS
 62
    7
 10
173.27096062737544
 20
128.01606049408784
 11
175.99351625184755
 21
130.73862849055109
  0
LINE
  8
_1-3_
  6
CONTINUOUS
 62
    7
 10
171.71045664194469
 20
128.71829471072635
 11
174.43301226641682
 21
131.44086270718961
  0
LINE
  8
_1-3_
  6
CONTINUOUS
 62
    7
 10
170.14994028452281
 20
129.42052892736487
 11
172.87249590899495
 21
132.14308455183701
  0
LINE
  8
_1-3_
  6
CONTINUOUS
 62
    7
 10
168.58942392710094
 20
130.12276314400339
 11
171.31199192356419
 21
132.84531876847552
  0
LINE
  8
_1-3_
  6
CONTINUOUS
 62
    7
 10
167.02890756967906
 20
130.8249973606419
 11
169.75147556614232
 21
133.54755298511404
  0
LINE
  8
_1-3_
  6
CONTINUOUS
 62
    7
 10
165.46840358424831
 20
131.52720683329815
 11
168.19095920872044
 21
134.24977482976141
  0
LINE
  8
_1-3_
  6
CONTINUOUS
 62
    7
 10
163.9079119708087
 20
132.22944104993667
 11
166.63045522328972
 21
134.95200904639992
  0
LINE
  8
_1-3_
  6
CONTINUOUS
 62
    7
 10
162.3473832413957
 20
132.93167526657518
 11
165.06995123785896
 21
135.65423089104729
  0
LINE
  8
_1-3_
  6
CONTINUOUS
 62
    7
 10
160.78687925596495
 20
133.6339094832137
 11
163.50943488043708
 21
136.35646510768581
  0
LINE
  8
_1-3_
  6
CONTINUOUS
 62
    7
 10
159.22636289854307
 20
134.33613132786107
 11
161.94891852301521
 21
137.05869932432432
  0
LINE
  8
_1-3_
  6
CONTINUOUS
 62
    7
 10
157.6658465411212
 20
135.03836554449958
 11
160.38841453758448
 21
137.76093354096284
  0
LINE
  8
_1-3_
  6
CONTINUOUS
 62
    7
 10
156.10533018369932
 20
135.7405997611381
 11
158.82789818016261
 21
138.46315538561024
  0
LINE
  8
_1-3_
  6
CONTINUOUS
 62
    7
 10
154.54481382627745
 20
136.44283397777662
 11
157.26738182274073
 21
139.16538960224875
  0
LINE
  8
_1-3_
  6
CONTINUOUS
 62
    7
 10
152.98430984084672
 20
137.14505582242398
 11
155.70687783730997
 21
139.86762381888727
  0
LINE
  8
_1-3_
  6
CONTINUOUS
 62
    7
 10
151.42380585541596
 20
137.8472900390625
 11
154.1463614798881
 21
140.56984566353464
  0
LINE
  8
_1-3_
  6
CONTINUOUS
 62
    7
 10
149.86330186998524
 20
138.5495118837099
 11
152.58585749445734
 21
141.27207988017315
  0
LINE
  8
_1-3_
  6
CONTINUOUS
 62
    7
 10
148.30278551256336
 20
139.25174610034841
 11
151.02534113703547
 21
141.97431409681167
  0
LINE
  8
_1-3_
  6
CONTINUOUS
 62
    7
 10
146.74226915514149
 20
139.95398031698693
 11
149.46482477961359
 21
142.67654831345018
  0
LINE
  8
_1-3_
  6
CONTINUOUS
 62
    7
 10
145.18176516971073
 20
140.6562021616343
 11
147.90432079418287
 21
143.37877015809755
  0
LINE
  8
_1-3_
  6
CONTINUOUS
 62
    7
 10
143.62124881228885
 20
141.35843637827281
 11
146.34380443676099
 21
144.08099200274495
  0
LINE
  8
_1-3_
  6
CONTINUOUS
 62
    7
 10
142.06073245486698
 20
142.06067059491133
 11
144.78330045133023
 21
144.78322621938347
  0
LINE
  8
_1-3_
  6
CONTINUOUS
 62
    7
 10
140.50022846943625
 20
142.76290481154984
 11
143.22278409390836
 21
145.48546043602198
  0
LINE
  8
_1-3_
  6
CONTINUOUS
 62
    7
 10
138.93971211201438
 20
143.46512665619721
 11
141.66226773648648
 21
146.18769465266047
  0
LINE
  8
_1-3_
  6
CONTINUOUS
 62
    7
 10
137.37920812658362
 20
144.16734850084461
 11
140.10176375105576
 21
146.88991649730787
  0
LINE
  8
_1-3_
  6
CONTINUOUS
 62
    7
 10
135.81869176916175
 20
144.86958271748313
 11
138.54124739363388
 21
147.59215071394638
  0
LINE
  8
_1-3_
  6
CONTINUOUS
 62
    7
 10
134.25817541173987
 20
145.57181693412164
 11
136.98073103621201
 21
148.2943849305849
  0
LINE
  8
_1-3_
  6
CONTINUOUS
 62
    7
 10
132.697659054318
 20
146.27405115076013
 11
135.42022705078125
 21
148.99660677523227
  0
LINE
  8
_1-3_
  6
CONTINUOUS
 62
    7
 10
131.13715506888727
 20
146.97628536739865
 11
133.85969832136826
 21
149.69884099187078
  0
LINE
  8
_1-3_
  6
CONTINUOUS
 62
    7
 10
129.57663871146539
 20
147.67850721204604
 11
132.29920670792865
 21
150.4010752085093
  0
LINE
  8
_1-3_
  6
CONTINUOUS
 62
    7
 10
128.01613472603464
 20
148.38074142868456
 11
130.73869035050677
 21
151.10329705315669
  0
LINE
  8
_1-3_
  6
CONTINUOUS
 62
    7
 10
126.45561836861276
 20
149.08296327333193
 11
129.17818636507602
 21
151.80553126979518
  0
LINE
  8
_1-3_
  6
CONTINUOUS
 62
    7
 10
124.89511438318202
 20
149.78519748997044
 11
127.61768237964527
 21
152.50775311444258
  0
LINE
  8
_1-3_
  6
CONTINUOUS
 62
    7
 10
123.33461039775128
 20
150.48743170660896
 11
126.05715365023227
 21
153.20998733108109
  0
LINE
  8
_1-3_
  6
CONTINUOUS
 62
    7
 10
121.77408166833827
 20
151.18966592324747
 11
124.49664966480152
 21
153.91222154771961
  0
LINE
  8
_1-3_
  6
CONTINUOUS
 62
    7
 10
120.21356531091639
 20
151.89190013988599
 11
122.93612093538852
 21
154.61445576435813
  0
LINE
  8
_1-3_
  6
CONTINUOUS
 62
    7
 10
118.65306132548565
 20
152.59412198453336
 11
121.37561694995777
 21
155.3166776090055
  0
LINE
  8
_1-3_
  6
CONTINUOUS
 62
    7
 10
117.09255734005491
 20
153.29634382918076
 11
119.81511296452703
 21
156.01891182564401
  0
LINE
  8
_1-3_
  6
CONTINUOUS
 62
    7
 10
115.53205335462417
 20
153.99857804581927
 11
118.25460897909629
 21
156.72113367029138
  0
LINE
  8
_1-3_
  6
CONTINUOUS
 62
    7
 10
113.97152462521116
 20
154.70081226245779
 11
116.69408024968328
 21
157.4233678869299
  0
LINE
  8
_1-3_
  6
CONTINUOUS
 62
    7
 10
112.41102063978042
 20
155.4030464790963
 11
115.13357626425254
 21
158.12560210356841
  0
LINE
  8
_1-3_
  6
CONTINUOUS
 62
    7
 10
110.85051665434966
 20
156.10526832374367
 11
113.5730722788218
 21
158.82782394821581
  0
LINE
  8
_1-3_
  6
CONTINUOUS
 62
    7
 10
109.28998792493667
 20
156.80750254038219
 11
112.01256829339106
 21
159.53005816485432
  0
LINE
  8
_1-3_
  6
CONTINUOUS
 62
    7
 10
107.72948393950591
 20
157.50972438502956
 11
110.45203956397805
 21
160.23229238149284
  0
LINE
  8
_1-3_
  6
CONTINUOUS
 62
    7
 10
106.16897995407517
 20
158.21195860166807
 11
108.89153557854731
 21
160.93451422614021
  0
LINE
  8
_1-3_
  6
CONTINUOUS
 62
    7
 10
104.60846359665329
 20
158.91419281830659
 11
107.33103159311656
 21
161.63674844277872
  0
LINE
  8
_1-3_
  6
CONTINUOUS
 62
    7
 10
103.04795961122255
 20
159.61641466295399
 11
105.77050286370356
 21
162.33898265941724
  0
LINE
  8
_1-3_
  6
CONTINUOUS
 62
    7
 10
101.48744943979625
 20
160.3186488795925
 11
104.20999887827281
 21
163.04121687605576
  0
LINE
  8
_1-3_
  6
CONTINUOUS
 62
    7
 10
99.926939268369935
 20
161.02087072423987
 11
102.6494887068465
 21
163.74343872070312
  0
LINE
  8
_1-3_
  6
CONTINUOUS
 62
    7
 10
98.366429096943634
 20
161.72310494087839
 11
101.08899090741133
 21
164.44566056535052
  0
LINE
  8
_1-3_
  6
CONTINUOUS
 62
    7
 10
96.805912739521759
 20
162.4253391575169
 11
99.528468363993881
 21
165.14789478198904
  0
LINE
  8
_1-3_
  6
CONTINUOUS
 62
    7
 10
95.245414940086576
 20
163.12756100216427
 11
97.967958192567579
 21
165.85012899862755
  0
LINE
  8
_1-3_
  6
CONTINUOUS
 62
    7
 10
93.684898582664701
 20
163.82979521880279
 11
96.407460393132396
 21
166.55235084327492
  0
LINE
  8
_1-3_
  6
CONTINUOUS
 62
    7
 10
92.124388411238385
 20
164.5320294354413
 11
94.846950221706081
 21
167.25458505991344
  0
LINE
  8
_1-3_
  6
CONTINUOUS
 62
    7
 10
90.563884425807643
 20
165.2342512800887
 11
93.286433864284206
 21
167.95680690456081
  0
LINE
  8
_1-3_
  6
CONTINUOUS
 62
    7
 10
89.003374254381342
 20
165.93648549672722
 11
91.725929878853464
 21
168.65904112119932
  0
LINE
  8
_1-3_
  6
CONTINUOUS
 62
    7
 10
87.442864082955026
 20
166.63871971336573
 11
90.165425893422722
 21
169.36126296584672
  0
LINE
  8
_1-3_
  6
CONTINUOUS
 62
    7
 10
85.882341539537592
 20
167.34095393000422
 11
88.604909536000847
 21
170.06350955447635
  0
LINE
  8
_1-3_
  6
CONTINUOUS
 62
    7
 10
84.32183755410685
 20
168.04317577465162
 11
87.044393178578972
 21
170.76573139912375
  0
LINE
  8
_1-3_
  6
CONTINUOUS
 62
    7
 10
82.761321196684975
 20
168.74540999129013
 11
85.483889193148229
 21
171.46796561576227
  0
LINE
  8
_1-3_
  6
CONTINUOUS
 62
    7
 10
81.2008048392631
 20
169.4476318359375
 11
83.923360463735222
 21
172.17019983240078
  0
LINE
  8
_1-3_
  6
CONTINUOUS
 62
    7
 10
79.640282295845651
 20
170.14986605257602
 11
82.362856478304479
 21
172.87242167704815
  0
LINE
  8
_1-3_
  6
CONTINUOUS
 62
    7
 10
78.079778310414895
 20
170.85210026921453
 11
80.802327748891457
 21
173.57465589368667
  0
LINE
  8
_1-3_
  6
CONTINUOUS
 62
    7
 10
76.51926195299302
 20
171.55433448585305
 11
79.241823763460729
 21
174.27689011032518
  0
LINE
  8
_1-3_
  6
CONTINUOUS
 62
    7
 10
74.958751781566718
 20
172.25655633050044
 11
77.681307406038854
 21
174.9791243269637
  0
LINE
  8
_1-3_
  6
CONTINUOUS
 62
    7
 10
73.398241610140417
 20
172.95879054713893
 11
76.120803420608127
 21
175.68134617161107
  0
LINE
  8
_1-3_
  6
CONTINUOUS
 62
    7
 10
71.837719066722968
 20
173.66102476377745
 11
74.560274691195104
 21
176.38359276024073
  0
LINE
  8
_1-3_
  6
CONTINUOUS
 62
    7
 10
70.277208895296667
 20
174.36325898041596
 11
72.999770705764377
 21
177.0858146048881
  0
LINE
  8
_1-3_
  6
CONTINUOUS
 62
    7
 10
68.716698723870365
 20
175.06548082506336
 11
71.43926672033362
 21
177.7880364495355
  0
LINE
  8
_1-3_
  6
CONTINUOUS
 62
    7
 10
67.15618236644849
 20
175.76771504170188
 11
69.878750362911745
 21
178.49027066617398
  0
LINE
  8
_1-3_
  6
CONTINUOUS
 62
    7
 10
65.595666009026615
 20
176.46994925834039
 11
68.318221633498752
 21
179.1925048828125
  0
LINE
  8
_1-3_
  6
CONTINUOUS
 62
    7
 10
64.035162023595859
 20
177.17218347497891
 11
66.757705276076877
 21
179.89473909945102
  0
LINE
  8
_1-3_
  6
CONTINUOUS
 62
    7
 10
62.474645666173984
 20
177.87440531962628
 11
65.19720129064612
 21
180.59697331608953
  0
LINE
  8
_1-3_
  6
CONTINUOUS
 62
    7
 10
60.914135494747683
 20
178.57663953626479
 11
63.636697305215364
 21
181.29919516073693
  0
LINE
  8
_1-3_
  6
CONTINUOUS
 62
    7
 10
59.353612951330234
 20
179.27887375290331
 11
62.07616857580237
 21
182.00142937737544
  0
LINE
  8
_1-3_
  6
CONTINUOUS
 62
    7
 10
57.793108965899506
 20
179.98109559755068
 11
60.515664590371614
 21
182.70365122202281
  0
LINE
  8
_1-3_
  6
CONTINUOUS
 62
    7
 10
56.232592608477631
 20
180.68332981418919
 11
58.955148232949739
 21
183.40588543866133
  0
LINE
  8
_1-3_
  6
CONTINUOUS
 62
    7
 10
54.672088623046875
 20
181.38556403082771
 11
57.394631875527864
 21
184.10811965529984
  0
LINE
  8
_1-3_
  6
CONTINUOUS
 62
    7
 10
53.111572265625
 20
182.08779824746622
 11
55.834127890097136
 21
184.81035387193836
  0
LINE
  8
_1-3_
  6
CONTINUOUS
 62
    7
 10
51.551055908203125
 20
182.79002009211362
 11
54.273611532675261
 21
185.51258808857688
  0
LINE
  8
_1-3_
  6
CONTINUOUS
 62
    7
 10
49.99053955078125
 20
183.49225430875211
 11
52.713095175253386
 21
186.21482230521539
  0
LINE
  8
_1-3_
  6
CONTINUOUS
 62
    7
 10
48.430032472352735
 20
184.19448852539062
 11
51.152578817831511
 21
186.91704414986276
  0
LINE
  8
_1-3_
  6
CONTINUOUS
 62
    7
 10
46.869519207928647
 20
184.89671037003802
 11
49.592087204391902
 21
187.61926599451016
  0
LINE
  8
_1-3_
  6
CONTINUOUS
 62
    7
 10
45.308999757508985
 20
185.59894458667654
 11
48.031546102987761
 21
188.32151258313979
  0
LINE
  8
_1-3_
  6
CONTINUOUS
 62
    7
 10
43.748486493084897
 20
186.30117880331505
 11
46.471054489548152
 21
189.02373442778716
  0
LINE
  8
_1-3_
  6
CONTINUOUS
 62
    7
 10
42.187976321658567
 20
187.00341301995357
 11
44.910538132126277
 21
189.72596864442568
  0
LINE
  8
_1-3_
  6
CONTINUOUS
 62
    7
 10
40.627469243230053
 20
187.70563486460094
 11
43.350021774704402
 21
190.42820286106419
  0
LINE
  8
_1-3_
  6
CONTINUOUS
 62
    7
 10
39.066959071803751
 20
188.40786908123945
 11
41.789517789273646
 21
191.13042470571159
  0
LINE
  8
_1-3_
  6
CONTINUOUS
 62
    7
 10
37.506455086372995
 20
189.11009092588682
 11
40.229013803842918
 21
191.83264655035896
  0
LINE
  8
_1-3_
  6
CONTINUOUS
 62
    7
 10
35.94594800794448
 20
189.81232514252534
 11
38.668509818412161
 21
192.53488076699747
  0
LINE
  8
_1-3_
  6
CONTINUOUS
 62
    7
 10
34.385447115511511
 20
190.51454698717274
 11
37.108005832981405
 21
193.23710261164487
  0
LINE
  8
_1-3_
  6
CONTINUOUS
 62
    7
 10
32.824940037082968
 20
191.21678120381125
 11
35.547501847550677
 21
193.93932445629224
  0
LINE
  8
_1-3_
  6
CONTINUOUS
 62
    7
 10
31.264429865656666
 20
191.91900304845862
 11
33.986985490128802
 21
194.64155867293076
  0
LINE
  8
_1-3_
  6
CONTINUOUS
 62
    7
 10
29.703919694230365
 20
192.62123726509714
 11
32.426469132706927
 21
195.34379288956927
  0
LINE
  8
_1-3_
  6
CONTINUOUS
 62
    7
 10
28.143415708799637
 20
193.32345910974453
 11
30.865977519267318
 21
196.04601473421664
  0
LINE
  8
_1-3_
  6
CONTINUOUS
 62
    7
 10
26.582905537373307
 20
194.02569332638302
 11
29.305473533836562
 21
196.74823657886404
  0
LINE
  8
_1-3_
  6
CONTINUOUS
 62
    7
 10
25.022398458944792
 20
194.72791517103042
 11
27.744944804423568
 21
197.45048316749367
  0
LINE
  8
_1-3_
  6
CONTINUOUS
 62
    7
 10
23.461891380516249
 20
195.43014938766893
 11
26.184440818992812
 21
198.15270501214107
  0
LINE
  8
_1-3_
  6
CONTINUOUS
 62
    7
 10
21.901390488083308
 20
196.1323712323163
 11
24.623936833562084
 21
198.85493922877959
  0
LINE
  8
_1-3_
  6
CONTINUOUS
 62
    7
 10
20.340883409654765
 20
196.83460544895482
 11
23.063445220122475
 21
199.55714870143584
  0
LINE
  8
_1-3_
  6
CONTINUOUS
 62
    7
 10
18.780374784727371
 20
197.53682729360222
 11
21.5029288627006
 21
200.25938291807432
  0
LINE
  8
_1-3_
  6
CONTINUOUS
 62
    7
 10
17.219866159799949
 20
198.23906151024073
 11
19.942412505278725
 21
200.96161713471284
  0
LINE
  8
_1-3_
  6
CONTINUOUS
 62
    7
 10
17.027027027027032
 20
200.30895748653927
 11
18.381908519847968
 21
201.66385135135135
  0
LINE
  8
_1-3_
  6
CONTINUOUS
 62
    7
 10
198.21686615815034
 20
116.79040857263514
 11
198.21686615815034
 21
94.85870361328125
  0
LINE
  8
_1-3_
  6
DASHED1
 62
    7
 10
198.4056379988387
 20
116.3709238413218
 11
375.59417724609375
 21
196.10577145138302
  0
LINE
  8
_1-3_
  6
DASHED1
 62
    7
 10
198.02809431746201
 20
116.3709238413218
 11
16.838261372334244
 21
197.90635392472552
  0
LINE
  8
_1-3_
  6
CONTINUOUS
 62
    7
 10
198.21686615815034
 20
94.858697427285691
 11
375.40540540540542
 21
174.59353885135135
  0
LINE
  8
_1-3_
  6
DASHED1
 62
    7
 10
198.02809431746201
 20
95.278182158599037
 11
375.40540540540542
 21
175.09796967377534
  0
LINE
  8
_1-3_
  6
CONTINUOUS
 62
    7
 10
198.21686615815034
 20
99.245038419156472
 11
375.40540540540542
 21
178.97987984322214
  0
LINE
  8
_1-3_
  6
CONTINUOUS
 62
    7
 10
198.21686615815034
 20
112.40406758076436
 11
375.40540540540542
 21
192.1389151908256
  0
LINE
  8
_1-3_
  6
CONTINUOUS
 62
    7
 10
198.21686615815034
 20
112.40406758076436
 11
17.027027027027032
 21
193.93949766416807
  0
LINE
  8
_1-3_
  6
CONTINUOUS
 62
    7
 10
198.21686615815034
 20
99.245038419156472
 11
17.027027027027032
 21
180.78047468855576
  0
LINE
  8
_1-3_
  6
DASHED1
 62
    7
 10
198.4056379988387
 20
95.278182158599037
 11
17.027027027027032
 21
176.89855214711784
  0
LINE
  8
_1-3_
  6
CONTINUOUS
 62
    7
 10
198.21686615815034
 20
94.858697427285691
 11
17.027027027027032
 21
176.39413369668497
  0
LINE
  8
_1-2_
  6
CONTINUOUS
 62
    7
 10
134.16743922877956
 20
175.12590562975086
 11
177.87832724081505
 21
160.42820286106419
  0
LINE
  8
_1-3_
  6
CONTINUOUS
 62
    7
 10
177.14411142710094
 20
140.76391271642737
 11
177.87832724081505
 21
160.42820286106419
  0
LINE
  8
_1-2_
  6
CONTINUOUS
 62
    3
 10
121.72618969066724
 20
164.11699862093539
 11
177.31812348236909
 21
145.42431805584883
  0
LINE
  8
_1-3_
  6
CONTINUOUS
 62
    7
 10
218.55540507548565
 20
160.42820286106419
 11
219.28963326119089
 21
140.76391271642737
  0
LINE
  8
_1-2_
  6
CONTINUOUS
 62
    7
 10
262.26629308752115
 20
175.12590562975086
 11
218.55540507548565
 21
160.42820286106419
  0
LINE
  8
_1-2_
  6
CONTINUOUS
 62
    3
 10
267.45908994932432
 20
162.01392096442146
 11
267.31772757865286
 21
162.47001441749367
  0
LINE
  8
_1-3_
  6
CONTINUOUS
 62
    3
 10
274.70754262563344
 20
164.11699862093539
 11
219.11563357791385
 21
145.42433042783995
  0
ARC
  8
_1-2_
  6
CONTINUOUS
 62
    3
 10
221.87725995038008
 20
142.55485740867823
 40
0.599999959404404
 50
108.5858917236328
 51
196.71983337402344
  0
ARC
  8
_1-2_
  6
CONTINUOUS
 62
    3
 10
220.83806218327703
 20
141.49559227195948
 40
0.1999999904954755
 50
196.71757507324219
 51
288.5885009765625
  0
ARC
  8
_1-2_
  6
CONTINUOUS
 62
    3
 10
219.70006169499578
 20
141.11293895824537
 40
0.1999999904954755
 50
288.58401489257812
 51
16.717575073242227
  0
ARC
  8
_1-2_
  6
CONTINUOUS
 62
    3
 10
221.312255859375
 20
141.65503012167443
 40
0.1999999904954755
 50
288.5885009765625
 51
16.719955444335923
  0
ARC
  8
_1-2_
  6
CONTINUOUS
 62
    3
 10
269.43257099873313
 20
163.41558095571159
 40
0.599999959404404
 50
109.0858917236328
 51
197.21983337402344
  0
ARC
  8
_1-2_
  6
CONTINUOUS
 62
    3
 10
268.40267696896115
 20
162.34728426546664
 40
0.1999999904954755
 50
197.21757507324216
 51
289.0885009765625
  0
ARC
  8
_1-2_
  6
CONTINUOUS
 62
    3
 10
267.26801691828547
 20
161.95470861486487
 40
0.1999999904954755
 50
289.08401489257812
 51
17.217575073242223
  0
ARC
  8
_1-2_
  6
CONTINUOUS
 62
    3
 10
268.87541075010557
 20
162.51085436021961
 40
0.1999999904954755
 50
289.0885009765625
 51
17.219955444335916
  0
ARC
  8
_1-2_
  6
CONTINUOUS
 62
    3
 10
266.7952583931588
 20
161.79115089210305
 40
0.1999999904954755
 50
197.216552734375
 51
289.08514404296875
  0
ARC
  8
_1-2_
  6
CONTINUOUS
 62
    3
 10
316.85248297614021
 20
184.754543819943
 40
0.599999959404404
 50
109.0858917236328
 51
197.21983337402344
  0
ARC
  8
_1-2_
  6
CONTINUOUS
 62
    3
 10
315.82258894636828
 20
183.68624712969807
 40
0.1999999904954755
 50
197.21757507324216
 51
289.0885009765625
  0
ARC
  8
_1-2_
  6
CONTINUOUS
 62
    3
 10
314.68792889569261
 20
183.2936714790963
 40
0.1999999904954755
 50
289.08401489257812
 51
17.217575073242223
  0
ARC
  8
_1-2_
  6
CONTINUOUS
 62
    3
 10
316.29532272751271
 20
183.84981722445102
 40
0.1999999904954755
 50
289.0885009765625
 51
17.219955444335916
  0
ARC
  8
_1-2_
  6
CONTINUOUS
 62
    3
 10
314.21517037056589
 20
183.13011375633448
 40
0.1999999904954755
 50
197.216552734375
 51
289.08514404296875
  0
ARC
  8
_1-2_
  6
CONTINUOUS
 62
    3
 10
364.27244444151182
 20
206.09350668417443
 40
0.599999959404404
 50
109.0858917236328
 51
197.21983337402344
  0
ARC
  8
_1-2_
  6
CONTINUOUS
 62
    3
 10
363.2425504117399
 20
205.02520999392948
 40
0.1999999904954755
 50
197.21757507324216
 51
289.0885009765625
  0
ARC
  8
_1-2_
  6
CONTINUOUS
 62
    3
 10
362.10786561708193
 20
204.63263434332771
 40
0.1999999904954755
 50
289.08401489257812
 51
17.217575073242223
  0
ARC
  8
_1-2_
  6
CONTINUOUS
 62
    3
 10
363.71525944890203
 20
205.18878008868245
 40
0.1999999904954755
 50
289.0885009765625
 51
17.219955444335916
  0
ARC
  8
_1-2_
  6
CONTINUOUS
 62
    3
 10
361.63510709195526
 20
204.46907662056589
 40
0.1999999904954755
 50
197.216552734375
 51
289.08514404296875
  0
ARC
  8
_1-2_
  6
CONTINUOUS
 62
    3
 10
174.55645999392948
 20
142.55485740867823
 40
0.599999959404404
 50
343.28016662597656
 51
71.414108276367131
  0
ARC
  8
_1-2_
  6
CONTINUOUS
 62
    3
 10
175.59565776103253
 20
141.49559227195948
 40
0.1999999904954755
 50
251.41149902343753
 51
343.28242492675787
  0
ARC
  8
_1-2_
  6
CONTINUOUS
 62
    3
 10
176.7336706213049
 20
141.11293895824537
 40
0.1999999904954755
 50
163.28242492675778
 51
251.41598510742185
  0
ARC
  8
_1-2_
  6
CONTINUOUS
 62
    3
 10
175.12148882891682
 20
141.65503012167443
 40
0.1999999904954755
 50
163.28004455566406
 51
251.41149902343753
  0
ARC
  8
_1-2_
  6
CONTINUOUS
 62
    3
 10
127.00114894557645
 20
163.41558095571159
 40
0.599999959404404
 50
342.77923583984375
 51
70.913177490234318
  0
ARC
  8
_1-2_
  6
CONTINUOUS
 62
    3
 10
128.03104297534841
 20
162.34728426546664
 40
0.1999999904954755
 50
250.90820312500003
 51
342.77912902832037
  0
ARC
  8
_1-2_
  6
CONTINUOUS
 62
    3
 10
129.16571539801521
 20
161.95470861486487
 40
0.1999999904954755
 50
162.77912902832031
 51
250.91268920898437
  0
ARC
  8
_1-2_
  6
CONTINUOUS
 62
    3
 10
127.5583215661951
 20
162.51085436021961
 40
0.1999999904954755
 50
162.77674865722659
 51
250.90820312500003
  0
ARC
  8
_1-2_
  6
CONTINUOUS
 62
    3
 10
129.6384739231419
 20
161.79115089210305
 40
0.1999999904954755
 50
250.91156005859378
 51
342.7801513671875
  0
ARC
  8
_1-2_
  6
CONTINUOUS
 62
    3
 10
79.581249340160468
 20
184.754543819943
 40
0.599999959404404
 50
342.77923583984375
 51
70.913177490234318
  0
ARC
  8
_1-2_
  6
CONTINUOUS
 62
    3
 10
80.611143369932449
 20
183.68624712969807
 40
0.1999999904954755
 50
250.90820312500003
 51
342.77912902832037
  0
ARC
  8
_1-2_
  6
CONTINUOUS
 62
    3
 10
81.745803420608127
 20
183.2936714790963
 40
0.1999999904954755
 50
162.77912902832031
 51
250.91268920898437
  0
ARC
  8
_1-2_
  6
CONTINUOUS
 62
    3
 10
80.138409588788022
 20
183.84981722445102
 40
0.1999999904954755
 50
162.77674865722659
 51
250.90820312500003
  0
ARC
  8
_1-2_
  6
CONTINUOUS
 62
    3
 10
82.218561945734805
 20
183.13011375633448
 40
0.1999999904954755
 50
250.91156005859378
 51
342.7801513671875
  0
ARC
  8
_1-2_
  6
CONTINUOUS
 62
    3
 10
32.161287874788854
 20
206.09350668417443
 40
0.599999959404404
 50
342.77923583984375
 51
70.913177490234318
  0
ARC
  8
_1-2_
  6
CONTINUOUS
 62
    3
 10
33.191181904560807
 20
205.02520999392948
 40
0.1999999904954755
 50
250.90820312500003
 51
342.77912902832037
  0
ARC
  8
_1-2_
  6
CONTINUOUS
 62
    3
 10
34.32586669921875
 20
204.63263434332771
 40
0.1999999904954755
 50
162.77912902832031
 51
250.91268920898437
  0
ARC
  8
_1-2_
  6
CONTINUOUS
 62
    3
 10
32.718472867398646
 20
205.18878008868245
 40
0.1999999904954755
 50
162.77674865722659
 51
250.90820312500003
  0
ARC
  8
_1-2_
  6
CONTINUOUS
 62
    3
 10
34.798625224345443
 20
204.46907662056589
 40
0.1999999904954755
 50
250.91156005859378
 51
342.7801513671875
  0
ARC
  8
_1-2_
  6
CONTINUOUS
 62
    3
 10
174.55647236592063
 20
142.55485740867823
 40
0.599999959404404
 50
343.28016662597656
 51
71.414108276367131
  0
ARC
  8
_1-2_
  6
CONTINUOUS
 62
    3
 10
175.59567013302365
 20
141.49559227195948
 40
0.1999999904954755
 50
251.41149902343753
 51
343.28242492675787
  0
ARC
  8
_1-2_
  6
CONTINUOUS
 62
    3
 10
176.7336706213049
 20
141.11293895824537
 40
0.1999999904954755
 50
163.28242492675778
 51
251.41598510742185
  0
ARC
  8
_1-2_
  6
CONTINUOUS
 62
    3
 10
175.12147645692568
 20
141.65503012167443
 40
0.1999999904954755
 50
163.28004455566406
 51
251.41149902343753
  0
TEXT
  8
_0-0_
 62
    7
 10
141.89189395389042
 20
14.594594594594582
 40
2.5
 41
1
 50
0
  1
縮尺
  0
TEXT
  8
_0-0_
 62
    7
 10
377.10214563318203
 20
22.865493362014362
 40
2.5
 41
1
 50
0
  1
ＮＯ
  0
TEXT
  8
_1-0_
 62
    7
 10
169.90681828679266
 20
13.3181144095756
 40
2.5
 41
1
 50
0
  1
1/5
  0
TEXT
  8
_0-0_
 62
    7
 10
14.594594336844779
 20
24.324324324324323
 40
2.5
 41
1
 50
0
  1
Ｓ型
  0
TEXT
  8
_0-0_
 62
    7
 10
383.97877873601146
 20
17.689098667454061
 40
2.5
 41
1
 50
0
  1
Ｓ
  0
TEXT
  8
_1-3_
 62
    7
 10
305.03806861671239
 20
117.06003137536952
 40
2.5
 41
1
 50
0
  1
瓦桟
  0
TEXT
  8
_1-3_
 62
    7
 10
270.41636286555115
 20
212.88010055954393
 40
2.5
 41
1
 50
0
  1
Ｓ型　桟瓦
  0
TEXT
  8
_1-3_
 62
    7
 10
39.721903929839272
 20
15.395235628695104
 40
2.5
 41
1
 50
0
  1
谷
  0
TEXT
  8
_1-3_
 62
    7
 10
395.41898572767104
 20
16.378221254091017
 40
2.5
 41
1
 50
0
  1
30
  0
TEXT
  8
_1-3_
 62
    7
 10
25.556194717819636
 20
20.211577544341225
 40
2.5
 41
1
 50
0
  1
鉄骨
  0
LINE
  8
_1-0_
  6
DASHED1
 62
    7
 10
198.21686615815034
 20
121.236852697424
 11
17.027027027027032
 21
202.77225803684544
  0
LINE
  8
_1-0_
  6
DASHED1
 62
    7
 10
198.21686615815034
 20
121.236852697424
 11
243.81294165610723
 21
141.75508603230486
  0
LINE
  8
_1-0_
  6
DASHED1
 62
    7
 10
198.21686615815034
 20
120.9874890326286
 11
375.31208983249962
 21
200.680340917781
  0
LINE
  8
_1-0_
  6
DASHED1
 62
    7
 10
198.21686615815034
 20
120.9874890326286
 11
152.62078880159896
 21
141.50571823729885
  0
LINE
  8
_1-0_
  6
DASHED1
 62
    6
 10
198.21686615815034
 20
120.73812536291175
 11
152.62078996903978
 21
141.25635716189544
  0
LINE
  8
_1-0_
  6
DASHED1
 62
    6
 10
198.27981484902872
 20
120.76644485061233
 11
243.87588963076411
 21
141.2846797770965
  0
POINT
  8
_1-3_
 62
    7
 10
136.71744179808923
 20
105.91558721007885
  0
POINT
  8
_1-3_
 62
    7
 10
182.31351623961922
 20
85.39735152758324
  0
LINE
  8
_1-3_
  6
CONTINUOUS
 62
    7
 10
136.71744179808923
 20
105.91558721007885
 11
147.55738042161653
 21
130.00433714298001
  0
LINE
  8
_1-3_
  6
CONTINUOUS
 62
    7
 10
182.31351623961922
 20
85.39735152758324
 11
193.15345486314652
 21
109.48610146048441
  0
LINE
  8
_1-3_
  6
CONTINUOUS
 62
    7
 10
136.71744179808923
 20
105.91558721007885
 11
182.31351623961922
 21
85.39735152758324
  0
TEXT
  8
_1-3_
 62
    7
 10
158.0108085841218
 20
96.881863951339938
 40
2.5
 41
1
 50
-24.227747599999958
  1
250
  0
POINT
  8
_1-3_
 62
    7
 10
212.87146154071439
 20
88.172357347993682
  0
POINT
  8
_1-3_
 62
    7
 10
258.53048283004347
 20
108.71891661392229
  0
LINE
  8
_1-3_
  6
CONTINUOUS
 62
    7
 10
212.87146154071439
 20
88.172357347993682
 11
203.22143277556657
 21
109.61686604299291
  0
LINE
  8
_1-3_
  6
CONTINUOUS
 62
    7
 10
258.53048283004347
 20
108.71891661392229
 11
248.88045406489564
 21
130.16342530892152
  0
LINE
  8
_1-3_
  6
CONTINUOUS
 62
    7
 10
212.87146154071439
 20
88.172357347993682
 11
258.53048283004347
 21
108.71891661392229
  0
TEXT
  8
_1-3_
 62
    7
 10
233.78593702271692
 20
98.132163974515478
 40
2.5
 41
1
 50
24.227744990000001
  1
250
  0
TEXT
  8
_1-3_
 62
    7
 10
157.68657940103193
 20
48.368366592955468
 40
2.5
 41
1
 50
0
  1
谷部分の下葺き材（ゴムアス系ルーフィング）は、両方向へそれぞれ250ｍｍ以上重ね合わせること。
  0
TEXT
  8
_1-3_
 62
    7
 10
157.68194609035311
 20
39.775994007968151
 40
2.5
 41
1
 50
0
  1
谷巾については専門業者と相談
  0
TEXT
  8
_1-3_
 62
    7
 10
157.9665410643554
 20
43.928018766796797
 40
2.5
 41
1
 50
0
  1
谷底部分には捨て貼りをする
  0
TEXT
  8
_1-3_
 62
    7
 10
162.36776178998196
 20
94.69187996814037
 40
2.5
 41
1
 50
-24.227746934022353
  1
谷底部分捨て貼り
  0
TEXT
  8
_1-3_
 62
    7
 10
239.16614430111699
 20
100.45693947699445
 40
2.5
 41
1
 50
24.227748550088318
  1
谷底部分捨て貼り
  0
LINE
  8
_1-3_
  6
CONTINUOUS
 62
    3
 10
44.582339793597811
 20
73.653754003968828
 11
71.715996888192393
 21
61.443600888206575
  0
LINE
  8
_1-3_
  6
CONTINUOUS
 62
    3
 10
71.715996888192393
 20
61.443600888206575
 11
98.960333815451719
 21
73.70355126827414
  0
LINE
  8
_1-3_
  6
CONTINUOUS
 62
    3
 10
96.77143165645677
 20
78.567723301635638
 11
96.71662373574307
 21
78.68951318233664
  0
LINE
  8
_1-3_
  6
CONTINUOUS
 62
    3
 10
42.76143013882583
 20
80.322591267746276
 11
47.175509134814007
 21
80.322591267746276
  0
LINE
  8
_1-3_
  6
CONTINUOUS
 62
    3
 10
101.21025463470843
 20
80.496232163280482
 11
96.425263344590206
 21
80.496232163280482
  0
LINE
  8
_1-3_
  6
CONTINUOUS
 62
    3
 10
46.844583116021767
 20
78.680914648500078
 11
42.76143013882583
 21
80.322591267746276
  0
LINE
  8
_1-3_
  6
CONTINUOUS
 62
    3
 10
44.582339793597811
 20
73.653754003968828
 11
46.844583116021767
 21
78.680914648500078
  0
LINE
  8
_1-3_
  6
CONTINUOUS
 62
    3
 10
98.960333815451719
 20
73.70355126827414
 11
96.71662373574307
 21
78.68951318233664
  0
LINE
  8
_1-3_
  6
CONTINUOUS
 62
    3
 10
96.71662373574307
 20
78.68951318233664
 11
101.21025463470843
 21
80.496232163280482
  0
LINE
  8
_1-3_
  6
CONTINUOUS
 62
    7
 10
52.470473899383279
 20
100.05677079028641
 11
56.314055640303906
 21
100.05677079028641
  0
LINE
  8
_1-3_
  6
CONTINUOUS
 62
    7
 10
48.184271803732969
 20
85.361257864030065
 11
52.470473899383279
 21
100.05677079028641
  0
LINE
  8
_1-3_
  6
CONTINUOUS
 62
    7
 10
48.184271803732969
 20
85.361257864030065
 11
48.184271803732969
 21
89.137610205140703
  0
CIRCLE
  8
_1-3_
  6
CONTINUOUS
 62
    7
 10
46.896075343112187
 20
79.904492199439687
 40
5.6067640716965137
  0
TEXT
  8
_1-3_
 62
    7
 10
56.83325037214513
 20
98.932936231851016
 40
2.5
 41
1
 50
0
  1
ハぜを必ず付けること
  0
TEXT
  8
_1-3_
 62
    7
 10
67.844848701431431
 20
55.331311459495637
 40
3
 41
1
 50
0
  1
谷樋
  0
TEXT
  8
_1-3_
 62
    7
 10
318.31242396014909
 20
114.30910957255503
 40
2.5
 41
1
 50
0
  1
※　地域により瓦桟木の大きさは、異なります
  0
TEXT
  8
_1-3_
 62
    7
 10
318.08153786164826
 20
117.49625820800688
 40
2.5
 41
1
 50
0
  1
15×21以上　（防腐処理）
  0
LINE
  8
_1-3_
  6
CONTINUOUS
 62
    7
 10
274.28570721600511
 20
158.09793833139781
 11
297.56947285420188
 21
91.647938248448142
  0
LINE
  8
_1-3_
  6
CONTINUOUS
 62
    7
 10
297.56947285420188
 20
91.647938248448142
 11
301.62162162162161
 21
91.647938248448142
  0
LINE
  8
_1-3_
  6
CONTINUOUS
 62
    7
 10
301.62162162162161
 20
97.420065966986996
 11
295.46858504011828
 21
97.420065966986996
  0
LINE
  8
_1-3_
  6
CONTINUOUS
 62
    7
 10
301.62162162162161
 20
103.59093058771124
 11
293.22257377005911
 21
103.59093058771124
  0
LINE
  8
_1-3_
  6
CONTINUOUS
 62
    7
 10
301.62162162162161
 20
109.53324741625853
 11
291.05975176836995
 21
109.53324741625853
  0
TEXT
  8
_1-3_
 62
    7
 10
305.03806861671239
 20
90.581682936739952
 40
2.5
 41
1
 50
0
  1
垂木
  0
TEXT
  8
_1-3_
 62
    7
 10
305.03807686470651
 20
102.58168541113818
 40
2.5
 41
1
 50
0
  1
下葺き材
  0
TEXT
  8
_1-3_
 62
    7
 10
305.03807274070948
 20
108.58168046234172
 40
2.5
 41
1
 50
0
  1
流し桟
  0
TEXT
  8
_1-3_
 62
    7
 10
319.47124171901396
 20
90.581682936739952
 40
2.5
 41
1
 50
0
  1
Ｃ－100ｘ50ｘ20ｘ2.3
  0
TEXT
  8
_1-3_
 62
    7
 10
305.03807686470651
 20
96.581684173939067
 40
2.5
 41
1
 50
0
  1
硬質木片セメント板　ｔ＝18
  0
TEXT
  8
_1-3_
 62
    7
 10
318.74936150508995
 20
102.50577624190747
 40
2.5
 41
1
 50
0
  1
アスファルトルーフィング940
  0
LINE
  8
_1-3_
  6
CONTINUOUS
 62
    7
 10
163.05556963840695
 20
219.25026373269878
 11
173.77838672429166
 21
219.25026373269878
  0
LINE
  8
_1-3_
  6
CONTINUOUS
 62
    7
 10
163.05556963840695
 20
219.25026373269878
 11
146.36485044631445
 21
219.25026373269878
  0
TEXT
  8
_1-3_
 62
    7
 10
102.21704762945951
 20
217.82149670883899
 40
2.5
 41
1
 50
0
  1
ステンレス　（ＳＵＳ３０４）又は、
  0
TEXT
  8
_1-3_
 62
    7
 10
93.306025133880453
 20
217.70725374272837
 40
2.5
 41
1
 50
0
  1
谷樋
  0
TEXT
  8
_1-3_
 62
    7
 10
102.21704350546248
 20
214.39418298153748
 40
2.5
 41
1
 50
0
  1
銅板ｔ=0.4以上もしくは、耐久性の有する材料を使用すること
  0
LINE
  8
_1-3_
  6
CONTINUOUS
 62
    7
 10
173.77838672429166
 20
219.25026373269878
 11
215.32672943873357
 21
131.42330309163043
  0
ENDSEC
  0
EOF
