0
SECTION
2
HEADER
  9
$EXTMIN
10
0
20
0
30
0
  9
$EXTMAX
10
8137.329
20
4131.860
30
0
  9
$LTSCALE
40
20.000
  9
$DIMSCALE
40
20.000
  9
$PDMODE
70
0
  9
$PDSIZE
40
40
0
ENDSEC
0
SECTION
2
TABLES
0
TABLE
2
LTYPE
70
9
0
LTYPE
5
1f4
2
CONTINUOUS
70
0
3
実線
72
65
73
0
40
0.0
0
LTYPE
5
1f5
2
DOT
70
0
3
--  --  --  --  --  --  --  --     
72
65
73
2
40
5.000
49
1.000
49
-4.000
0
LTYPE
5
1f6
2
DASHED
70
0
3
----    ----    ----    ----    
72
65
73
2
40
5.000
49
2.000
49
-3.000
0
LTYPE
5
1f7
2
DASHED2
70
0
3
------  ------  ------  ------ 
72
65
73
2
40
10.000
49
4.000
49
-6.000
0
LTYPE
5
1f8
2
CENTER
70
0
3
----- - ----- - ----- - ----- - 
72
65
73
4
40
9.000
49
6.000
49
-1.000
49
1.000
49
-1.000
0
LTYPE
5
1f9
2
CENTER2
70
0
3
----------  --  ----------  -- 
72
65
73
4
40
18.000
49
12.000
49
-2.000
49
2.000
49
-2.000
0
LTYPE
5
1fa
2
PHANTOM
70
0
3
--- - - --- - - --- - - --- - -
72
65
73
6
40
10.000
49
5.000
49
-1.000
49
1.000
49
-1.000
49
1.000
49
-1.000
0
LTYPE
5
1fb
2
PHANTOM2
70
0
3
--------  -  -  --------  -  -
72
65
73
6
40
16.000
49
6.000
49
-2.000
49
2.000
49
-2.000
49
2.000
49
-2.000
0
LTYPE
5
1fc
2
HIDDEN
70
0
3
-   -   -   -   -   -   -   -   
72
65
73
2
40
2.500
49
0.500
49
-2.000
0
ENDTAB
0
TABLE
2
STYLE
70
1
0
STYLE
5
1fd
100
AcDbSymbolTableRecord
100
AcDbTextStyleTableRecord
2
STANDARD
70
0
40
0.0
41
1.0
50
0.0
71
0
42
0.0
3
txt.shx
4
extfont.shx
0
STYLE
5
1fe
100
AcDbSymbolTableRecord
100
AcDbTextStyleTableRecord
2
TATEGAKI
70
4
40
0.0
41
1.0
50
0.0
71
0
42
0.0
3
txt.shx
4
extfont.shx
0
STYLE
5
1ff
100
AcDbSymbolTableRecord
100
AcDbTextStyleTableRecord
2
MT
70
0
40
0.0
41
1.0
50
0.0
71
0
42
0.0
3
MS Mincho
4

0
STYLE
5
200
100
AcDbSymbolTableRecord
100
AcDbTextStyleTableRecord
2
TMT
70
4
40
0.0
41
1.0
50
0.0
71
0
42
0.0
3
@MS Mincho
4

0
ENDTAB
0
TABLE
2
LAYER
5
21ebb
100
AcDbSymbolTable
70
10
0
LAYER
5
21ebc
100
AcDbSymbolTableRecord
100
AcDbLayerTableRecord
2
0
70
64
62
  7
  6
CONTINUOUS
0
LAYER
5
21ebd
100
AcDbSymbolTableRecord
100
AcDbLayerTableRecord
2
0-0
70
64
62
  7
  6
CONTINUOUS
0
LAYER
5
21ebe
100
AcDbSymbolTableRecord
100
AcDbLayerTableRecord
2
0-1
70
64
62
  7
  6
CONTINUOUS
0
LAYER
5
21ebf
100
AcDbSymbolTableRecord
100
AcDbLayerTableRecord
2
0-2
70
64
62
  7
  6
CONTINUOUS
0
LAYER
5
21ec0
100
AcDbSymbolTableRecord
100
AcDbLayerTableRecord
2
0-3
70
64
62
  7
  6
CONTINUOUS
0
LAYER
5
21ec1
100
AcDbSymbolTableRecord
100
AcDbLayerTableRecord
2
ADD_LINE
70
64
62
  -7
  6
CONTINUOUS
0
ENDTAB
0
ENDSEC
0
SECTION
2
ENTITIES
0
LINE
5
21ec2
8
0-0
6
CONTINUOUS
62
  7
10
3987.460
20
2302.650
30
0.0
11
3949.270
21
2194.180
31
0.0
0
LINE
5
21ec3
8
0-0
6
CONTINUOUS
62
  7
10
3746.510
20
2407.200
30
0.0
11
3708.320
21
2298.730
31
0.0
0
LINE
5
21ec4
8
0-0
6
CONTINUOUS
62
  7
10
3740.330
20
2389.660
30
0.0
11
3987.460
21
2302.650
31
0.0
0
LINE
5
21ec5
8
0-0
6
CONTINUOUS
62
  7
10
3708.320
20
2298.730
30
0.0
11
3949.270
21
2194.180
31
0.0
0
LINE
5
21ec6
8
0-0
6
CONTINUOUS
62
  7
10
3740.330
20
2389.660
30
0.0
11
3708.320
21
2298.730
31
0.0
0
LINE
5
21ec7
8
0-0
6
CONTINUOUS
62
  7
10
3467.360
20
2403.280
30
0.0
11
3708.320
21
2298.730
31
0.0
0
LINE
5
21ec8
8
0-0
6
CONTINUOUS
62
  7
10
3499.380
20
2494.210
30
0.0
11
3467.360
21
2403.280
31
0.0
0
LINE
5
21ec9
8
0-0
6
CONTINUOUS
62
  7
10
3499.380
20
2494.210
30
0.0
11
3746.510
21
2407.200
31
0.0
0
LINE
5
21eca
8
0-0
6
CONTINUOUS
62
  7
10
3505.560
20
2511.750
30
0.0
11
3467.360
21
2403.280
31
0.0
0
LINE
5
21ecb
8
0-0
6
CONTINUOUS
62
  7
10
3499.380
20
2494.210
30
0.0
11
3467.360
21
2403.280
31
0.0
0
LINE
5
21ecc
8
0-0
6
CONTINUOUS
62
  7
10
3226.410
20
2507.830
30
0.0
11
3467.360
21
2403.280
31
0.0
0
LINE
5
21ecd
8
0-0
6
CONTINUOUS
62
  7
10
3258.430
20
2598.760
30
0.0
11
3226.410
21
2507.830
31
0.0
0
LINE
5
21ece
8
0-0
6
CONTINUOUS
62
  7
10
3258.430
20
2598.760
30
0.0
11
3505.560
21
2511.750
31
0.0
0
LINE
5
21ecf
8
0-0
6
CONTINUOUS
62
  7
10
3264.600
20
2616.300
30
0.0
11
3226.410
21
2507.830
31
0.0
0
LINE
5
21ed0
8
0-0
6
CONTINUOUS
62
  7
10
3258.430
20
2598.760
30
0.0
11
3226.410
21
2507.830
31
0.0
0
LINE
5
21ed1
8
0-0
6
CONTINUOUS
62
  7
10
2985.450
20
2612.380
30
0.0
11
3226.410
21
2507.830
31
0.0
0
LINE
5
21ed2
8
0-0
6
CONTINUOUS
62
  7
10
3017.470
20
2703.310
30
0.0
11
2985.450
21
2612.380
31
0.0
0
LINE
5
21ed3
8
0-0
6
CONTINUOUS
62
  7
10
3017.470
20
2703.310
30
0.0
11
3264.600
21
2616.300
31
0.0
0
LINE
5
21ed4
8
0-0
6
CONTINUOUS
62
  7
10
3023.650
20
2720.850
30
0.0
11
2985.450
21
2612.380
31
0.0
0
LINE
5
21ed5
8
0-0
6
CONTINUOUS
62
  7
10
3017.470
20
2703.310
30
0.0
11
2985.450
21
2612.380
31
0.0
0
LINE
5
21ed6
8
0-0
6
CONTINUOUS
62
  7
10
2744.500
20
2716.920
30
0.0
11
2985.450
21
2612.380
31
0.0
0
LINE
5
21ed7
8
0-0
6
CONTINUOUS
62
  7
10
2776.520
20
2807.860
30
0.0
11
2744.500
21
2716.920
31
0.0
0
LINE
5
21ed8
8
0-0
6
CONTINUOUS
62
  7
10
2776.520
20
2807.860
30
0.0
11
3023.650
21
2720.850
31
0.0
0
LINE
5
21ed9
8
0-0
6
CONTINUOUS
62
  7
10
2782.690
20
2825.400
30
0.0
11
2744.500
21
2716.920
31
0.0
0
LINE
5
21eda
8
0-0
6
CONTINUOUS
62
  7
10
2776.520
20
2807.860
30
0.0
11
2744.500
21
2716.920
31
0.0
0
LINE
5
21edb
8
0-0
6
CONTINUOUS
62
  7
10
2503.540
20
2821.470
30
0.0
11
2744.500
21
2716.920
31
0.0
0
LINE
5
21edc
8
0-0
6
CONTINUOUS
62
  7
10
2535.560
20
2912.410
30
0.0
11
2503.540
21
2821.470
31
0.0
0
LINE
5
21edd
8
0-0
6
CONTINUOUS
62
  7
10
2535.560
20
2912.410
30
0.0
11
2782.690
21
2825.400
31
0.0
0
LINE
5
21ede
8
0-0
6
CONTINUOUS
62
  7
10
2541.740
20
2929.950
30
0.0
11
2503.540
21
2821.470
31
0.0
0
LINE
5
21edf
8
0-0
6
CONTINUOUS
62
  7
10
2535.560
20
2912.410
30
0.0
11
2503.540
21
2821.470
31
0.0
0
LINE
5
21ee0
8
0-0
6
CONTINUOUS
62
  7
10
2262.590
20
2926.020
30
0.0
11
2503.540
21
2821.470
31
0.0
0
LINE
5
21ee1
8
0-0
6
CONTINUOUS
62
  7
10
2294.610
20
3016.960
30
0.0
11
2262.590
21
2926.020
31
0.0
0
LINE
5
21ee2
8
0-0
6
CONTINUOUS
62
  7
10
2294.610
20
3016.960
30
0.0
11
2541.740
21
2929.950
31
0.0
0
LINE
5
21ee3
8
0-0
6
CONTINUOUS
62
  7
10
2300.780
20
3034.500
30
0.0
11
2262.590
21
2926.020
31
0.0
0
LINE
5
21ee4
8
0-0
6
CONTINUOUS
62
  7
10
2294.610
20
3016.960
30
0.0
11
2262.590
21
2926.020
31
0.0
0
LINE
5
21ee5
8
0-0
6
CONTINUOUS
62
  7
10
2021.630
20
3030.570
30
0.0
11
2262.590
21
2926.020
31
0.0
0
LINE
5
21ee6
8
0-0
6
CONTINUOUS
62
  7
10
2053.650
20
3121.510
30
0.0
11
2021.630
21
3030.570
31
0.0
0
LINE
5
21ee7
8
0-0
6
CONTINUOUS
62
  7
10
2053.650
20
3121.510
30
0.0
11
2300.780
21
3034.500
31
0.0
0
LINE
5
21ee8
8
0-0
6
CONTINUOUS
62
  7
10
2059.830
20
3139.040
30
0.0
11
2021.630
21
3030.570
31
0.0
0
LINE
5
21ee9
8
0-0
6
CONTINUOUS
62
  7
10
2053.650
20
3121.510
30
0.0
11
2021.630
21
3030.570
31
0.0
0
LINE
5
21eea
8
0-0
6
CONTINUOUS
62
  7
10
1780.680
20
3135.120
30
0.0
11
2021.630
21
3030.570
31
0.0
0
LINE
5
21eeb
8
0-0
6
CONTINUOUS
62
  7
10
1812.700
20
3226.060
30
0.0
11
1780.680
21
3135.120
31
0.0
0
LINE
5
21eec
8
0-0
6
CONTINUOUS
62
  7
10
1812.700
20
3226.060
30
0.0
11
2059.830
21
3139.040
31
0.0
0
LINE
5
21eed
8
0-0
6
CONTINUOUS
62
  7
10
1818.870
20
3243.590
30
0.0
11
1780.680
21
3135.120
31
0.0
0
LINE
5
21eee
8
0-0
6
CONTINUOUS
62
  7
10
1812.700
20
3226.060
30
0.0
11
1780.680
21
3135.120
31
0.0
0
LINE
5
21eef
8
0-0
6
CONTINUOUS
62
  7
10
1539.730
20
3239.670
30
0.0
11
1780.680
21
3135.120
31
0.0
0
LINE
5
21ef0
8
0-0
6
CONTINUOUS
62
  7
10
1571.740
20
3330.600
30
0.0
11
1539.730
21
3239.670
31
0.0
0
LINE
5
21ef1
8
0-0
6
CONTINUOUS
62
  7
10
1571.740
20
3330.600
30
0.0
11
1818.870
21
3243.590
31
0.0
0
LINE
5
21ef2
8
0-2
6
CONTINUOUS
62
  7
10
4323.650
20
2237.650
30
0.0
11
4302.400
21
2250.650
31
0.0
0
LINE
5
21ef3
8
0-1
6
CONTINUOUS
62
  7
10
4179.550
20
2187.650
30
0.0
11
4162.110
21
2187.650
31
0.0
0
LINE
5
21ef4
8
0-1
6
CONTINUOUS
62
  7
10
4173.650
20
2237.650
30
0.0
11
4162.110
21
2187.650
31
0.0
0
LINE
5
21ef5
8
0-1
6
CONTINUOUS
62
  7
10
4190.380
20
2234.570
30
0.0
11
4179.550
21
2187.650
31
0.0
0
LINE
5
21ef6
8
0-0
6
CONTINUOUS
62
  7
10
1571.740
20
3330.600
30
0.0
11
1539.730
21
3239.670
31
0.0
0
LINE
5
21ef7
8
0-0
6
CONTINUOUS
62
  7
10
1577.920
20
3348.140
30
0.0
11
1539.730
21
3239.670
31
0.0
0
LINE
5
21ef8
8
0-0
6
CONTINUOUS
62
  7
10
1571.740
20
3330.600
30
0.0
11
1539.730
21
3239.670
31
0.0
0
LINE
5
21ef9
8
0-0
6
CONTINUOUS
62
  7
10
1298.770
20
3344.220
30
0.0
11
1539.730
21
3239.670
31
0.0
0
LINE
5
21efa
8
0-0
6
CONTINUOUS
62
  7
10
1330.790
20
3435.150
30
0.0
11
1298.770
21
3344.220
31
0.0
0
LINE
5
21efb
8
0-0
6
CONTINUOUS
62
  7
10
1330.790
20
3435.150
30
0.0
11
1577.920
21
3348.140
31
0.0
0
LINE
5
21efc
8
0-0
6
CONTINUOUS
62
  7
10
1336.960
20
3452.690
30
0.0
11
1298.770
21
3344.220
31
0.0
0
LINE
5
21efd
8
0-0
6
CONTINUOUS
62
  7
10
1330.790
20
3435.150
30
0.0
11
1298.770
21
3344.220
31
0.0
0
LINE
5
21efe
8
0-0
6
CONTINUOUS
62
  7
10
1057.820
20
3448.770
30
0.0
11
1298.770
21
3344.220
31
0.0
0
LINE
5
21eff
8
0-0
6
CONTINUOUS
62
  7
10
1089.830
20
3539.700
30
0.0
11
1057.820
21
3448.770
31
0.0
0
LINE
5
21f00
8
0-0
6
CONTINUOUS
62
  7
10
1089.830
20
3539.700
30
0.0
11
1336.960
21
3452.690
31
0.0
0
LINE
5
21f01
8
0-1
6
CONTINUOUS
62
  7
10
4323.650
20
2342.200
30
0.0
11
4302.400
21
2355.200
31
0.0
0
LINE
5
21f02
8
0-1
6
CONTINUOUS
62
  7
10
4179.550
20
2292.200
30
0.0
11
4162.110
21
2292.200
31
0.0
0
LINE
5
21f03
8
0-1
6
CONTINUOUS
62
  7
10
4173.650
20
2342.200
30
0.0
11
4162.110
21
2292.200
31
0.0
0
LINE
5
21f04
8
0-1
6
CONTINUOUS
62
  7
10
4190.380
20
2339.120
30
0.0
11
4179.550
21
2292.200
31
0.0
0
LINE
5
21f05
8
0-1
6
CONTINUOUS
62
  7
10
4323.650
20
2446.750
30
0.0
11
4302.400
21
2459.750
31
0.0
0
LINE
5
21f06
8
0-1
6
CONTINUOUS
62
  7
10
4179.550
20
2396.750
30
0.0
11
4162.110
21
2396.750
31
0.0
0
LINE
5
21f07
8
0-1
6
CONTINUOUS
62
  7
10
4173.650
20
2446.750
30
0.0
11
4162.110
21
2396.750
31
0.0
0
LINE
5
21f08
8
0-1
6
CONTINUOUS
62
  7
10
4190.380
20
2443.670
30
0.0
11
4179.550
21
2396.750
31
0.0
0
LINE
5
21f09
8
0-1
6
CONTINUOUS
62
  7
10
4323.650
20
2551.300
30
0.0
11
4302.400
21
2564.300
31
0.0
0
LINE
5
21f0a
8
0-1
6
CONTINUOUS
62
  7
10
4179.550
20
2501.300
30
0.0
11
4162.110
21
2501.300
31
0.0
0
LINE
5
21f0b
8
0-1
6
CONTINUOUS
62
  7
10
4173.650
20
2551.300
30
0.0
11
4162.110
21
2501.300
31
0.0
0
LINE
5
21f0c
8
0-1
6
CONTINUOUS
62
  7
10
4190.380
20
2548.220
30
0.0
11
4179.550
21
2501.300
31
0.0
0
LINE
5
21f0d
8
0-1
6
CONTINUOUS
62
  7
10
4323.650
20
2655.850
30
0.0
11
4302.400
21
2668.850
31
0.0
0
LINE
5
21f0e
8
0-1
6
CONTINUOUS
62
  7
10
4179.550
20
2605.850
30
0.0
11
4162.110
21
2605.850
31
0.0
0
LINE
5
21f0f
8
0-1
6
CONTINUOUS
62
  7
10
4173.650
20
2655.850
30
0.0
11
4162.110
21
2605.850
31
0.0
0
LINE
5
21f10
8
0-1
6
CONTINUOUS
62
  7
10
4190.380
20
2652.770
30
0.0
11
4179.550
21
2605.850
31
0.0
0
LINE
5
21f11
8
0-1
6
CONTINUOUS
62
  7
10
4323.650
20
2760.400
30
0.0
11
4302.400
21
2773.400
31
0.0
0
LINE
5
21f12
8
0-1
6
CONTINUOUS
62
  7
10
4179.550
20
2710.400
30
0.0
11
4162.110
21
2710.400
31
0.0
0
LINE
5
21f13
8
0-1
6
CONTINUOUS
62
  7
10
4173.650
20
2760.400
30
0.0
11
4162.110
21
2710.400
31
0.0
0
LINE
5
21f14
8
0-1
6
CONTINUOUS
62
  7
10
4190.380
20
2757.320
30
0.0
11
4179.550
21
2710.400
31
0.0
0
LINE
5
21f15
8
0-1
6
CONTINUOUS
62
  7
10
4323.650
20
2864.950
30
0.0
11
4302.400
21
2877.950
31
0.0
0
LINE
5
21f16
8
0-1
6
CONTINUOUS
62
  7
10
4179.550
20
2814.950
30
0.0
11
4162.110
21
2814.950
31
0.0
0
LINE
5
21f17
8
0-1
6
CONTINUOUS
62
  7
10
4173.650
20
2864.950
30
0.0
11
4162.110
21
2814.950
31
0.0
0
LINE
5
21f18
8
0-1
6
CONTINUOUS
62
  7
10
4190.380
20
2861.870
30
0.0
11
4179.550
21
2814.950
31
0.0
0
LINE
5
21f19
8
0-1
6
CONTINUOUS
62
  7
10
4323.650
20
2969.500
30
0.0
11
4302.400
21
2982.500
31
0.0
0
LINE
5
21f1a
8
0-1
6
CONTINUOUS
62
  7
10
4179.550
20
2919.500
30
0.0
11
4162.110
21
2919.500
31
0.0
0
LINE
5
21f1b
8
0-1
6
CONTINUOUS
62
  7
10
4173.650
20
2969.500
30
0.0
11
4162.110
21
2919.500
31
0.0
0
LINE
5
21f1c
8
0-1
6
CONTINUOUS
62
  7
10
4190.380
20
2966.410
30
0.0
11
4179.550
21
2919.500
31
0.0
0
LINE
5
21f1d
8
0-1
6
CONTINUOUS
62
  7
10
4323.650
20
3074.040
30
0.0
11
4302.400
21
3087.040
31
0.0
0
LINE
5
21f1e
8
0-1
6
CONTINUOUS
62
  7
10
4179.550
20
3024.040
30
0.0
11
4162.110
21
3024.040
31
0.0
0
LINE
5
21f1f
8
0-1
6
CONTINUOUS
62
  7
10
4173.650
20
3074.040
30
0.0
11
4162.110
21
3024.040
31
0.0
0
LINE
5
21f20
8
0-1
6
CONTINUOUS
62
  7
10
4190.380
20
3070.960
30
0.0
11
4179.550
21
3024.040
31
0.0
0
LINE
5
21f21
8
0-1
6
CONTINUOUS
62
  7
10
4323.650
20
3178.590
30
0.0
11
4302.400
21
3191.590
31
0.0
0
LINE
5
21f22
8
0-1
6
CONTINUOUS
62
  7
10
4179.550
20
3128.590
30
0.0
11
4162.110
21
3128.590
31
0.0
0
LINE
5
21f23
8
0-1
6
CONTINUOUS
62
  7
10
4173.650
20
3178.590
30
0.0
11
4162.110
21
3128.590
31
0.0
0
LINE
5
21f24
8
0-1
6
CONTINUOUS
62
  7
10
4190.380
20
3175.510
30
0.0
11
4179.550
21
3128.590
31
0.0
0
LINE
5
21f25
8
0-1
6
CONTINUOUS
62
  7
10
4323.650
20
3283.140
30
0.0
11
4302.400
21
3296.140
31
0.0
0
LINE
5
21f26
8
0-1
6
CONTINUOUS
62
  7
10
4179.550
20
3233.140
30
0.0
11
4162.110
21
3233.140
31
0.0
0
LINE
5
21f27
8
0-1
6
CONTINUOUS
62
  7
10
4173.650
20
3283.140
30
0.0
11
4162.110
21
3233.140
31
0.0
0
LINE
5
21f28
8
0-1
6
CONTINUOUS
62
  7
10
4190.380
20
3280.060
30
0.0
11
4179.550
21
3233.140
31
0.0
0
LINE
5
21f29
8
0-1
6
CONTINUOUS
62
  7
10
4179.550
20
3337.690
30
0.0
11
4162.110
21
3337.690
31
0.0
0
LINE
5
21f2a
8
0-1
6
CONTINUOUS
62
  7
10
4173.650
20
3387.690
30
0.0
11
4162.110
21
3337.690
31
0.0
0
LINE
5
21f2b
8
0-1
6
CONTINUOUS
62
  7
10
4190.380
20
3384.610
30
0.0
11
4179.550
21
3337.690
31
0.0
0
LINE
5
21f2c
8
0-1
6
CONTINUOUS
62
  7
10
4179.550
20
2292.200
30
0.0
11
4162.110
21
2187.650
31
0.0
0
LINE
5
21f2d
8
0-1
6
CONTINUOUS
62
  7
10
4302.400
20
2355.200
30
0.0
11
4323.650
21
2237.650
31
0.0
0
LINE
5
21f2e
8
0-1
6
CONTINUOUS
62
  7
10
4179.550
20
2396.750
30
0.0
11
4162.110
21
2292.200
31
0.0
0
LINE
5
21f2f
8
0-1
6
CONTINUOUS
62
  7
10
4302.400
20
2459.750
30
0.0
11
4323.650
21
2342.200
31
0.0
0
LINE
5
21f30
8
0-1
6
CONTINUOUS
62
  7
10
4179.550
20
2501.300
30
0.0
11
4162.110
21
2396.750
31
0.0
0
LINE
5
21f31
8
0-1
6
CONTINUOUS
62
  7
10
4302.400
20
2564.300
30
0.0
11
4323.650
21
2446.750
31
0.0
0
LINE
5
21f32
8
0-1
6
CONTINUOUS
62
  7
10
4302.400
20
2668.850
30
0.0
11
4323.650
21
2551.300
31
0.0
0
LINE
5
21f33
8
0-1
6
CONTINUOUS
62
  7
10
4179.550
20
2605.850
30
0.0
11
4162.110
21
2501.300
31
0.0
0
LINE
5
21f34
8
0-1
6
CONTINUOUS
62
  7
10
4179.550
20
2710.400
30
0.0
11
4162.110
21
2605.850
31
0.0
0
LINE
5
21f35
8
0-1
6
CONTINUOUS
62
  7
10
4302.400
20
2773.400
30
0.0
11
4323.650
21
2655.850
31
0.0
0
LINE
5
21f36
8
0-1
6
CONTINUOUS
62
  7
10
4179.550
20
2814.950
30
0.0
11
4162.110
21
2710.400
31
0.0
0
LINE
5
21f37
8
0-1
6
CONTINUOUS
62
  7
10
4302.400
20
2877.950
30
0.0
11
4323.650
21
2760.400
31
0.0
0
LINE
5
21f38
8
0-1
6
CONTINUOUS
62
  7
10
4179.550
20
2919.500
30
0.0
11
4162.110
21
2814.950
31
0.0
0
LINE
5
21f39
8
0-1
6
CONTINUOUS
62
  7
10
4302.400
20
2982.500
30
0.0
11
4323.650
21
2864.950
31
0.0
0
LINE
5
21f3a
8
0-1
6
CONTINUOUS
62
  7
10
4179.550
20
3024.040
30
0.0
11
4162.110
21
2919.500
31
0.0
0
LINE
5
21f3b
8
0-1
6
CONTINUOUS
62
  7
10
4302.400
20
3087.040
30
0.0
11
4323.650
21
2969.500
31
0.0
0
LINE
5
21f3c
8
0-1
6
CONTINUOUS
62
  7
10
4302.400
20
3191.590
30
0.0
11
4323.650
21
3074.040
31
0.0
0
LINE
5
21f3d
8
0-1
6
CONTINUOUS
62
  7
10
4179.550
20
3128.590
30
0.0
11
4162.110
21
3024.040
31
0.0
0
LINE
5
21f3e
8
0-1
6
CONTINUOUS
62
  7
10
4179.550
20
3233.140
30
0.0
11
4162.110
21
3128.590
31
0.0
0
LINE
5
21f3f
8
0-1
6
CONTINUOUS
62
  7
10
4302.400
20
3296.140
30
0.0
11
4323.650
21
3178.590
31
0.0
0
LINE
5
21f40
8
0-1
6
CONTINUOUS
62
  7
10
4179.550
20
3337.690
30
0.0
11
4162.110
21
3233.140
31
0.0
0
LINE
5
21f41
8
0-1
6
CONTINUOUS
62
  7
10
4302.400
20
3400.690
30
0.0
11
4323.650
21
3283.140
31
0.0
0
LINE
5
21f42
8
0-2
6
CONTINUOUS
62
  7
10
4273.650
20
2264.070
30
0.0
11
4283.650
21
2264.070
31
0.0
0
LINE
5
21f43
8
0-2
6
CONTINUOUS
62
  7
10
4273.650
20
2264.070
30
0.0
11
4273.650
21
2249.070
31
0.0
0
LINE
5
21f44
8
0-2
6
CONTINUOUS
62
  7
10
4583.650
20
2238.560
30
0.0
11
4565.240
21
2245.830
31
0.0
0
LINE
5
21f45
8
0-2
6
CONTINUOUS
62
  7
10
4283.650
20
2264.070
30
0.0
11
4283.650
21
2260.850
31
0.0
0
LINE
5
21f46
8
0-2
6
CONTINUOUS
62
  7
10
4583.650
20
2238.560
30
0.0
11
4565.240
21
2245.830
31
0.0
0
LINE
5
21f47
8
0-2
6
CONTINUOUS
62
  7
10
4533.650
20
2264.070
30
0.0
11
4543.650
21
2264.070
31
0.0
0
LINE
5
21f48
8
0-2
6
CONTINUOUS
62
  7
10
4533.650
20
2264.070
30
0.0
11
4533.650
21
2249.070
31
0.0
0
LINE
5
21f49
8
0-2
6
CONTINUOUS
62
  7
10
4843.650
20
2238.560
30
0.0
11
4825.240
21
2245.830
31
0.0
0
LINE
5
21f4a
8
0-2
6
CONTINUOUS
62
  7
10
4543.650
20
2264.070
30
0.0
11
4543.650
21
2260.850
31
0.0
0
LINE
5
21f4b
8
0-2
6
CONTINUOUS
62
  7
10
4843.650
20
2238.560
30
0.0
11
4825.240
21
2245.830
31
0.0
0
LINE
5
21f4c
8
0-2
6
CONTINUOUS
62
  7
10
4793.650
20
2264.070
30
0.0
11
4803.650
21
2264.070
31
0.0
0
LINE
5
21f4d
8
0-2
6
CONTINUOUS
62
  7
10
4793.650
20
2264.070
30
0.0
11
4793.650
21
2249.070
31
0.0
0
LINE
5
21f4e
8
0-2
6
CONTINUOUS
62
  7
10
5103.650
20
2238.550
30
0.0
11
5085.240
21
2245.830
31
0.0
0
LINE
5
21f4f
8
0-2
6
CONTINUOUS
62
  7
10
4803.650
20
2264.070
30
0.0
11
4803.650
21
2260.850
31
0.0
0
LINE
5
21f50
8
0-2
6
CONTINUOUS
62
  7
10
5103.650
20
2238.550
30
0.0
11
5085.240
21
2245.830
31
0.0
0
LINE
5
21f51
8
0-2
6
CONTINUOUS
62
  7
10
5053.650
20
2264.070
30
0.0
11
5063.650
21
2264.070
31
0.0
0
LINE
5
21f52
8
0-2
6
CONTINUOUS
62
  7
10
5053.650
20
2264.070
30
0.0
11
5053.650
21
2249.070
31
0.0
0
LINE
5
21f53
8
0-2
6
CONTINUOUS
62
  7
10
5363.650
20
2238.550
30
0.0
11
5345.240
21
2245.830
31
0.0
0
LINE
5
21f54
8
0-2
6
CONTINUOUS
62
  7
10
5063.650
20
2264.070
30
0.0
11
5063.650
21
2260.850
31
0.0
0
LINE
5
21f55
8
0-2
6
CONTINUOUS
62
  7
10
5363.650
20
2238.550
30
0.0
11
5345.240
21
2245.830
31
0.0
0
LINE
5
21f56
8
0-2
6
CONTINUOUS
62
  7
10
5313.650
20
2264.070
30
0.0
11
5323.650
21
2264.070
31
0.0
0
LINE
5
21f57
8
0-2
6
CONTINUOUS
62
  7
10
5313.650
20
2264.070
30
0.0
11
5313.650
21
2249.070
31
0.0
0
LINE
5
21f58
8
0-2
6
CONTINUOUS
62
  7
10
5623.650
20
2238.550
30
0.0
11
5605.240
21
2245.830
31
0.0
0
LINE
5
21f59
8
0-2
6
CONTINUOUS
62
  7
10
5323.650
20
2264.070
30
0.0
11
5323.650
21
2260.850
31
0.0
0
LINE
5
21f5a
8
0-2
6
CONTINUOUS
62
  7
10
5623.650
20
2238.550
30
0.0
11
5605.240
21
2245.830
31
0.0
0
LINE
5
21f5b
8
0-2
6
CONTINUOUS
62
  7
10
5573.650
20
2264.070
30
0.0
11
5583.650
21
2264.070
31
0.0
0
LINE
5
21f5c
8
0-2
6
CONTINUOUS
62
  7
10
5573.650
20
2264.070
30
0.0
11
5573.650
21
2249.070
31
0.0
0
LINE
5
21f5d
8
0-2
6
CONTINUOUS
62
  7
10
5883.650
20
2238.550
30
0.0
11
5865.240
21
2245.830
31
0.0
0
LINE
5
21f5e
8
0-2
6
CONTINUOUS
62
  7
10
5583.650
20
2264.070
30
0.0
11
5583.650
21
2260.850
31
0.0
0
LINE
5
21f5f
8
0-2
6
CONTINUOUS
62
  7
10
5883.650
20
2238.550
30
0.0
11
5865.240
21
2245.830
31
0.0
0
LINE
5
21f60
8
0-2
6
CONTINUOUS
62
  7
10
5833.650
20
2264.070
30
0.0
11
5843.650
21
2264.070
31
0.0
0
LINE
5
21f61
8
0-2
6
CONTINUOUS
62
  7
10
5833.650
20
2264.070
30
0.0
11
5833.650
21
2249.070
31
0.0
0
LINE
5
21f62
8
0-2
6
CONTINUOUS
62
  7
10
6143.650
20
2238.550
30
0.0
11
6125.230
21
2245.830
31
0.0
0
LINE
5
21f63
8
0-2
6
CONTINUOUS
62
  7
10
5843.650
20
2264.070
30
0.0
11
5843.650
21
2260.850
31
0.0
0
LINE
5
21f64
8
0-2
6
CONTINUOUS
62
  7
10
6143.650
20
2238.550
30
0.0
11
6125.230
21
2245.830
31
0.0
0
LINE
5
21f65
8
0-2
6
CONTINUOUS
62
  7
10
6093.650
20
2264.070
30
0.0
11
6103.650
21
2264.070
31
0.0
0
LINE
5
21f66
8
0-2
6
CONTINUOUS
62
  7
10
6093.650
20
2264.070
30
0.0
11
6093.650
21
2249.070
31
0.0
0
LINE
5
21f67
8
0-2
6
CONTINUOUS
62
  7
10
6403.650
20
2238.550
30
0.0
11
6385.230
21
2245.830
31
0.0
0
LINE
5
21f68
8
0-2
6
CONTINUOUS
62
  7
10
6103.650
20
2264.070
30
0.0
11
6103.650
21
2260.850
31
0.0
0
LINE
5
21f69
8
0-2
6
CONTINUOUS
62
  7
10
6403.650
20
2238.550
30
0.0
11
6385.230
21
2245.830
31
0.0
0
LINE
5
21f6a
8
0-2
6
CONTINUOUS
62
  7
10
6353.650
20
2264.070
30
0.0
11
6363.650
21
2264.070
31
0.0
0
LINE
5
21f6b
8
0-2
6
CONTINUOUS
62
  7
10
6353.650
20
2264.070
30
0.0
11
6353.650
21
2249.070
31
0.0
0
LINE
5
21f6c
8
0-2
6
CONTINUOUS
62
  7
10
6663.650
20
2238.550
30
0.0
11
6645.230
21
2245.830
31
0.0
0
LINE
5
21f6d
8
0-2
6
CONTINUOUS
62
  7
10
6363.650
20
2264.070
30
0.0
11
6363.650
21
2260.850
31
0.0
0
LINE
5
21f6e
8
0-2
6
CONTINUOUS
62
  7
10
6663.650
20
2238.550
30
0.0
11
6645.230
21
2245.830
31
0.0
0
LINE
5
21f6f
8
0-2
6
CONTINUOUS
62
  7
10
6613.650
20
2264.070
30
0.0
11
6623.650
21
2264.070
31
0.0
0
LINE
5
21f70
8
0-2
6
CONTINUOUS
62
  7
10
6613.650
20
2264.070
30
0.0
11
6613.650
21
2249.070
31
0.0
0
LINE
5
21f71
8
0-2
6
CONTINUOUS
62
  7
10
6923.650
20
2238.550
30
0.0
11
6905.240
21
2245.830
31
0.0
0
LINE
5
21f72
8
0-2
6
CONTINUOUS
62
  7
10
6623.650
20
2264.070
30
0.0
11
6623.650
21
2260.850
31
0.0
0
LINE
5
21f73
8
0-2
6
CONTINUOUS
62
  7
10
6923.650
20
2238.550
30
0.0
11
6905.240
21
2245.830
31
0.0
0
LINE
5
21f74
8
0-2
6
CONTINUOUS
62
  7
10
6873.650
20
2264.070
30
0.0
11
6883.650
21
2264.070
31
0.0
0
LINE
5
21f75
8
0-2
6
CONTINUOUS
62
  7
10
6873.650
20
2264.070
30
0.0
11
6873.650
21
2249.060
31
0.0
0
LINE
5
21f76
8
0-2
6
CONTINUOUS
62
  7
10
7183.650
20
2238.550
30
0.0
11
7165.240
21
2245.830
31
0.0
0
LINE
5
21f77
8
0-2
6
CONTINUOUS
62
  7
10
6883.650
20
2264.070
30
0.0
11
6883.650
21
2260.850
31
0.0
0
LINE
5
21f78
8
0-2
6
CONTINUOUS
62
  7
10
7183.650
20
2238.550
30
0.0
11
7165.240
21
2245.830
31
0.0
0
LINE
5
21f79
8
0-2
6
CONTINUOUS
62
  7
10
7133.650
20
2264.060
30
0.0
11
7143.650
21
2264.060
31
0.0
0
LINE
5
21f7a
8
0-2
6
CONTINUOUS
62
  7
10
7133.650
20
2264.060
30
0.0
11
7133.650
21
2249.060
31
0.0
0
LINE
5
21f7b
8
0-2
6
CONTINUOUS
62
  7
10
7443.650
20
2238.550
30
0.0
11
7425.240
21
2245.830
31
0.0
0
LINE
5
21f7c
8
0-2
6
CONTINUOUS
62
  7
10
7143.650
20
2264.060
30
0.0
11
7143.650
21
2260.850
31
0.0
0
LINE
5
21f7d
8
0-2
6
CONTINUOUS
62
  7
10
7443.650
20
2238.550
30
0.0
11
7425.240
21
2245.830
31
0.0
0
LINE
5
21f7e
8
0-2
6
CONTINUOUS
62
  7
10
7393.650
20
2264.060
30
0.0
11
7403.650
21
2264.060
31
0.0
0
LINE
5
21f7f
8
0-2
6
CONTINUOUS
62
  7
10
7393.650
20
2264.060
30
0.0
11
7393.650
21
2249.060
31
0.0
0
LINE
5
21f80
8
0-2
6
CONTINUOUS
62
  7
10
7703.650
20
2238.550
30
0.0
11
7685.240
21
2245.830
31
0.0
0
LINE
5
21f81
8
0-2
6
CONTINUOUS
62
  7
10
7403.650
20
2264.060
30
0.0
11
7403.650
21
2260.850
31
0.0
0
LINE
5
21f82
8
0-2
6
CONTINUOUS
62
  7
10
7703.650
20
2238.550
30
0.0
11
7685.240
21
2245.830
31
0.0
0
LINE
5
21f83
8
0-2
6
CONTINUOUS
62
  7
10
7673.650
20
2244.550
30
0.0
11
7673.650
21
2228.550
31
0.0
0
LINE
5
21f84
8
0-2
6
CONTINUOUS
62
  7
10
7853.650
20
2244.550
30
0.0
11
7853.650
21
2228.550
31
0.0
0
LINE
5
21f85
8
0-2
6
CONTINUOUS
62
  7
10
7823.650
20
2237.650
30
0.0
11
7844.900
21
2250.650
31
0.0
0
LINE
5
21f86
8
0-1
6
CONTINUOUS
62
  7
10
7967.740
20
2187.650
30
0.0
11
7985.190
21
2187.650
31
0.0
0
LINE
5
21f87
8
0-1
6
CONTINUOUS
62
  7
10
7973.650
20
2237.650
30
0.0
11
7985.190
21
2187.650
31
0.0
0
LINE
5
21f88
8
0-1
6
CONTINUOUS
62
  7
10
7956.910
20
2234.570
30
0.0
11
7967.740
21
2187.650
31
0.0
0
LINE
5
21f89
8
0-1
6
CONTINUOUS
62
  7
10
7823.650
20
2342.200
30
0.0
11
7844.900
21
2355.200
31
0.0
0
LINE
5
21f8a
8
0-1
6
CONTINUOUS
62
  7
10
7967.740
20
2292.200
30
0.0
11
7985.190
21
2292.200
31
0.0
0
LINE
5
21f8b
8
0-1
6
CONTINUOUS
62
  7
10
7973.650
20
2342.200
30
0.0
11
7985.190
21
2292.200
31
0.0
0
LINE
5
21f8c
8
0-1
6
CONTINUOUS
62
  7
10
7956.910
20
2339.120
30
0.0
11
7967.740
21
2292.200
31
0.0
0
LINE
5
21f8d
8
0-1
6
CONTINUOUS
62
  7
10
7823.650
20
2446.750
30
0.0
11
7844.900
21
2459.750
31
0.0
0
LINE
5
21f8e
8
0-1
6
CONTINUOUS
62
  7
10
7967.740
20
2396.750
30
0.0
11
7985.190
21
2396.750
31
0.0
0
LINE
5
21f8f
8
0-1
6
CONTINUOUS
62
  7
10
7973.650
20
2446.750
30
0.0
11
7985.190
21
2396.750
31
0.0
0
LINE
5
21f90
8
0-1
6
CONTINUOUS
62
  7
10
7956.910
20
2443.670
30
0.0
11
7967.740
21
2396.750
31
0.0
0
LINE
5
21f91
8
0-1
6
CONTINUOUS
62
  7
10
7823.650
20
2551.300
30
0.0
11
7844.900
21
2564.300
31
0.0
0
LINE
5
21f92
8
0-1
6
CONTINUOUS
62
  7
10
7967.740
20
2501.300
30
0.0
11
7985.190
21
2501.300
31
0.0
0
LINE
5
21f93
8
0-1
6
CONTINUOUS
62
  7
10
7973.650
20
2551.300
30
0.0
11
7985.190
21
2501.300
31
0.0
0
LINE
5
21f94
8
0-1
6
CONTINUOUS
62
  7
10
7956.910
20
2548.220
30
0.0
11
7967.740
21
2501.300
31
0.0
0
LINE
5
21f95
8
0-1
6
CONTINUOUS
62
  7
10
7823.650
20
2655.850
30
0.0
11
7844.900
21
2668.850
31
0.0
0
LINE
5
21f96
8
0-1
6
CONTINUOUS
62
  7
10
7967.740
20
2605.850
30
0.0
11
7985.190
21
2605.850
31
0.0
0
LINE
5
21f97
8
0-1
6
CONTINUOUS
62
  7
10
7973.650
20
2655.850
30
0.0
11
7985.190
21
2605.850
31
0.0
0
LINE
5
21f98
8
0-1
6
CONTINUOUS
62
  7
10
7956.910
20
2652.770
30
0.0
11
7967.740
21
2605.850
31
0.0
0
LINE
5
21f99
8
0-1
6
CONTINUOUS
62
  7
10
7823.650
20
2760.400
30
0.0
11
7844.900
21
2773.400
31
0.0
0
LINE
5
21f9a
8
0-1
6
CONTINUOUS
62
  7
10
7967.740
20
2710.400
30
0.0
11
7985.190
21
2710.400
31
0.0
0
LINE
5
21f9b
8
0-1
6
CONTINUOUS
62
  7
10
7973.650
20
2760.400
30
0.0
11
7985.190
21
2710.400
31
0.0
0
LINE
5
21f9c
8
0-1
6
CONTINUOUS
62
  7
10
7956.910
20
2757.320
30
0.0
11
7967.740
21
2710.400
31
0.0
0
LINE
5
21f9d
8
0-1
6
CONTINUOUS
62
  7
10
7823.650
20
2864.950
30
0.0
11
7844.900
21
2877.950
31
0.0
0
LINE
5
21f9e
8
0-1
6
CONTINUOUS
62
  7
10
7967.740
20
2814.950
30
0.0
11
7985.190
21
2814.950
31
0.0
0
LINE
5
21f9f
8
0-1
6
CONTINUOUS
62
  7
10
7973.650
20
2864.950
30
0.0
11
7985.190
21
2814.950
31
0.0
0
LINE
5
21fa0
8
0-1
6
CONTINUOUS
62
  7
10
7956.910
20
2861.870
30
0.0
11
7967.740
21
2814.950
31
0.0
0
LINE
5
21fa1
8
0-1
6
CONTINUOUS
62
  7
10
7823.650
20
2969.500
30
0.0
11
7844.900
21
2982.500
31
0.0
0
LINE
5
21fa2
8
0-1
6
CONTINUOUS
62
  7
10
7967.740
20
2919.500
30
0.0
11
7985.190
21
2919.500
31
0.0
0
LINE
5
21fa3
8
0-1
6
CONTINUOUS
62
  7
10
7973.650
20
2969.500
30
0.0
11
7985.190
21
2919.500
31
0.0
0
LINE
5
21fa4
8
0-1
6
CONTINUOUS
62
  7
10
7956.910
20
2966.410
30
0.0
11
7967.740
21
2919.500
31
0.0
0
LINE
5
21fa5
8
0-1
6
CONTINUOUS
62
  7
10
7823.650
20
3074.040
30
0.0
11
7844.900
21
3087.040
31
0.0
0
LINE
5
21fa6
8
0-1
6
CONTINUOUS
62
  7
10
7967.740
20
3024.040
30
0.0
11
7985.190
21
3024.040
31
0.0
0
LINE
5
21fa7
8
0-1
6
CONTINUOUS
62
  7
10
7973.650
20
3074.040
30
0.0
11
7985.190
21
3024.040
31
0.0
0
LINE
5
21fa8
8
0-1
6
CONTINUOUS
62
  7
10
7956.910
20
3070.960
30
0.0
11
7967.740
21
3024.040
31
0.0
0
LINE
5
21fa9
8
0-1
6
CONTINUOUS
62
  7
10
7823.650
20
3178.590
30
0.0
11
7844.900
21
3191.590
31
0.0
0
LINE
5
21faa
8
0-1
6
CONTINUOUS
62
  7
10
7967.740
20
3128.590
30
0.0
11
7985.190
21
3128.590
31
0.0
0
LINE
5
21fab
8
0-1
6
CONTINUOUS
62
  7
10
7973.650
20
3178.590
30
0.0
11
7985.190
21
3128.590
31
0.0
0
LINE
5
21fac
8
0-1
6
CONTINUOUS
62
  7
10
7956.910
20
3175.510
30
0.0
11
7967.740
21
3128.590
31
0.0
0
LINE
5
21fad
8
0-1
6
CONTINUOUS
62
  7
10
7823.650
20
3283.140
30
0.0
11
7844.900
21
3296.140
31
0.0
0
LINE
5
21fae
8
0-1
6
CONTINUOUS
62
  7
10
7967.740
20
3233.140
30
0.0
11
7985.190
21
3233.140
31
0.0
0
LINE
5
21faf
8
0-1
6
CONTINUOUS
62
  7
10
7973.650
20
3283.140
30
0.0
11
7985.190
21
3233.140
31
0.0
0
LINE
5
21fb0
8
0-1
6
CONTINUOUS
62
  7
10
7956.910
20
3280.060
30
0.0
11
7967.740
21
3233.140
31
0.0
0
LINE
5
21fb1
8
0-1
6
CONTINUOUS
62
  7
10
7823.650
20
3387.690
30
0.0
11
7844.900
21
3400.690
31
0.0
0
LINE
5
21fb2
8
0-1
6
CONTINUOUS
62
  7
10
7967.740
20
3337.690
30
0.0
11
7985.190
21
3337.690
31
0.0
0
LINE
5
21fb3
8
0-1
6
CONTINUOUS
62
  7
10
7973.650
20
3387.690
30
0.0
11
7985.190
21
3337.690
31
0.0
0
LINE
5
21fb4
8
0-1
6
CONTINUOUS
62
  7
10
7956.910
20
3384.610
30
0.0
11
7967.740
21
3337.690
31
0.0
0
LINE
5
21fb5
8
0-1
6
CONTINUOUS
62
  7
10
7967.740
20
2292.200
30
0.0
11
7985.190
21
2187.650
31
0.0
0
LINE
5
21fb6
8
0-1
6
CONTINUOUS
62
  7
10
7844.900
20
2355.200
30
0.0
11
7823.650
21
2237.650
31
0.0
0
LINE
5
21fb7
8
0-1
6
CONTINUOUS
62
  7
10
7967.740
20
2396.750
30
0.0
11
7985.190
21
2292.200
31
0.0
0
LINE
5
21fb8
8
0-1
6
CONTINUOUS
62
  7
10
7844.900
20
2459.750
30
0.0
11
7823.650
21
2342.200
31
0.0
0
LINE
5
21fb9
8
0-1
6
CONTINUOUS
62
  7
10
7967.740
20
2501.300
30
0.0
11
7985.190
21
2396.750
31
0.0
0
LINE
5
21fba
8
0-1
6
CONTINUOUS
62
  7
10
7844.900
20
2564.300
30
0.0
11
7823.650
21
2446.750
31
0.0
0
LINE
5
21fbb
8
0-1
6
CONTINUOUS
62
  7
10
7844.900
20
2668.850
30
0.0
11
7823.650
21
2551.300
31
0.0
0
LINE
5
21fbc
8
0-1
6
CONTINUOUS
62
  7
10
7967.740
20
2605.850
30
0.0
11
7985.190
21
2501.300
31
0.0
0
LINE
5
21fbd
8
0-1
6
CONTINUOUS
62
  7
10
7967.740
20
2710.400
30
0.0
11
7985.190
21
2605.850
31
0.0
0
LINE
5
21fbe
8
0-1
6
CONTINUOUS
62
  7
10
7844.900
20
2773.400
30
0.0
11
7823.650
21
2655.850
31
0.0
0
LINE
5
21fbf
8
0-1
6
CONTINUOUS
62
  7
10
7967.740
20
2814.950
30
0.0
11
7985.190
21
2710.400
31
0.0
0
LINE
5
21fc0
8
0-1
6
CONTINUOUS
62
  7
10
7844.900
20
2877.950
30
0.0
11
7823.650
21
2760.400
31
0.0
0
LINE
5
21fc1
8
0-1
6
CONTINUOUS
62
  7
10
7967.740
20
2919.500
30
0.0
11
7985.190
21
2814.950
31
0.0
0
LINE
5
21fc2
8
0-1
6
CONTINUOUS
62
  7
10
7844.900
20
2982.500
30
0.0
11
7823.650
21
2864.950
31
0.0
0
LINE
5
21fc3
8
0-1
6
CONTINUOUS
62
  7
10
7967.740
20
3024.040
30
0.0
11
7985.190
21
2919.500
31
0.0
0
LINE
5
21fc4
8
0-1
6
CONTINUOUS
62
  7
10
7844.900
20
3087.040
30
0.0
11
7823.650
21
2969.500
31
0.0
0
LINE
5
21fc5
8
0-1
6
CONTINUOUS
62
  7
10
7844.900
20
3191.590
30
0.0
11
7823.650
21
3074.040
31
0.0
0
LINE
5
21fc6
8
0-1
6
CONTINUOUS
62
  7
10
7967.740
20
3128.590
30
0.0
11
7985.190
21
3024.040
31
0.0
0
LINE
5
21fc7
8
0-1
6
CONTINUOUS
62
  7
10
7967.740
20
3233.140
30
0.0
11
7985.190
21
3128.590
31
0.0
0
LINE
5
21fc8
8
0-1
6
CONTINUOUS
62
  7
10
7844.900
20
3296.140
30
0.0
11
7823.650
21
3178.590
31
0.0
0
LINE
5
21fc9
8
0-1
6
CONTINUOUS
62
  7
10
7967.740
20
3337.690
30
0.0
11
7985.190
21
3233.140
31
0.0
0
LINE
5
21fca
8
0-1
6
CONTINUOUS
62
  7
10
7844.900
20
3400.690
30
0.0
11
7823.650
21
3283.140
31
0.0
0
LINE
5
21fcb
8
0-2
6
CONTINUOUS
62
  7
10
4323.650
20
2342.200
30
0.0
11
4302.400
21
2355.200
31
0.0
0
LINE
5
21fcc
8
0-2
6
CONTINUOUS
62
  7
10
4583.650
20
2343.100
30
0.0
11
4565.240
21
2350.380
31
0.0
0
LINE
5
21fcd
8
0-2
6
CONTINUOUS
62
  7
10
4583.650
20
2343.100
30
0.0
11
4565.240
21
2350.380
31
0.0
0
LINE
5
21fce
8
0-2
6
CONTINUOUS
62
  7
10
4843.650
20
2343.100
30
0.0
11
4825.240
21
2350.380
31
0.0
0
LINE
5
21fcf
8
0-2
6
CONTINUOUS
62
  7
10
4843.650
20
2343.100
30
0.0
11
4825.240
21
2350.380
31
0.0
0
LINE
5
21fd0
8
0-2
6
CONTINUOUS
62
  7
10
5103.650
20
2343.100
30
0.0
11
5085.240
21
2350.380
31
0.0
0
LINE
5
21fd1
8
0-2
6
CONTINUOUS
62
  7
10
5103.650
20
2343.100
30
0.0
11
5085.240
21
2350.380
31
0.0
0
LINE
5
21fd2
8
0-2
6
CONTINUOUS
62
  7
10
5363.650
20
2343.100
30
0.0
11
5345.240
21
2350.380
31
0.0
0
LINE
5
21fd3
8
0-2
6
CONTINUOUS
62
  7
10
5363.650
20
2343.100
30
0.0
11
5345.240
21
2350.380
31
0.0
0
LINE
5
21fd4
8
0-2
6
CONTINUOUS
62
  7
10
5623.650
20
2343.100
30
0.0
11
5605.240
21
2350.380
31
0.0
0
LINE
5
21fd5
8
0-2
6
CONTINUOUS
62
  7
10
5623.650
20
2343.100
30
0.0
11
5605.240
21
2350.380
31
0.0
0
LINE
5
21fd6
8
0-2
6
CONTINUOUS
62
  7
10
5883.650
20
2343.100
30
0.0
11
5865.240
21
2350.380
31
0.0
0
LINE
5
21fd7
8
0-2
6
CONTINUOUS
62
  7
10
5883.650
20
2343.100
30
0.0
11
5865.240
21
2350.380
31
0.0
0
LINE
5
21fd8
8
0-2
6
CONTINUOUS
62
  7
10
6143.650
20
2343.100
30
0.0
11
6125.230
21
2350.380
31
0.0
0
LINE
5
21fd9
8
0-2
6
CONTINUOUS
62
  7
10
6143.650
20
2343.100
30
0.0
11
6125.230
21
2350.380
31
0.0
0
LINE
5
21fda
8
0-2
6
CONTINUOUS
62
  7
10
6403.650
20
2343.100
30
0.0
11
6385.230
21
2350.380
31
0.0
0
LINE
5
21fdb
8
0-2
6
CONTINUOUS
62
  7
10
6403.650
20
2343.100
30
0.0
11
6385.230
21
2350.380
31
0.0
0
LINE
5
21fdc
8
0-2
6
CONTINUOUS
62
  7
10
6663.650
20
2343.100
30
0.0
11
6645.230
21
2350.380
31
0.0
0
LINE
5
21fdd
8
0-2
6
CONTINUOUS
62
  7
10
6663.650
20
2343.100
30
0.0
11
6645.230
21
2350.380
31
0.0
0
LINE
5
21fde
8
0-2
6
CONTINUOUS
62
  7
10
6923.650
20
2343.100
30
0.0
11
6905.240
21
2350.380
31
0.0
0
LINE
5
21fdf
8
0-2
6
CONTINUOUS
62
  7
10
6923.650
20
2343.100
30
0.0
11
6905.240
21
2350.380
31
0.0
0
LINE
5
21fe0
8
0-2
6
CONTINUOUS
62
  7
10
7183.650
20
2343.100
30
0.0
11
7165.240
21
2350.380
31
0.0
0
LINE
5
21fe1
8
0-2
6
CONTINUOUS
62
  7
10
7183.650
20
2343.100
30
0.0
11
7165.240
21
2350.380
31
0.0
0
LINE
5
21fe2
8
0-2
6
CONTINUOUS
62
  7
10
7443.650
20
2343.100
30
0.0
11
7425.240
21
2350.380
31
0.0
0
LINE
5
21fe3
8
0-2
6
CONTINUOUS
62
  7
10
7443.650
20
2343.100
30
0.0
11
7425.240
21
2350.380
31
0.0
0
LINE
5
21fe4
8
0-2
6
CONTINUOUS
62
  7
10
7703.650
20
2343.100
30
0.0
11
7685.240
21
2350.380
31
0.0
0
LINE
5
21fe5
8
0-2
6
CONTINUOUS
62
  7
10
7703.650
20
2343.100
30
0.0
11
7685.240
21
2350.380
31
0.0
0
LINE
5
21fe6
8
0-2
6
CONTINUOUS
62
  7
10
7823.650
20
2342.200
30
0.0
11
7844.900
21
2355.200
31
0.0
0
LINE
5
21fe7
8
0-1
6
CONTINUOUS
62
  7
10
4323.650
20
2446.750
30
0.0
11
4302.400
21
2459.750
31
0.0
0
LINE
5
21fe8
8
0-1
6
CONTINUOUS
62
  7
10
7823.650
20
2446.750
30
0.0
11
7844.900
21
2459.750
31
0.0
0
LINE
5
21fe9
8
0-1
6
CONTINUOUS
62
  7
10
4323.650
20
2551.300
30
0.0
11
4302.400
21
2564.300
31
0.0
0
LINE
5
21fea
8
0-1
6
CONTINUOUS
62
  7
10
7823.650
20
2551.300
30
0.0
11
7844.900
21
2564.300
31
0.0
0
LINE
5
21feb
8
0-1
6
CONTINUOUS
62
  7
10
4323.650
20
2655.850
30
0.0
11
4302.400
21
2668.850
31
0.0
0
LINE
5
21fec
8
0-1
6
CONTINUOUS
62
  7
10
7823.650
20
2655.850
30
0.0
11
7844.900
21
2668.850
31
0.0
0
LINE
5
21fed
8
0-1
6
CONTINUOUS
62
  7
10
4323.650
20
2760.400
30
0.0
11
4302.400
21
2773.400
31
0.0
0
LINE
5
21fee
8
0-1
6
CONTINUOUS
62
  7
10
7823.650
20
2760.400
30
0.0
11
7844.900
21
2773.400
31
0.0
0
LINE
5
21fef
8
0-1
6
CONTINUOUS
62
  7
10
4323.650
20
2864.950
30
0.0
11
4302.400
21
2877.950
31
0.0
0
LINE
5
21ff0
8
0-1
6
CONTINUOUS
62
  7
10
7823.650
20
2864.950
30
0.0
11
7844.900
21
2877.950
31
0.0
0
LINE
5
21ff1
8
0-1
6
CONTINUOUS
62
  7
10
4323.650
20
2969.500
30
0.0
11
4302.400
21
2982.500
31
0.0
0
LINE
5
21ff2
8
0-1
6
CONTINUOUS
62
  7
10
7823.650
20
2969.500
30
0.0
11
7844.900
21
2982.500
31
0.0
0
LINE
5
21ff3
8
0-1
6
CONTINUOUS
62
  7
10
4323.650
20
3074.040
30
0.0
11
4302.400
21
3087.040
31
0.0
0
LINE
5
21ff4
8
0-1
6
CONTINUOUS
62
  7
10
7823.650
20
3074.040
30
0.0
11
7844.900
21
3087.040
31
0.0
0
LINE
5
21ff5
8
0-1
6
CONTINUOUS
62
  7
10
4323.650
20
3178.590
30
0.0
11
4302.400
21
3191.590
31
0.0
0
LINE
5
21ff6
8
0-1
6
CONTINUOUS
62
  7
10
7823.650
20
3178.590
30
0.0
11
7844.900
21
3191.590
31
0.0
0
LINE
5
21ff7
8
0-1
6
CONTINUOUS
62
  7
10
4323.650
20
3283.140
30
0.0
11
4302.400
21
3296.140
31
0.0
0
LINE
5
21ff8
8
0-1
6
CONTINUOUS
62
  7
10
7823.650
20
3283.140
30
0.0
11
7844.900
21
3296.140
31
0.0
0
LINE
5
21ff9
8
0-1
6
CONTINUOUS
62
  7
10
7823.650
20
3387.690
30
0.0
11
7844.900
21
3400.690
31
0.0
0
LINE
5
21ffa
8
0-3
6
CONTINUOUS
62
  7
10
7823.650
20
3388.440
30
0.0
11
7839.850
21
3486.670
31
0.0
0
LINE
5
21ffb
8
0-3
6
CONTINUOUS
62
  7
10
7985.190
20
3337.690
30
0.0
11
7965.420
21
3486.670
31
0.0
0
LINE
5
21ffc
8
0-3
6
CONTINUOUS
62
  7
10
4162.110
20
3337.690
30
0.0
11
4192.690
21
3486.670
31
0.0
0
LINE
5
21ffd
8
0-3
6
CONTINUOUS
62
  7
10
4323.650
20
3388.600
30
0.0
11
4309.430
21
3486.670
31
0.0
0
LINE
5
21ffe
8
0-3
6
CONTINUOUS
62
  7
10
4565.240
20
2350.380
30
0.0
11
4583.650
21
2238.560
31
0.0
0
LINE
5
21fff
8
0-3
6
CONTINUOUS
62
  7
10
4825.240
20
2350.380
30
0.0
11
4843.650
21
2238.560
31
0.0
0
LINE
5
22000
8
0-3
6
CONTINUOUS
62
  7
10
5085.240
20
2350.380
30
0.0
11
5103.650
21
2238.550
31
0.0
0
LINE
5
22001
8
0-3
6
CONTINUOUS
62
  7
10
5345.240
20
2350.380
30
0.0
11
5363.650
21
2238.550
31
0.0
0
LINE
5
22002
8
0-3
6
CONTINUOUS
62
  7
10
5605.240
20
2350.380
30
0.0
11
5623.650
21
2238.550
31
0.0
0
LINE
5
22003
8
0-3
6
CONTINUOUS
62
  7
10
5865.240
20
2350.380
30
0.0
11
5883.650
21
2238.550
31
0.0
0
LINE
5
22004
8
0-3
6
CONTINUOUS
62
  7
10
6125.230
20
2350.380
30
0.0
11
6143.650
21
2238.550
31
0.0
0
LINE
5
22005
8
0-3
6
CONTINUOUS
62
  7
10
6385.230
20
2350.380
30
0.0
11
6403.650
21
2238.550
31
0.0
0
LINE
5
22006
8
0-3
6
CONTINUOUS
62
  7
10
6645.230
20
2350.380
30
0.0
11
6663.650
21
2238.550
31
0.0
0
LINE
5
22007
8
0-3
6
CONTINUOUS
62
  7
10
6905.240
20
2350.380
30
0.0
11
6923.650
21
2238.550
31
0.0
0
LINE
5
22008
8
0-3
6
CONTINUOUS
62
  7
10
7165.240
20
2350.380
30
0.0
11
7183.650
21
2238.550
31
0.0
0
LINE
5
22009
8
0-3
6
CONTINUOUS
62
  7
10
7425.240
20
2350.380
30
0.0
11
7443.650
21
2238.550
31
0.0
0
LINE
5
2200a
8
0-3
6
CONTINUOUS
62
  7
10
7685.240
20
2350.380
30
0.0
11
7703.650
21
2238.550
31
0.0
0
LINE
5
2200b
8
0-3
6
CONTINUOUS
62
  7
10
7576.330
20
2338.240
30
0.0
11
7563.650
21
2244.060
31
0.0
0
LINE
5
2200c
8
0-3
6
CONTINUOUS
62
  7
10
4456.330
20
2338.240
30
0.0
11
4443.650
21
2244.070
31
0.0
0
LINE
5
2200d
8
0-3
6
CONTINUOUS
62
  7
10
4716.330
20
2338.240
30
0.0
11
4703.650
21
2244.070
31
0.0
0
LINE
5
2200e
8
0-3
6
CONTINUOUS
62
  7
10
4976.330
20
2338.240
30
0.0
11
4963.650
21
2244.070
31
0.0
0
LINE
5
2200f
8
0-3
6
CONTINUOUS
62
  7
10
5236.330
20
2338.240
30
0.0
11
5223.650
21
2244.070
31
0.0
0
LINE
5
22010
8
0-3
6
CONTINUOUS
62
  7
10
5496.330
20
2338.240
30
0.0
11
5483.650
21
2244.070
31
0.0
0
LINE
5
22011
8
0-3
6
CONTINUOUS
62
  7
10
5756.330
20
2338.240
30
0.0
11
5743.650
21
2244.070
31
0.0
0
LINE
5
22012
8
0-3
6
CONTINUOUS
62
  7
10
6016.330
20
2338.240
30
0.0
11
6003.650
21
2244.070
31
0.0
0
LINE
5
22013
8
0-3
6
CONTINUOUS
62
  7
10
6276.330
20
2338.240
30
0.0
11
6263.650
21
2244.070
31
0.0
0
LINE
5
22014
8
0-3
6
CONTINUOUS
62
  7
10
6536.330
20
2338.240
30
0.0
11
6523.650
21
2244.070
31
0.0
0
LINE
5
22015
8
0-3
6
CONTINUOUS
62
  7
10
6796.330
20
2338.240
30
0.0
11
6783.650
21
2244.070
31
0.0
0
LINE
5
22016
8
0-3
6
CONTINUOUS
62
  7
10
7056.330
20
2338.240
30
0.0
11
7043.650
21
2244.060
31
0.0
0
LINE
5
22017
8
0-3
6
CONTINUOUS
62
  7
10
7316.330
20
2338.240
30
0.0
11
7303.650
21
2244.060
31
0.0
0
LINE
5
22018
8
0-1
6
CONTINUOUS
62
  7
10
4323.650
20
3283.140
30
0.0
11
4302.400
21
3296.140
31
0.0
0
LINE
5
22019
8
0-1
6
CONTINUOUS
62
  7
10
7823.650
20
3283.140
30
0.0
11
7844.900
21
3296.140
31
0.0
0
LINE
5
2201a
8
0-2
6
CONTINUOUS
62
  7
10
4323.650
20
3283.140
30
0.0
11
4302.400
21
3296.140
31
0.0
0
LINE
5
2201b
8
0-2
6
CONTINUOUS
62
  7
10
4583.650
20
3284.050
30
0.0
11
4565.240
21
3291.320
31
0.0
0
LINE
5
2201c
8
0-2
6
CONTINUOUS
62
  7
10
4583.650
20
3284.050
30
0.0
11
4565.240
21
3291.320
31
0.0
0
LINE
5
2201d
8
0-2
6
CONTINUOUS
62
  7
10
4843.650
20
3284.050
30
0.0
11
4825.240
21
3291.320
31
0.0
0
LINE
5
2201e
8
0-2
6
CONTINUOUS
62
  7
10
4843.650
20
3284.050
30
0.0
11
4825.240
21
3291.320
31
0.0
0
LINE
5
2201f
8
0-2
6
CONTINUOUS
62
  7
10
5103.650
20
3284.040
30
0.0
11
5085.240
21
3291.320
31
0.0
0
LINE
5
22020
8
0-2
6
CONTINUOUS
62
  7
10
5103.650
20
3284.040
30
0.0
11
5085.240
21
3291.320
31
0.0
0
LINE
5
22021
8
0-2
6
CONTINUOUS
62
  7
10
5363.650
20
3284.040
30
0.0
11
5345.240
21
3291.320
31
0.0
0
LINE
5
22022
8
0-2
6
CONTINUOUS
62
  7
10
5363.650
20
3284.040
30
0.0
11
5345.240
21
3291.320
31
0.0
0
LINE
5
22023
8
0-2
6
CONTINUOUS
62
  7
10
5623.650
20
3284.040
30
0.0
11
5605.240
21
3291.320
31
0.0
0
LINE
5
22024
8
0-2
6
CONTINUOUS
62
  7
10
5623.650
20
3284.040
30
0.0
11
5605.240
21
3291.320
31
0.0
0
LINE
5
22025
8
0-2
6
CONTINUOUS
62
  7
10
5883.650
20
3284.040
30
0.0
11
5865.240
21
3291.320
31
0.0
0
LINE
5
22026
8
0-2
6
CONTINUOUS
62
  7
10
5883.650
20
3284.040
30
0.0
11
5865.240
21
3291.320
31
0.0
0
LINE
5
22027
8
0-2
6
CONTINUOUS
62
  7
10
6143.650
20
3284.040
30
0.0
11
6125.230
21
3291.320
31
0.0
0
LINE
5
22028
8
0-2
6
CONTINUOUS
62
  7
10
6143.650
20
3284.040
30
0.0
11
6125.230
21
3291.320
31
0.0
0
LINE
5
22029
8
0-2
6
CONTINUOUS
62
  7
10
6403.650
20
3284.040
30
0.0
11
6385.230
21
3291.320
31
0.0
0
LINE
5
2202a
8
0-2
6
CONTINUOUS
62
  7
10
6403.650
20
3284.040
30
0.0
11
6385.230
21
3291.320
31
0.0
0
LINE
5
2202b
8
0-2
6
CONTINUOUS
62
  7
10
6663.650
20
3284.040
30
0.0
11
6645.230
21
3291.320
31
0.0
0
LINE
5
2202c
8
0-2
6
CONTINUOUS
62
  7
10
6663.650
20
3284.040
30
0.0
11
6645.230
21
3291.320
31
0.0
0
LINE
5
2202d
8
0-2
6
CONTINUOUS
62
  7
10
6923.650
20
3284.040
30
0.0
11
6905.240
21
3291.320
31
0.0
0
LINE
5
2202e
8
0-2
6
CONTINUOUS
62
  7
10
6923.650
20
3284.040
30
0.0
11
6905.240
21
3291.320
31
0.0
0
LINE
5
2202f
8
0-2
6
CONTINUOUS
62
  7
10
7183.650
20
3284.040
30
0.0
11
7165.240
21
3291.320
31
0.0
0
LINE
5
22030
8
0-2
6
CONTINUOUS
62
  7
10
7183.650
20
3284.040
30
0.0
11
7165.240
21
3291.320
31
0.0
0
LINE
5
22031
8
0-2
6
CONTINUOUS
62
  7
10
7443.650
20
3284.040
30
0.0
11
7425.240
21
3291.320
31
0.0
0
LINE
5
22032
8
0-2
6
CONTINUOUS
62
  7
10
7443.650
20
3284.040
30
0.0
11
7425.240
21
3291.320
31
0.0
0
LINE
5
22033
8
0-2
6
CONTINUOUS
62
  7
10
7703.650
20
3284.040
30
0.0
11
7685.240
21
3291.320
31
0.0
0
LINE
5
22034
8
0-2
6
CONTINUOUS
62
  7
10
7703.650
20
3284.040
30
0.0
11
7685.240
21
3291.320
31
0.0
0
LINE
5
22035
8
0-2
6
CONTINUOUS
62
  7
10
7823.650
20
3283.140
30
0.0
11
7844.900
21
3296.140
31
0.0
0
LINE
5
22036
8
0-1
6
CONTINUOUS
62
  7
10
7823.650
20
3388.600
30
0.0
11
7844.900
21
3401.600
31
0.0
0
LINE
5
22037
8
0-2
6
CONTINUOUS
62
  7
10
4583.650
20
3389.500
30
0.0
11
4565.240
21
3396.780
31
0.0
0
LINE
5
22038
8
0-2
6
CONTINUOUS
62
  7
10
4583.650
20
3389.500
30
0.0
11
4565.240
21
3396.780
31
0.0
0
LINE
5
22039
8
0-2
6
CONTINUOUS
62
  7
10
4843.650
20
3389.500
30
0.0
11
4825.240
21
3396.780
31
0.0
0
LINE
5
2203a
8
0-2
6
CONTINUOUS
62
  7
10
4843.650
20
3389.500
30
0.0
11
4825.240
21
3396.780
31
0.0
0
LINE
5
2203b
8
0-2
6
CONTINUOUS
62
  7
10
5103.650
20
3389.500
30
0.0
11
5085.240
21
3396.780
31
0.0
0
LINE
5
2203c
8
0-2
6
CONTINUOUS
62
  7
10
5103.650
20
3389.500
30
0.0
11
5085.240
21
3396.780
31
0.0
0
LINE
5
2203d
8
0-2
6
CONTINUOUS
62
  7
10
5363.650
20
3389.500
30
0.0
11
5345.240
21
3396.780
31
0.0
0
LINE
5
2203e
8
0-2
6
CONTINUOUS
62
  7
10
5363.650
20
3389.500
30
0.0
11
5345.240
21
3396.780
31
0.0
0
LINE
5
2203f
8
0-2
6
CONTINUOUS
62
  7
10
5623.650
20
3389.500
30
0.0
11
5605.240
21
3396.770
31
0.0
0
LINE
5
22040
8
0-2
6
CONTINUOUS
62
  7
10
5623.650
20
3389.500
30
0.0
11
5605.240
21
3396.770
31
0.0
0
LINE
5
22041
8
0-2
6
CONTINUOUS
62
  7
10
5883.650
20
3389.500
30
0.0
11
5865.240
21
3396.770
31
0.0
0
LINE
5
22042
8
0-2
6
CONTINUOUS
62
  7
10
5883.650
20
3389.500
30
0.0
11
5865.240
21
3396.770
31
0.0
0
LINE
5
22043
8
0-2
6
CONTINUOUS
62
  7
10
6143.650
20
3389.500
30
0.0
11
6125.230
21
3396.770
31
0.0
0
LINE
5
22044
8
0-2
6
CONTINUOUS
62
  7
10
6143.650
20
3389.500
30
0.0
11
6125.230
21
3396.770
31
0.0
0
LINE
5
22045
8
0-2
6
CONTINUOUS
62
  7
10
6403.650
20
3389.500
30
0.0
11
6385.230
21
3396.770
31
0.0
0
LINE
5
22046
8
0-2
6
CONTINUOUS
62
  7
10
6403.650
20
3389.500
30
0.0
11
6385.230
21
3396.770
31
0.0
0
LINE
5
22047
8
0-2
6
CONTINUOUS
62
  7
10
6663.650
20
3389.500
30
0.0
11
6645.230
21
3396.770
31
0.0
0
LINE
5
22048
8
0-2
6
CONTINUOUS
62
  7
10
6663.650
20
3389.500
30
0.0
11
6645.230
21
3396.770
31
0.0
0
LINE
5
22049
8
0-2
6
CONTINUOUS
62
  7
10
6923.650
20
3389.500
30
0.0
11
6905.240
21
3396.770
31
0.0
0
LINE
5
2204a
8
0-2
6
CONTINUOUS
62
  7
10
6923.650
20
3389.500
30
0.0
11
6905.240
21
3396.770
31
0.0
0
LINE
5
2204b
8
0-2
6
CONTINUOUS
62
  7
10
7183.650
20
3389.500
30
0.0
11
7165.240
21
3396.770
31
0.0
0
LINE
5
2204c
8
0-2
6
CONTINUOUS
62
  7
10
7183.650
20
3389.500
30
0.0
11
7165.240
21
3396.770
31
0.0
0
LINE
5
2204d
8
0-2
6
CONTINUOUS
62
  7
10
7443.650
20
3389.500
30
0.0
11
7425.240
21
3396.770
31
0.0
0
LINE
5
2204e
8
0-2
6
CONTINUOUS
62
  7
10
7443.650
20
3389.500
30
0.0
11
7425.240
21
3396.770
31
0.0
0
LINE
5
2204f
8
0-2
6
CONTINUOUS
62
  7
10
7703.650
20
3389.500
30
0.0
11
7685.240
21
3396.770
31
0.0
0
LINE
5
22050
8
0-2
6
CONTINUOUS
62
  7
10
7703.650
20
3389.500
30
0.0
11
7685.240
21
3396.770
31
0.0
0
LINE
5
22051
8
0-2
6
CONTINUOUS
62
  7
10
7823.650
20
3388.600
30
0.0
11
7844.900
21
3401.600
31
0.0
0
LINE
5
22052
8
0-3
6
CONTINUOUS
62
  7
10
4456.330
20
3384.640
30
0.0
11
4443.650
21
3289.560
31
0.0
0
LINE
5
22053
8
0-3
6
CONTINUOUS
62
  7
10
4565.240
20
3396.780
30
0.0
11
4583.650
21
3284.050
31
0.0
0
LINE
5
22054
8
0-3
6
CONTINUOUS
62
  7
10
4716.330
20
3384.640
30
0.0
11
4703.650
21
3289.560
31
0.0
0
LINE
5
22055
8
0-3
6
CONTINUOUS
62
  7
10
4825.150
20
3396.600
30
0.0
11
4843.650
21
3284.050
31
0.0
0
LINE
5
22056
8
0-3
6
CONTINUOUS
62
  7
10
4976.330
20
3384.640
30
0.0
11
4963.650
21
3289.560
31
0.0
0
LINE
5
22057
8
0-3
6
CONTINUOUS
62
  7
10
5085.150
20
3396.600
30
0.0
11
5103.650
21
3284.040
31
0.0
0
LINE
5
22058
8
0-3
6
CONTINUOUS
62
  7
10
5236.330
20
3384.640
30
0.0
11
5223.650
21
3289.560
31
0.0
0
LINE
5
22059
8
0-3
6
CONTINUOUS
62
  7
10
5345.150
20
3396.600
30
0.0
11
5363.650
21
3284.040
31
0.0
0
LINE
5
2205a
8
0-3
6
CONTINUOUS
62
  7
10
5496.330
20
3384.630
30
0.0
11
5483.650
21
3289.560
31
0.0
0
LINE
5
2205b
8
0-3
6
CONTINUOUS
62
  7
10
5605.150
20
3396.600
30
0.0
11
5623.650
21
3284.040
31
0.0
0
LINE
5
2205c
8
0-3
6
CONTINUOUS
62
  7
10
5756.330
20
3384.630
30
0.0
11
5743.650
21
3289.560
31
0.0
0
LINE
5
2205d
8
0-3
6
CONTINUOUS
62
  7
10
5865.150
20
3396.600
30
0.0
11
5883.650
21
3284.040
31
0.0
0
LINE
5
2205e
8
0-3
6
CONTINUOUS
62
  7
10
6016.330
20
3384.630
30
0.0
11
6003.650
21
3289.560
31
0.0
0
LINE
5
2205f
8
0-3
6
CONTINUOUS
62
  7
10
6125.140
20
3396.600
30
0.0
11
6143.650
21
3284.040
31
0.0
0
LINE
5
22060
8
0-3
6
CONTINUOUS
62
  7
10
6276.330
20
3384.630
30
0.0
11
6263.650
21
3289.560
31
0.0
0
LINE
5
22061
8
0-3
6
CONTINUOUS
62
  7
10
6385.230
20
3396.770
30
0.0
11
6403.650
21
3284.040
31
0.0
0
LINE
5
22062
8
0-3
6
CONTINUOUS
62
  7
10
6536.330
20
3384.630
30
0.0
11
6523.650
21
3289.560
31
0.0
0
LINE
5
22063
8
0-3
6
CONTINUOUS
62
  7
10
6645.140
20
3396.600
30
0.0
11
6663.650
21
3284.040
31
0.0
0
LINE
5
22064
8
0-3
6
CONTINUOUS
62
  7
10
6796.330
20
3384.630
30
0.0
11
6783.650
21
3289.560
31
0.0
0
LINE
5
22065
8
0-3
6
CONTINUOUS
62
  7
10
6905.240
20
3396.770
30
0.0
11
6923.650
21
3284.040
31
0.0
0
LINE
5
22066
8
0-3
6
CONTINUOUS
62
  7
10
7056.330
20
3384.630
30
0.0
11
7043.650
21
3289.550
31
0.0
0
LINE
5
22067
8
0-3
6
CONTINUOUS
62
  7
10
7165.240
20
3396.770
30
0.0
11
7183.650
21
3284.040
31
0.0
0
LINE
5
22068
8
0-3
6
CONTINUOUS
62
  7
10
7316.330
20
3384.630
30
0.0
11
7303.650
21
3289.550
31
0.0
0
LINE
5
22069
8
0-3
6
CONTINUOUS
62
  7
10
7425.240
20
3396.770
30
0.0
11
7443.650
21
3284.040
31
0.0
0
LINE
5
2206a
8
0-3
6
CONTINUOUS
62
  7
10
7576.330
20
3384.630
30
0.0
11
7563.650
21
3289.550
31
0.0
0
LINE
5
2206b
8
0-3
6
CONTINUOUS
62
  7
10
7685.240
20
3396.770
30
0.0
11
7703.650
21
3284.040
31
0.0
0
LINE
5
2206c
8
0-3
6
CONTINUOUS
62
  7
10
4302.400
20
3400.690
30
0.0
11
4323.650
21
3388.600
31
0.0
0
LINE
5
2206d
8
0-1
6
CONTINUOUS
62
  7
10
4323.650
20
2446.750
30
0.0
11
4302.400
21
2459.750
31
0.0
0
LINE
5
2206e
8
0-1
6
CONTINUOUS
62
  7
10
7823.650
20
2446.750
30
0.0
11
7844.900
21
2459.750
31
0.0
0
LINE
5
2206f
8
0-2
6
CONTINUOUS
62
  7
10
4323.650
20
2446.750
30
0.0
11
4302.400
21
2459.750
31
0.0
0
LINE
5
22070
8
0-2
6
CONTINUOUS
62
  7
10
4583.650
20
2447.650
30
0.0
11
4565.240
21
2454.930
31
0.0
0
LINE
5
22071
8
0-2
6
CONTINUOUS
62
  7
10
4583.650
20
2447.650
30
0.0
11
4565.240
21
2454.930
31
0.0
0
LINE
5
22072
8
0-2
6
CONTINUOUS
62
  7
10
4843.650
20
2447.650
30
0.0
11
4825.240
21
2454.930
31
0.0
0
LINE
5
22073
8
0-2
6
CONTINUOUS
62
  7
10
4843.650
20
2447.650
30
0.0
11
4825.240
21
2454.930
31
0.0
0
LINE
5
22074
8
0-2
6
CONTINUOUS
62
  7
10
5103.650
20
2447.650
30
0.0
11
5085.240
21
2454.930
31
0.0
0
LINE
5
22075
8
0-2
6
CONTINUOUS
62
  7
10
5103.650
20
2447.650
30
0.0
11
5085.240
21
2454.930
31
0.0
0
LINE
5
22076
8
0-2
6
CONTINUOUS
62
  7
10
5363.650
20
2447.650
30
0.0
11
5345.240
21
2454.930
31
0.0
0
LINE
5
22077
8
0-2
6
CONTINUOUS
62
  7
10
5363.650
20
2447.650
30
0.0
11
5345.240
21
2454.930
31
0.0
0
LINE
5
22078
8
0-2
6
CONTINUOUS
62
  7
10
5623.650
20
2447.650
30
0.0
11
5605.240
21
2454.930
31
0.0
0
LINE
5
22079
8
0-2
6
CONTINUOUS
62
  7
10
5623.650
20
2447.650
30
0.0
11
5605.240
21
2454.930
31
0.0
0
LINE
5
2207a
8
0-2
6
CONTINUOUS
62
  7
10
5883.650
20
2447.650
30
0.0
11
5865.240
21
2454.930
31
0.0
0
LINE
5
2207b
8
0-2
6
CONTINUOUS
62
  7
10
5883.650
20
2447.650
30
0.0
11
5865.240
21
2454.930
31
0.0
0
LINE
5
2207c
8
0-2
6
CONTINUOUS
62
  7
10
6143.650
20
2447.650
30
0.0
11
6125.230
21
2454.930
31
0.0
0
LINE
5
2207d
8
0-2
6
CONTINUOUS
62
  7
10
6143.650
20
2447.650
30
0.0
11
6125.230
21
2454.930
31
0.0
0
LINE
5
2207e
8
0-2
6
CONTINUOUS
62
  7
10
6403.650
20
2447.650
30
0.0
11
6385.230
21
2454.930
31
0.0
0
LINE
5
2207f
8
0-2
6
CONTINUOUS
62
  7
10
6403.650
20
2447.650
30
0.0
11
6385.230
21
2454.930
31
0.0
0
LINE
5
22080
8
0-2
6
CONTINUOUS
62
  7
10
6663.650
20
2447.650
30
0.0
11
6645.230
21
2454.930
31
0.0
0
LINE
5
22081
8
0-2
6
CONTINUOUS
62
  7
10
6663.650
20
2447.650
30
0.0
11
6645.230
21
2454.930
31
0.0
0
LINE
5
22082
8
0-2
6
CONTINUOUS
62
  7
10
6923.650
20
2447.650
30
0.0
11
6905.240
21
2454.930
31
0.0
0
LINE
5
22083
8
0-2
6
CONTINUOUS
62
  7
10
6923.650
20
2447.650
30
0.0
11
6905.240
21
2454.930
31
0.0
0
LINE
5
22084
8
0-2
6
CONTINUOUS
62
  7
10
7183.650
20
2447.650
30
0.0
11
7165.240
21
2454.930
31
0.0
0
LINE
5
22085
8
0-2
6
CONTINUOUS
62
  7
10
7183.650
20
2447.650
30
0.0
11
7165.240
21
2454.930
31
0.0
0
LINE
5
22086
8
0-2
6
CONTINUOUS
62
  7
10
7443.650
20
2447.650
30
0.0
11
7425.240
21
2454.930
31
0.0
0
LINE
5
22087
8
0-2
6
CONTINUOUS
62
  7
10
7443.650
20
2447.650
30
0.0
11
7425.240
21
2454.930
31
0.0
0
LINE
5
22088
8
0-2
6
CONTINUOUS
62
  7
10
7703.650
20
2447.650
30
0.0
11
7685.240
21
2454.930
31
0.0
0
LINE
5
22089
8
0-2
6
CONTINUOUS
62
  7
10
7703.650
20
2447.650
30
0.0
11
7685.240
21
2454.930
31
0.0
0
LINE
5
2208a
8
0-2
6
CONTINUOUS
62
  7
10
7823.650
20
2446.750
30
0.0
11
7844.900
21
2459.750
31
0.0
0
LINE
5
2208b
8
0-1
6
CONTINUOUS
62
  7
10
4323.650
20
2551.300
30
0.0
11
4302.400
21
2564.300
31
0.0
0
LINE
5
2208c
8
0-1
6
CONTINUOUS
62
  7
10
7823.650
20
2551.300
30
0.0
11
7844.900
21
2564.300
31
0.0
0
LINE
5
2208d
8
0-2
6
CONTINUOUS
62
  7
10
4323.650
20
2551.300
30
0.0
11
4302.400
21
2564.300
31
0.0
0
LINE
5
2208e
8
0-2
6
CONTINUOUS
62
  7
10
4583.650
20
2552.200
30
0.0
11
4565.240
21
2559.480
31
0.0
0
LINE
5
2208f
8
0-2
6
CONTINUOUS
62
  7
10
4583.650
20
2552.200
30
0.0
11
4565.240
21
2559.480
31
0.0
0
LINE
5
22090
8
0-2
6
CONTINUOUS
62
  7
10
4843.650
20
2552.200
30
0.0
11
4825.240
21
2559.480
31
0.0
0
LINE
5
22091
8
0-2
6
CONTINUOUS
62
  7
10
4843.650
20
2552.200
30
0.0
11
4825.240
21
2559.480
31
0.0
0
LINE
5
22092
8
0-2
6
CONTINUOUS
62
  7
10
5103.650
20
2552.200
30
0.0
11
5085.240
21
2559.480
31
0.0
0
LINE
5
22093
8
0-2
6
CONTINUOUS
62
  7
10
5103.650
20
2552.200
30
0.0
11
5085.240
21
2559.480
31
0.0
0
LINE
5
22094
8
0-2
6
CONTINUOUS
62
  7
10
5363.650
20
2552.200
30
0.0
11
5345.240
21
2559.480
31
0.0
0
LINE
5
22095
8
0-2
6
CONTINUOUS
62
  7
10
5363.650
20
2552.200
30
0.0
11
5345.240
21
2559.480
31
0.0
0
LINE
5
22096
8
0-2
6
CONTINUOUS
62
  7
10
5623.650
20
2552.200
30
0.0
11
5605.240
21
2559.480
31
0.0
0
LINE
5
22097
8
0-2
6
CONTINUOUS
62
  7
10
5623.650
20
2552.200
30
0.0
11
5605.240
21
2559.480
31
0.0
0
LINE
5
22098
8
0-2
6
CONTINUOUS
62
  7
10
5883.650
20
2552.200
30
0.0
11
5865.240
21
2559.480
31
0.0
0
LINE
5
22099
8
0-2
6
CONTINUOUS
62
  7
10
5883.650
20
2552.200
30
0.0
11
5865.240
21
2559.480
31
0.0
0
LINE
5
2209a
8
0-2
6
CONTINUOUS
62
  7
10
6143.650
20
2552.200
30
0.0
11
6125.230
21
2559.480
31
0.0
0
LINE
5
2209b
8
0-2
6
CONTINUOUS
62
  7
10
6143.650
20
2552.200
30
0.0
11
6125.230
21
2559.480
31
0.0
0
LINE
5
2209c
8
0-2
6
CONTINUOUS
62
  7
10
6403.650
20
2552.200
30
0.0
11
6385.230
21
2559.480
31
0.0
0
LINE
5
2209d
8
0-2
6
CONTINUOUS
62
  7
10
6403.650
20
2552.200
30
0.0
11
6385.230
21
2559.480
31
0.0
0
LINE
5
2209e
8
0-2
6
CONTINUOUS
62
  7
10
6663.650
20
2552.200
30
0.0
11
6645.230
21
2559.480
31
0.0
0
LINE
5
2209f
8
0-2
6
CONTINUOUS
62
  7
10
6663.650
20
2552.200
30
0.0
11
6645.230
21
2559.480
31
0.0
0
LINE
5
220a0
8
0-2
6
CONTINUOUS
62
  7
10
6923.650
20
2552.200
30
0.0
11
6905.240
21
2559.480
31
0.0
0
LINE
5
220a1
8
0-2
6
CONTINUOUS
62
  7
10
6923.650
20
2552.200
30
0.0
11
6905.240
21
2559.480
31
0.0
0
LINE
5
220a2
8
0-2
6
CONTINUOUS
62
  7
10
7183.650
20
2552.200
30
0.0
11
7165.240
21
2559.480
31
0.0
0
LINE
5
220a3
8
0-2
6
CONTINUOUS
62
  7
10
7183.650
20
2552.200
30
0.0
11
7165.240
21
2559.480
31
0.0
0
LINE
5
220a4
8
0-2
6
CONTINUOUS
62
  7
10
7443.650
20
2552.200
30
0.0
11
7425.240
21
2559.480
31
0.0
0
LINE
5
220a5
8
0-2
6
CONTINUOUS
62
  7
10
7443.650
20
2552.200
30
0.0
11
7425.240
21
2559.480
31
0.0
0
LINE
5
220a6
8
0-2
6
CONTINUOUS
62
  7
10
7703.650
20
2552.200
30
0.0
11
7685.240
21
2559.480
31
0.0
0
LINE
5
220a7
8
0-2
6
CONTINUOUS
62
  7
10
7703.650
20
2552.200
30
0.0
11
7685.240
21
2559.480
31
0.0
0
LINE
5
220a8
8
0-2
6
CONTINUOUS
62
  7
10
7823.650
20
2551.300
30
0.0
11
7844.900
21
2564.300
31
0.0
0
LINE
5
220a9
8
0-1
6
CONTINUOUS
62
  7
10
4323.650
20
2655.850
30
0.0
11
4302.400
21
2668.850
31
0.0
0
LINE
5
220aa
8
0-1
6
CONTINUOUS
62
  7
10
7823.650
20
2655.850
30
0.0
11
7844.900
21
2668.850
31
0.0
0
LINE
5
220ab
8
0-2
6
CONTINUOUS
62
  7
10
4323.650
20
2655.850
30
0.0
11
4302.400
21
2668.850
31
0.0
0
LINE
5
220ac
8
0-2
6
CONTINUOUS
62
  7
10
4583.650
20
2656.750
30
0.0
11
4565.240
21
2664.030
31
0.0
0
LINE
5
220ad
8
0-2
6
CONTINUOUS
62
  7
10
4583.650
20
2656.750
30
0.0
11
4565.240
21
2664.030
31
0.0
0
LINE
5
220ae
8
0-2
6
CONTINUOUS
62
  7
10
4843.650
20
2656.750
30
0.0
11
4825.240
21
2664.030
31
0.0
0
LINE
5
220af
8
0-2
6
CONTINUOUS
62
  7
10
4843.650
20
2656.750
30
0.0
11
4825.240
21
2664.030
31
0.0
0
LINE
5
220b0
8
0-2
6
CONTINUOUS
62
  7
10
5103.650
20
2656.750
30
0.0
11
5085.240
21
2664.030
31
0.0
0
LINE
5
220b1
8
0-2
6
CONTINUOUS
62
  7
10
5363.650
20
2656.750
30
0.0
11
5345.240
21
2664.030
31
0.0
0
LINE
5
220b2
8
0-2
6
CONTINUOUS
62
  7
10
5363.650
20
2656.750
30
0.0
11
5345.240
21
2664.030
31
0.0
0
LINE
5
220b3
8
0-2
6
CONTINUOUS
62
  7
10
5623.650
20
2656.750
30
0.0
11
5605.240
21
2664.030
31
0.0
0
LINE
5
220b4
8
0-2
6
CONTINUOUS
62
  7
10
5623.650
20
2656.750
30
0.0
11
5605.240
21
2664.030
31
0.0
0
LINE
5
220b5
8
0-2
6
CONTINUOUS
62
  7
10
5883.650
20
2656.750
30
0.0
11
5865.240
21
2664.030
31
0.0
0
LINE
5
220b6
8
0-2
6
CONTINUOUS
62
  7
10
5883.650
20
2656.750
30
0.0
11
5865.240
21
2664.030
31
0.0
0
LINE
5
220b7
8
0-2
6
CONTINUOUS
62
  7
10
6143.650
20
2656.750
30
0.0
11
6125.230
21
2664.030
31
0.0
0
LINE
5
220b8
8
0-2
6
CONTINUOUS
62
  7
10
6143.650
20
2656.750
30
0.0
11
6125.230
21
2664.030
31
0.0
0
LINE
5
220b9
8
0-2
6
CONTINUOUS
62
  7
10
6403.650
20
2656.750
30
0.0
11
6385.230
21
2664.030
31
0.0
0
LINE
5
220ba
8
0-2
6
CONTINUOUS
62
  7
10
6403.650
20
2656.750
30
0.0
11
6385.230
21
2664.030
31
0.0
0
LINE
5
220bb
8
0-2
6
CONTINUOUS
62
  7
10
6663.650
20
2656.750
30
0.0
11
6645.230
21
2664.030
31
0.0
0
LINE
5
220bc
8
0-2
6
CONTINUOUS
62
  7
10
6663.650
20
2656.750
30
0.0
11
6645.230
21
2664.030
31
0.0
0
LINE
5
220bd
8
0-2
6
CONTINUOUS
62
  7
10
6923.650
20
2656.750
30
0.0
11
6905.240
21
2664.030
31
0.0
0
LINE
5
220be
8
0-2
6
CONTINUOUS
62
  7
10
6923.650
20
2656.750
30
0.0
11
6905.240
21
2664.030
31
0.0
0
LINE
5
220bf
8
0-2
6
CONTINUOUS
62
  7
10
7183.650
20
2656.750
30
0.0
11
7165.240
21
2664.030
31
0.0
0
LINE
5
220c0
8
0-2
6
CONTINUOUS
62
  7
10
7183.650
20
2656.750
30
0.0
11
7165.240
21
2664.030
31
0.0
0
LINE
5
220c1
8
0-2
6
CONTINUOUS
62
  7
10
7443.650
20
2656.750
30
0.0
11
7425.240
21
2664.030
31
0.0
0
LINE
5
220c2
8
0-2
6
CONTINUOUS
62
  7
10
7443.650
20
2656.750
30
0.0
11
7425.240
21
2664.030
31
0.0
0
LINE
5
220c3
8
0-2
6
CONTINUOUS
62
  7
10
7703.650
20
2656.750
30
0.0
11
7685.240
21
2664.020
31
0.0
0
LINE
5
220c4
8
0-2
6
CONTINUOUS
62
  7
10
7703.650
20
2656.750
30
0.0
11
7685.240
21
2664.020
31
0.0
0
LINE
5
220c5
8
0-2
6
CONTINUOUS
62
  7
10
7823.650
20
2655.850
30
0.0
11
7844.900
21
2668.850
31
0.0
0
LINE
5
220c6
8
0-1
6
CONTINUOUS
62
  7
10
4323.650
20
2760.400
30
0.0
11
4302.400
21
2773.400
31
0.0
0
LINE
5
220c7
8
0-1
6
CONTINUOUS
62
  7
10
7823.650
20
2760.400
30
0.0
11
7844.900
21
2773.400
31
0.0
0
LINE
5
220c8
8
0-2
6
CONTINUOUS
62
  7
10
4323.650
20
2760.400
30
0.0
11
4302.400
21
2773.400
31
0.0
0
LINE
5
220c9
8
0-2
6
CONTINUOUS
62
  7
10
4583.650
20
2761.300
30
0.0
11
4565.240
21
2768.580
31
0.0
0
LINE
5
220ca
8
0-2
6
CONTINUOUS
62
  7
10
4583.650
20
2761.300
30
0.0
11
4565.240
21
2768.580
31
0.0
0
LINE
5
220cb
8
0-2
6
CONTINUOUS
62
  7
10
4843.650
20
2761.300
30
0.0
11
4825.240
21
2768.580
31
0.0
0
LINE
5
220cc
8
0-2
6
CONTINUOUS
62
  7
10
4843.650
20
2761.300
30
0.0
11
4825.240
21
2768.580
31
0.0
0
LINE
5
220cd
8
0-2
6
CONTINUOUS
62
  7
10
5103.650
20
2761.300
30
0.0
11
5085.240
21
2768.580
31
0.0
0
LINE
5
220ce
8
0-2
6
CONTINUOUS
62
  7
10
5103.650
20
2761.300
30
0.0
11
5085.240
21
2768.580
31
0.0
0
LINE
5
220cf
8
0-2
6
CONTINUOUS
62
  7
10
5363.650
20
2761.300
30
0.0
11
5345.240
21
2768.580
31
0.0
0
LINE
5
220d0
8
0-2
6
CONTINUOUS
62
  7
10
5363.650
20
2761.300
30
0.0
11
5345.240
21
2768.580
31
0.0
0
LINE
5
220d1
8
0-2
6
CONTINUOUS
62
  7
10
5623.650
20
2761.300
30
0.0
11
5605.240
21
2768.580
31
0.0
0
LINE
5
220d2
8
0-2
6
CONTINUOUS
62
  7
10
5623.650
20
2761.300
30
0.0
11
5605.240
21
2768.580
31
0.0
0
LINE
5
220d3
8
0-2
6
CONTINUOUS
62
  7
10
5883.650
20
2761.300
30
0.0
11
5865.240
21
2768.580
31
0.0
0
LINE
5
220d4
8
0-2
6
CONTINUOUS
62
  7
10
5883.650
20
2761.300
30
0.0
11
5865.240
21
2768.580
31
0.0
0
LINE
5
220d5
8
0-2
6
CONTINUOUS
62
  7
10
6143.650
20
2761.300
30
0.0
11
6125.230
21
2768.580
31
0.0
0
LINE
5
220d6
8
0-2
6
CONTINUOUS
62
  7
10
6143.650
20
2761.300
30
0.0
11
6125.230
21
2768.580
31
0.0
0
LINE
5
220d7
8
0-2
6
CONTINUOUS
62
  7
10
6403.650
20
2761.300
30
0.0
11
6385.230
21
2768.580
31
0.0
0
LINE
5
220d8
8
0-2
6
CONTINUOUS
62
  7
10
6403.650
20
2761.300
30
0.0
11
6385.230
21
2768.580
31
0.0
0
LINE
5
220d9
8
0-2
6
CONTINUOUS
62
  7
10
6663.650
20
2761.300
30
0.0
11
6645.230
21
2768.580
31
0.0
0
LINE
5
220da
8
0-2
6
CONTINUOUS
62
  7
10
6663.650
20
2761.300
30
0.0
11
6645.230
21
2768.580
31
0.0
0
LINE
5
220db
8
0-2
6
CONTINUOUS
62
  7
10
6923.650
20
2761.300
30
0.0
11
6905.240
21
2768.580
31
0.0
0
LINE
5
220dc
8
0-2
6
CONTINUOUS
62
  7
10
6923.650
20
2761.300
30
0.0
11
6905.240
21
2768.580
31
0.0
0
LINE
5
220dd
8
0-2
6
CONTINUOUS
62
  7
10
7183.650
20
2761.300
30
0.0
11
7165.240
21
2768.570
31
0.0
0
LINE
5
220de
8
0-2
6
CONTINUOUS
62
  7
10
7183.650
20
2761.300
30
0.0
11
7165.240
21
2768.570
31
0.0
0
LINE
5
220df
8
0-2
6
CONTINUOUS
62
  7
10
7443.650
20
2761.300
30
0.0
11
7425.240
21
2768.570
31
0.0
0
LINE
5
220e0
8
0-2
6
CONTINUOUS
62
  7
10
7443.650
20
2761.300
30
0.0
11
7425.240
21
2768.570
31
0.0
0
LINE
5
220e1
8
0-2
6
CONTINUOUS
62
  7
10
7703.650
20
2761.300
30
0.0
11
7685.240
21
2768.570
31
0.0
0
LINE
5
220e2
8
0-2
6
CONTINUOUS
62
  7
10
7703.650
20
2761.300
30
0.0
11
7685.240
21
2768.570
31
0.0
0
LINE
5
220e3
8
0-2
6
CONTINUOUS
62
  7
10
7823.650
20
2760.400
30
0.0
11
7844.900
21
2773.400
31
0.0
0
LINE
5
220e4
8
0-1
6
CONTINUOUS
62
  7
10
4323.650
20
2864.950
30
0.0
11
4302.400
21
2877.950
31
0.0
0
LINE
5
220e5
8
0-1
6
CONTINUOUS
62
  7
10
7823.650
20
2864.950
30
0.0
11
7844.900
21
2877.950
31
0.0
0
LINE
5
220e6
8
0-2
6
CONTINUOUS
62
  7
10
4323.650
20
2864.950
30
0.0
11
4302.400
21
2877.950
31
0.0
0
LINE
5
220e7
8
0-2
6
CONTINUOUS
62
  7
10
4583.650
20
2865.850
30
0.0
11
4565.240
21
2873.130
31
0.0
0
LINE
5
220e8
8
0-2
6
CONTINUOUS
62
  7
10
4583.650
20
2865.850
30
0.0
11
4565.240
21
2873.130
31
0.0
0
LINE
5
220e9
8
0-2
6
CONTINUOUS
62
  7
10
4843.650
20
2865.850
30
0.0
11
4825.240
21
2873.130
31
0.0
0
LINE
5
220ea
8
0-2
6
CONTINUOUS
62
  7
10
4843.650
20
2865.850
30
0.0
11
4825.240
21
2873.130
31
0.0
0
LINE
5
220eb
8
0-2
6
CONTINUOUS
62
  7
10
5103.650
20
2865.850
30
0.0
11
5085.240
21
2873.130
31
0.0
0
LINE
5
220ec
8
0-2
6
CONTINUOUS
62
  7
10
5103.650
20
2865.850
30
0.0
11
5085.240
21
2873.130
31
0.0
0
LINE
5
220ed
8
0-2
6
CONTINUOUS
62
  7
10
5363.650
20
2865.850
30
0.0
11
5345.240
21
2873.130
31
0.0
0
LINE
5
220ee
8
0-2
6
CONTINUOUS
62
  7
10
5363.650
20
2865.850
30
0.0
11
5345.240
21
2873.130
31
0.0
0
LINE
5
220ef
8
0-2
6
CONTINUOUS
62
  7
10
5623.650
20
2865.850
30
0.0
11
5605.240
21
2873.120
31
0.0
0
LINE
5
220f0
8
0-2
6
CONTINUOUS
62
  7
10
5623.650
20
2865.850
30
0.0
11
5605.240
21
2873.120
31
0.0
0
LINE
5
220f1
8
0-2
6
CONTINUOUS
62
  7
10
5883.650
20
2865.850
30
0.0
11
5865.240
21
2873.120
31
0.0
0
LINE
5
220f2
8
0-2
6
CONTINUOUS
62
  7
10
5883.650
20
2865.850
30
0.0
11
5865.240
21
2873.120
31
0.0
0
LINE
5
220f3
8
0-2
6
CONTINUOUS
62
  7
10
6143.650
20
2865.850
30
0.0
11
6125.230
21
2873.120
31
0.0
0
LINE
5
220f4
8
0-2
6
CONTINUOUS
62
  7
10
6143.650
20
2865.850
30
0.0
11
6125.230
21
2873.120
31
0.0
0
LINE
5
220f5
8
0-2
6
CONTINUOUS
62
  7
10
6403.650
20
2865.850
30
0.0
11
6385.230
21
2873.120
31
0.0
0
LINE
5
220f6
8
0-2
6
CONTINUOUS
62
  7
10
6403.650
20
2865.850
30
0.0
11
6385.230
21
2873.120
31
0.0
0
LINE
5
220f7
8
0-2
6
CONTINUOUS
62
  7
10
6663.650
20
2865.850
30
0.0
11
6645.230
21
2873.120
31
0.0
0
LINE
5
220f8
8
0-2
6
CONTINUOUS
62
  7
10
6663.650
20
2865.850
30
0.0
11
6645.230
21
2873.120
31
0.0
0
LINE
5
220f9
8
0-2
6
CONTINUOUS
62
  7
10
6923.650
20
2865.850
30
0.0
11
6905.240
21
2873.120
31
0.0
0
LINE
5
220fa
8
0-2
6
CONTINUOUS
62
  7
10
6923.650
20
2865.850
30
0.0
11
6905.240
21
2873.120
31
0.0
0
LINE
5
220fb
8
0-2
6
CONTINUOUS
62
  7
10
7183.650
20
2865.850
30
0.0
11
7165.240
21
2873.120
31
0.0
0
LINE
5
220fc
8
0-2
6
CONTINUOUS
62
  7
10
7183.650
20
2865.850
30
0.0
11
7165.240
21
2873.120
31
0.0
0
LINE
5
220fd
8
0-2
6
CONTINUOUS
62
  7
10
7443.650
20
2865.850
30
0.0
11
7425.240
21
2873.120
31
0.0
0
LINE
5
220fe
8
0-2
6
CONTINUOUS
62
  7
10
7443.650
20
2865.850
30
0.0
11
7425.240
21
2873.120
31
0.0
0
LINE
5
220ff
8
0-2
6
CONTINUOUS
62
  7
10
7703.650
20
2865.850
30
0.0
11
7685.240
21
2873.120
31
0.0
0
LINE
5
22100
8
0-2
6
CONTINUOUS
62
  7
10
7703.650
20
2865.850
30
0.0
11
7685.240
21
2873.120
31
0.0
0
LINE
5
22101
8
0-2
6
CONTINUOUS
62
  7
10
7823.650
20
2864.950
30
0.0
11
7844.900
21
2877.950
31
0.0
0
LINE
5
22102
8
0-1
6
CONTINUOUS
62
  7
10
4323.650
20
2969.500
30
0.0
11
4302.400
21
2982.500
31
0.0
0
LINE
5
22103
8
0-1
6
CONTINUOUS
62
  7
10
7823.650
20
2969.500
30
0.0
11
7844.900
21
2982.500
31
0.0
0
LINE
5
22104
8
0-2
6
CONTINUOUS
62
  7
10
4323.650
20
2969.500
30
0.0
11
4302.400
21
2982.500
31
0.0
0
LINE
5
22105
8
0-2
6
CONTINUOUS
62
  7
10
4583.650
20
2970.400
30
0.0
11
4565.240
21
2977.680
31
0.0
0
LINE
5
22106
8
0-2
6
CONTINUOUS
62
  7
10
4583.650
20
2970.400
30
0.0
11
4565.240
21
2977.680
31
0.0
0
LINE
5
22107
8
0-2
6
CONTINUOUS
62
  7
10
4843.650
20
2970.400
30
0.0
11
4825.240
21
2977.680
31
0.0
0
LINE
5
22108
8
0-2
6
CONTINUOUS
62
  7
10
4843.650
20
2970.400
30
0.0
11
4825.240
21
2977.680
31
0.0
0
LINE
5
22109
8
0-2
6
CONTINUOUS
62
  7
10
5103.650
20
2970.400
30
0.0
11
5085.240
21
2977.680
31
0.0
0
LINE
5
2210a
8
0-2
6
CONTINUOUS
62
  7
10
5103.650
20
2970.400
30
0.0
11
5085.240
21
2977.680
31
0.0
0
LINE
5
2210b
8
0-2
6
CONTINUOUS
62
  7
10
5363.650
20
2970.400
30
0.0
11
5345.240
21
2977.680
31
0.0
0
LINE
5
2210c
8
0-2
6
CONTINUOUS
62
  7
10
5363.650
20
2970.400
30
0.0
11
5345.240
21
2977.680
31
0.0
0
LINE
5
2210d
8
0-2
6
CONTINUOUS
62
  7
10
5623.650
20
2970.400
30
0.0
11
5605.240
21
2977.670
31
0.0
0
LINE
5
2210e
8
0-2
6
CONTINUOUS
62
  7
10
5623.650
20
2970.400
30
0.0
11
5605.240
21
2977.670
31
0.0
0
LINE
5
2210f
8
0-2
6
CONTINUOUS
62
  7
10
5883.650
20
2970.400
30
0.0
11
5865.240
21
2977.670
31
0.0
0
LINE
5
22110
8
0-2
6
CONTINUOUS
62
  7
10
5883.650
20
2970.400
30
0.0
11
5865.240
21
2977.670
31
0.0
0
LINE
5
22111
8
0-2
6
CONTINUOUS
62
  7
10
6143.650
20
2970.400
30
0.0
11
6125.230
21
2977.670
31
0.0
0
LINE
5
22112
8
0-2
6
CONTINUOUS
62
  7
10
6143.650
20
2970.400
30
0.0
11
6125.230
21
2977.670
31
0.0
0
LINE
5
22113
8
0-2
6
CONTINUOUS
62
  7
10
6403.650
20
2970.400
30
0.0
11
6385.230
21
2977.670
31
0.0
0
LINE
5
22114
8
0-2
6
CONTINUOUS
62
  7
10
6403.650
20
2970.400
30
0.0
11
6385.230
21
2977.670
31
0.0
0
LINE
5
22115
8
0-2
6
CONTINUOUS
62
  7
10
6663.650
20
2970.400
30
0.0
11
6645.230
21
2977.670
31
0.0
0
LINE
5
22116
8
0-2
6
CONTINUOUS
62
  7
10
6663.650
20
2970.400
30
0.0
11
6645.230
21
2977.670
31
0.0
0
LINE
5
22117
8
0-2
6
CONTINUOUS
62
  7
10
6923.650
20
2970.400
30
0.0
11
6905.240
21
2977.670
31
0.0
0
LINE
5
22118
8
0-2
6
CONTINUOUS
62
  7
10
6923.650
20
2970.400
30
0.0
11
6905.240
21
2977.670
31
0.0
0
LINE
5
22119
8
0-2
6
CONTINUOUS
62
  7
10
7183.650
20
2970.400
30
0.0
11
7165.240
21
2977.670
31
0.0
0
LINE
5
2211a
8
0-2
6
CONTINUOUS
62
  7
10
7183.650
20
2970.400
30
0.0
11
7165.240
21
2977.670
31
0.0
0
LINE
5
2211b
8
0-2
6
CONTINUOUS
62
  7
10
7443.650
20
2970.400
30
0.0
11
7425.240
21
2977.670
31
0.0
0
LINE
5
2211c
8
0-2
6
CONTINUOUS
62
  7
10
7443.650
20
2970.400
30
0.0
11
7425.240
21
2977.670
31
0.0
0
LINE
5
2211d
8
0-2
6
CONTINUOUS
62
  7
10
7703.650
20
2970.400
30
0.0
11
7685.240
21
2977.670
31
0.0
0
LINE
5
2211e
8
0-2
6
CONTINUOUS
62
  7
10
7703.650
20
2970.400
30
0.0
11
7685.240
21
2977.670
31
0.0
0
LINE
5
2211f
8
0-2
6
CONTINUOUS
62
  7
10
7823.650
20
2969.500
30
0.0
11
7844.900
21
2982.500
31
0.0
0
LINE
5
22120
8
0-1
6
CONTINUOUS
62
  7
10
4323.650
20
3074.040
30
0.0
11
4302.400
21
3087.040
31
0.0
0
LINE
5
22121
8
0-1
6
CONTINUOUS
62
  7
10
7823.650
20
3074.040
30
0.0
11
7844.900
21
3087.040
31
0.0
0
LINE
5
22122
8
0-2
6
CONTINUOUS
62
  7
10
4323.650
20
3074.040
30
0.0
11
4302.400
21
3087.040
31
0.0
0
LINE
5
22123
8
0-2
6
CONTINUOUS
62
  7
10
4583.650
20
3074.950
30
0.0
11
4565.240
21
3082.220
31
0.0
0
LINE
5
22124
8
0-2
6
CONTINUOUS
62
  7
10
4583.650
20
3074.950
30
0.0
11
4565.240
21
3082.220
31
0.0
0
LINE
5
22125
8
0-2
6
CONTINUOUS
62
  7
10
4843.650
20
3074.950
30
0.0
11
4825.240
21
3082.220
31
0.0
0
LINE
5
22126
8
0-2
6
CONTINUOUS
62
  7
10
4843.650
20
3074.950
30
0.0
11
4825.240
21
3082.220
31
0.0
0
LINE
5
22127
8
0-2
6
CONTINUOUS
62
  7
10
5103.650
20
3074.950
30
0.0
11
5085.240
21
3082.220
31
0.0
0
LINE
5
22128
8
0-2
6
CONTINUOUS
62
  7
10
5103.650
20
3074.950
30
0.0
11
5085.240
21
3082.220
31
0.0
0
LINE
5
22129
8
0-2
6
CONTINUOUS
62
  7
10
5363.650
20
3074.950
30
0.0
11
5345.240
21
3082.220
31
0.0
0
LINE
5
2212a
8
0-2
6
CONTINUOUS
62
  7
10
5363.650
20
3074.950
30
0.0
11
5345.240
21
3082.220
31
0.0
0
LINE
5
2212b
8
0-2
6
CONTINUOUS
62
  7
10
5623.650
20
3074.950
30
0.0
11
5605.240
21
3082.220
31
0.0
0
LINE
5
2212c
8
0-2
6
CONTINUOUS
62
  7
10
5623.650
20
3074.950
30
0.0
11
5605.240
21
3082.220
31
0.0
0
LINE
5
2212d
8
0-2
6
CONTINUOUS
62
  7
10
5883.650
20
3074.950
30
0.0
11
5865.240
21
3082.220
31
0.0
0
LINE
5
2212e
8
0-2
6
CONTINUOUS
62
  7
10
5883.650
20
3074.950
30
0.0
11
5865.240
21
3082.220
31
0.0
0
LINE
5
2212f
8
0-2
6
CONTINUOUS
62
  7
10
6143.650
20
3074.950
30
0.0
11
6125.230
21
3082.220
31
0.0
0
LINE
5
22130
8
0-2
6
CONTINUOUS
62
  7
10
6143.650
20
3074.950
30
0.0
11
6125.230
21
3082.220
31
0.0
0
LINE
5
22131
8
0-2
6
CONTINUOUS
62
  7
10
6403.650
20
3074.950
30
0.0
11
6385.230
21
3082.220
31
0.0
0
LINE
5
22132
8
0-2
6
CONTINUOUS
62
  7
10
6403.650
20
3074.950
30
0.0
11
6385.230
21
3082.220
31
0.0
0
LINE
5
22133
8
0-2
6
CONTINUOUS
62
  7
10
6663.650
20
3074.950
30
0.0
11
6645.230
21
3082.220
31
0.0
0
LINE
5
22134
8
0-2
6
CONTINUOUS
62
  7
10
6663.650
20
3074.950
30
0.0
11
6645.230
21
3082.220
31
0.0
0
LINE
5
22135
8
0-2
6
CONTINUOUS
62
  7
10
6923.650
20
3074.940
30
0.0
11
6905.240
21
3082.220
31
0.0
0
LINE
5
22136
8
0-2
6
CONTINUOUS
62
  7
10
6923.650
20
3074.940
30
0.0
11
6905.240
21
3082.220
31
0.0
0
LINE
5
22137
8
0-2
6
CONTINUOUS
62
  7
10
7183.650
20
3074.940
30
0.0
11
7165.240
21
3082.220
31
0.0
0
LINE
5
22138
8
0-2
6
CONTINUOUS
62
  7
10
7183.650
20
3074.940
30
0.0
11
7165.240
21
3082.220
31
0.0
0
LINE
5
22139
8
0-2
6
CONTINUOUS
62
  7
10
7443.650
20
3074.940
30
0.0
11
7425.240
21
3082.220
31
0.0
0
LINE
5
2213a
8
0-2
6
CONTINUOUS
62
  7
10
7443.650
20
3074.940
30
0.0
11
7425.240
21
3082.220
31
0.0
0
LINE
5
2213b
8
0-2
6
CONTINUOUS
62
  7
10
7703.650
20
3074.940
30
0.0
11
7685.240
21
3082.220
31
0.0
0
LINE
5
2213c
8
0-2
6
CONTINUOUS
62
  7
10
7703.650
20
3074.940
30
0.0
11
7685.240
21
3082.220
31
0.0
0
LINE
5
2213d
8
0-2
6
CONTINUOUS
62
  7
10
7823.650
20
3074.040
30
0.0
11
7844.900
21
3087.040
31
0.0
0
LINE
5
2213e
8
0-1
6
CONTINUOUS
62
  7
10
4323.650
20
3178.590
30
0.0
11
4302.400
21
3191.590
31
0.0
0
LINE
5
2213f
8
0-1
6
CONTINUOUS
62
  7
10
7823.650
20
3178.590
30
0.0
11
7844.900
21
3191.590
31
0.0
0
LINE
5
22140
8
0-2
6
CONTINUOUS
62
  7
10
4323.650
20
3178.590
30
0.0
11
4302.400
21
3191.590
31
0.0
0
LINE
5
22141
8
0-2
6
CONTINUOUS
62
  7
10
4583.650
20
3179.500
30
0.0
11
4565.240
21
3186.770
31
0.0
0
LINE
5
22142
8
0-2
6
CONTINUOUS
62
  7
10
4583.650
20
3179.500
30
0.0
11
4565.240
21
3186.770
31
0.0
0
LINE
5
22143
8
0-2
6
CONTINUOUS
62
  7
10
4843.650
20
3179.500
30
0.0
11
4825.240
21
3186.770
31
0.0
0
LINE
5
22144
8
0-2
6
CONTINUOUS
62
  7
10
4843.650
20
3179.500
30
0.0
11
4825.240
21
3186.770
31
0.0
0
LINE
5
22145
8
0-2
6
CONTINUOUS
62
  7
10
5103.650
20
3179.500
30
0.0
11
5085.240
21
3186.770
31
0.0
0
LINE
5
22146
8
0-2
6
CONTINUOUS
62
  7
10
5103.650
20
3179.500
30
0.0
11
5085.240
21
3186.770
31
0.0
0
LINE
5
22147
8
0-2
6
CONTINUOUS
62
  7
10
5363.650
20
3179.500
30
0.0
11
5345.240
21
3186.770
31
0.0
0
LINE
5
22148
8
0-2
6
CONTINUOUS
62
  7
10
5363.650
20
3179.500
30
0.0
11
5345.240
21
3186.770
31
0.0
0
LINE
5
22149
8
0-2
6
CONTINUOUS
62
  7
10
5623.650
20
3179.490
30
0.0
11
5605.240
21
3186.770
31
0.0
0
LINE
5
2214a
8
0-2
6
CONTINUOUS
62
  7
10
5623.650
20
3179.490
30
0.0
11
5605.240
21
3186.770
31
0.0
0
LINE
5
2214b
8
0-2
6
CONTINUOUS
62
  7
10
5883.650
20
3179.490
30
0.0
11
5865.240
21
3186.770
31
0.0
0
LINE
5
2214c
8
0-2
6
CONTINUOUS
62
  7
10
5883.650
20
3179.490
30
0.0
11
5865.240
21
3186.770
31
0.0
0
LINE
5
2214d
8
0-2
6
CONTINUOUS
62
  7
10
6143.650
20
3179.490
30
0.0
11
6125.230
21
3186.770
31
0.0
0
LINE
5
2214e
8
0-2
6
CONTINUOUS
62
  7
10
6143.650
20
3179.490
30
0.0
11
6125.230
21
3186.770
31
0.0
0
LINE
5
2214f
8
0-2
6
CONTINUOUS
62
  7
10
6403.650
20
3179.490
30
0.0
11
6385.230
21
3186.770
31
0.0
0
LINE
5
22150
8
0-2
6
CONTINUOUS
62
  7
10
6403.650
20
3179.490
30
0.0
11
6385.230
21
3186.770
31
0.0
0
LINE
5
22151
8
0-2
6
CONTINUOUS
62
  7
10
6663.650
20
3179.490
30
0.0
11
6645.230
21
3186.770
31
0.0
0
LINE
5
22152
8
0-2
6
CONTINUOUS
62
  7
10
6663.650
20
3179.490
30
0.0
11
6645.230
21
3186.770
31
0.0
0
LINE
5
22153
8
0-2
6
CONTINUOUS
62
  7
10
6923.650
20
3179.490
30
0.0
11
6905.240
21
3186.770
31
0.0
0
LINE
5
22154
8
0-2
6
CONTINUOUS
62
  7
10
6923.650
20
3179.490
30
0.0
11
6905.240
21
3186.770
31
0.0
0
LINE
5
22155
8
0-2
6
CONTINUOUS
62
  7
10
7183.650
20
3179.490
30
0.0
11
7165.240
21
3186.770
31
0.0
0
LINE
5
22156
8
0-2
6
CONTINUOUS
62
  7
10
7183.650
20
3179.490
30
0.0
11
7165.240
21
3186.770
31
0.0
0
LINE
5
22157
8
0-2
6
CONTINUOUS
62
  7
10
7443.650
20
3179.490
30
0.0
11
7425.240
21
3186.770
31
0.0
0
LINE
5
22158
8
0-2
6
CONTINUOUS
62
  7
10
7443.650
20
3179.490
30
0.0
11
7425.240
21
3186.770
31
0.0
0
LINE
5
22159
8
0-2
6
CONTINUOUS
62
  7
10
7703.650
20
3179.490
30
0.0
11
7685.240
21
3186.770
31
0.0
0
LINE
5
2215a
8
0-2
6
CONTINUOUS
62
  7
10
7703.650
20
3179.490
30
0.0
11
7685.240
21
3186.770
31
0.0
0
LINE
5
2215b
8
0-2
6
CONTINUOUS
62
  7
10
7823.650
20
3178.590
30
0.0
11
7844.900
21
3191.590
31
0.0
0
LINE
5
2215c
8
0-3
6
CONTINUOUS
62
  7
10
4456.330
20
3279.180
30
0.0
11
4443.650
21
3185.010
31
0.0
0
LINE
5
2215d
8
0-3
6
CONTINUOUS
62
  7
10
4456.330
20
3174.630
30
0.0
11
4443.650
21
3080.460
31
0.0
0
LINE
5
2215e
8
0-3
6
CONTINUOUS
62
  7
10
4456.330
20
3070.080
30
0.0
11
4443.650
21
2975.910
31
0.0
0
LINE
5
2215f
8
0-3
6
CONTINUOUS
62
  7
10
4565.280
20
3291.080
30
0.0
11
4583.650
21
3179.500
31
0.0
0
LINE
5
22160
8
0-3
6
CONTINUOUS
62
  7
10
4565.240
20
3186.770
30
0.0
11
4583.650
21
3074.950
31
0.0
0
LINE
5
22161
8
0-3
6
CONTINUOUS
62
  7
10
4565.280
20
3081.980
30
0.0
11
4583.650
21
2970.400
31
0.0
0
LINE
5
22162
8
0-3
6
CONTINUOUS
62
  7
10
4716.330
20
3279.180
30
0.0
11
4703.650
21
3185.010
31
0.0
0
LINE
5
22163
8
0-3
6
CONTINUOUS
62
  7
10
4716.330
20
3174.630
30
0.0
11
4703.650
21
3080.460
31
0.0
0
LINE
5
22164
8
0-3
6
CONTINUOUS
62
  7
10
4716.330
20
3070.080
30
0.0
11
4703.650
21
2975.910
31
0.0
0
LINE
5
22165
8
0-3
6
CONTINUOUS
62
  7
10
4825.150
20
3291.140
30
0.0
11
4843.650
21
3179.500
31
0.0
0
LINE
5
22166
8
0-3
6
CONTINUOUS
62
  7
10
4825.150
20
3186.590
30
0.0
11
4843.650
21
3074.950
31
0.0
0
LINE
5
22167
8
0-3
6
CONTINUOUS
62
  7
10
4825.240
20
3082.220
30
0.0
11
4843.650
21
2970.400
31
0.0
0
LINE
5
22168
8
0-3
6
CONTINUOUS
62
  7
10
4456.330
20
2965.540
30
0.0
11
4443.650
21
2871.360
31
0.0
0
LINE
5
22169
8
0-3
6
CONTINUOUS
62
  7
10
4456.330
20
2860.990
30
0.0
11
4443.650
21
2766.810
31
0.0
0
LINE
5
2216a
8
0-3
6
CONTINUOUS
62
  7
10
4456.330
20
2756.440
30
0.0
11
4443.650
21
2662.260
31
0.0
0
LINE
5
2216b
8
0-3
6
CONTINUOUS
62
  7
10
4456.330
20
2651.890
30
0.0
11
4443.650
21
2557.710
31
0.0
0
LINE
5
2216c
8
0-3
6
CONTINUOUS
62
  7
10
4456.330
20
2547.340
30
0.0
11
4443.650
21
2453.170
31
0.0
0
LINE
5
2216d
8
0-3
6
CONTINUOUS
62
  7
10
4456.330
20
2442.790
30
0.0
11
4443.650
21
2348.620
31
0.0
0
LINE
5
2216e
8
0-3
6
CONTINUOUS
62
  7
10
4565.240
20
2454.930
30
0.0
11
4583.650
21
2343.100
31
0.0
0
LINE
5
2216f
8
0-3
6
CONTINUOUS
62
  7
10
4565.240
20
2559.480
30
0.0
11
4583.650
21
2447.650
31
0.0
0
LINE
5
22170
8
0-3
6
CONTINUOUS
62
  7
10
4565.240
20
2664.030
30
0.0
11
4583.650
21
2552.200
31
0.0
0
LINE
5
22171
8
0-3
6
CONTINUOUS
62
  7
10
4565.280
20
2768.330
30
0.0
11
4583.650
21
2656.750
31
0.0
0
LINE
5
22172
8
0-3
6
CONTINUOUS
62
  7
10
4565.240
20
2873.130
30
0.0
11
4583.650
21
2761.300
31
0.0
0
LINE
5
22173
8
0-3
6
CONTINUOUS
62
  7
10
4565.240
20
2977.680
30
0.0
11
4583.650
21
2865.850
31
0.0
0
LINE
5
22174
8
0-3
6
CONTINUOUS
62
  7
10
4716.330
20
2442.790
30
0.0
11
4703.650
21
2348.620
31
0.0
0
LINE
5
22175
8
0-3
6
CONTINUOUS
62
  7
10
4825.240
20
2454.930
30
0.0
11
4843.650
21
2343.100
31
0.0
0
LINE
5
22176
8
0-3
6
CONTINUOUS
62
  7
10
4716.330
20
2547.340
30
0.0
11
4703.650
21
2453.170
31
0.0
0
LINE
5
22177
8
0-3
6
CONTINUOUS
62
  7
10
4825.240
20
2559.480
30
0.0
11
4843.650
21
2447.650
31
0.0
0
LINE
5
22178
8
0-3
6
CONTINUOUS
62
  7
10
4716.330
20
2651.890
30
0.0
11
4703.650
21
2557.710
31
0.0
0
LINE
5
22179
8
0-3
6
CONTINUOUS
62
  7
10
4716.330
20
2756.440
30
0.0
11
4703.650
21
2662.260
31
0.0
0
LINE
5
2217a
8
0-3
6
CONTINUOUS
62
  7
10
4825.150
20
2663.850
30
0.0
11
4843.650
21
2552.200
31
0.0
0
LINE
5
2217b
8
0-3
6
CONTINUOUS
62
  7
10
4825.150
20
2872.950
30
0.0
11
4843.650
21
2761.300
31
0.0
0
LINE
5
2217c
8
0-3
6
CONTINUOUS
62
  7
10
4716.330
20
2965.540
30
0.0
11
4703.650
21
2871.360
31
0.0
0
LINE
5
2217d
8
0-3
6
CONTINUOUS
62
  7
10
4825.150
20
2977.500
30
0.0
11
4843.650
21
2865.850
31
0.0
0
LINE
5
2217e
8
0-3
6
CONTINUOUS
62
  7
10
4976.330
20
3279.180
30
0.0
11
4963.650
21
3185.010
31
0.0
0
LINE
5
2217f
8
0-3
6
CONTINUOUS
62
  7
10
4976.330
20
3174.630
30
0.0
11
4963.650
21
3080.460
31
0.0
0
LINE
5
22180
8
0-3
6
CONTINUOUS
62
  7
10
4976.330
20
3070.080
30
0.0
11
4963.650
21
2975.910
31
0.0
0
LINE
5
22181
8
0-3
6
CONTINUOUS
62
  7
10
5085.150
20
3082.050
30
0.0
11
5103.650
21
2970.400
31
0.0
0
LINE
5
22182
8
0-3
6
CONTINUOUS
62
  7
10
5085.240
20
3291.320
30
0.0
11
5103.650
21
3179.500
31
0.0
0
LINE
5
22183
8
0-3
6
CONTINUOUS
62
  7
10
5085.240
20
3186.770
30
0.0
11
5103.650
21
3074.950
31
0.0
0
LINE
5
22184
8
0-3
6
CONTINUOUS
62
  7
10
4716.330
20
2860.990
30
0.0
11
4703.650
21
2766.810
31
0.0
0
LINE
5
22185
8
0-3
6
CONTINUOUS
62
  7
10
4825.240
20
2768.580
30
0.0
11
4843.650
21
2656.750
31
0.0
0
LINE
5
22186
8
0-3
6
CONTINUOUS
62
  7
10
4976.330
20
2965.540
30
0.0
11
4963.650
21
2871.360
31
0.0
0
LINE
5
22187
8
0-3
6
CONTINUOUS
62
  7
10
4976.330
20
2860.990
30
0.0
11
4963.650
21
2766.810
31
0.0
0
LINE
5
22188
8
0-3
6
CONTINUOUS
62
  7
10
4976.330
20
2756.440
30
0.0
11
4963.650
21
2662.260
31
0.0
0
LINE
5
22189
8
0-3
6
CONTINUOUS
62
  7
10
4976.330
20
2651.890
30
0.0
11
4963.650
21
2557.710
31
0.0
0
LINE
5
2218a
8
0-3
6
CONTINUOUS
62
  7
10
4976.330
20
2547.340
30
0.0
11
4963.650
21
2453.170
31
0.0
0
LINE
5
2218b
8
0-3
6
CONTINUOUS
62
  7
10
4976.330
20
2442.790
30
0.0
11
4963.650
21
2348.620
31
0.0
0
LINE
5
2218c
8
0-3
6
CONTINUOUS
62
  7
10
5085.240
20
2977.680
30
0.0
11
5103.650
21
2865.850
31
0.0
0
LINE
5
2218d
8
0-3
6
CONTINUOUS
62
  7
10
5085.240
20
2873.130
30
0.0
11
5103.650
21
2761.300
31
0.0
0
LINE
5
2218e
8
0-3
6
CONTINUOUS
62
  7
10
5085.150
20
2768.400
30
0.0
11
5103.650
21
2656.750
31
0.0
0
LINE
5
2218f
8
0-3
6
CONTINUOUS
62
  7
10
5085.150
20
2454.750
30
0.0
11
5103.650
21
2343.100
31
0.0
0
LINE
5
22190
8
0-3
6
CONTINUOUS
62
  7
10
5236.330
20
2442.790
30
0.0
11
5223.650
21
2348.620
31
0.0
0
LINE
5
22191
8
0-3
6
CONTINUOUS
62
  7
10
5223.650
20
2453.160
30
0.0
11
5236.330
21
2547.340
31
0.0
0
LINE
5
22192
8
0-3
6
CONTINUOUS
62
  7
10
5223.650
20
2557.710
30
0.0
11
5236.330
21
2651.890
31
0.0
0
LINE
5
22193
8
0-3
6
CONTINUOUS
62
  7
10
5085.240
20
2664.030
30
0.0
11
5103.650
21
2552.200
31
0.0
0
LINE
5
22194
8
0-3
6
CONTINUOUS
62
  7
10
5085.240
20
2559.480
30
0.0
11
5103.650
21
2447.650
31
0.0
0
LINE
5
22195
8
0-3
6
CONTINUOUS
62
  7
10
5236.330
20
2756.440
30
0.0
11
5223.650
21
2662.260
31
0.0
0
LINE
5
22196
8
0-3
6
CONTINUOUS
62
  7
10
5236.330
20
2860.990
30
0.0
11
5223.650
21
2766.810
31
0.0
0
LINE
5
22197
8
0-3
6
CONTINUOUS
62
  7
10
5236.330
20
2965.530
30
0.0
11
5223.650
21
2871.360
31
0.0
0
LINE
5
22198
8
0-3
6
CONTINUOUS
62
  7
10
5236.330
20
3070.080
30
0.0
11
5223.650
21
2975.910
31
0.0
0
LINE
5
22199
8
0-3
6
CONTINUOUS
62
  7
10
5236.330
20
3174.630
30
0.0
11
5223.650
21
3080.460
31
0.0
0
LINE
5
2219a
8
0-3
6
CONTINUOUS
62
  7
10
5236.330
20
3279.180
30
0.0
11
5223.650
21
3185.010
31
0.0
0
LINE
5
2219b
8
0-3
6
CONTINUOUS
62
  7
10
5345.240
20
3291.320
30
0.0
11
5363.650
21
3179.500
31
0.0
0
LINE
5
2219c
8
0-3
6
CONTINUOUS
62
  7
10
5345.150
20
3186.590
30
0.0
11
5363.650
21
3074.950
31
0.0
0
LINE
5
2219d
8
0-3
6
CONTINUOUS
62
  7
10
5345.240
20
3082.220
30
0.0
11
5363.650
21
2970.400
31
0.0
0
LINE
5
2219e
8
0-3
6
CONTINUOUS
62
  7
10
5345.240
20
2977.680
30
0.0
11
5363.650
21
2865.850
31
0.0
0
LINE
5
2219f
8
0-3
6
CONTINUOUS
62
  7
10
5345.150
20
2872.950
30
0.0
11
5363.650
21
2761.300
31
0.0
0
LINE
5
221a0
8
0-3
6
CONTINUOUS
62
  7
10
5345.150
20
2768.400
30
0.0
11
5363.650
21
2656.750
31
0.0
0
LINE
5
221a1
8
0-3
6
CONTINUOUS
62
  7
10
5345.240
20
2664.030
30
0.0
11
5363.650
21
2552.200
31
0.0
0
LINE
5
221a2
8
0-3
6
CONTINUOUS
62
  7
10
5345.150
20
2559.300
30
0.0
11
5363.650
21
2447.650
31
0.0
0
LINE
5
221a3
8
0-3
6
CONTINUOUS
62
  7
10
5345.240
20
2454.930
30
0.0
11
5363.650
21
2343.100
31
0.0
0
LINE
5
221a4
8
0-3
6
CONTINUOUS
62
  7
10
5483.650
20
2348.620
30
0.0
11
5496.330
21
2442.790
31
0.0
0
LINE
5
221a5
8
0-3
6
CONTINUOUS
62
  7
10
5483.650
20
2453.160
30
0.0
11
5496.330
21
2547.340
31
0.0
0
LINE
5
221a6
8
0-3
6
CONTINUOUS
62
  7
10
5623.650
20
2447.650
30
0.0
11
5605.150
21
2559.300
31
0.0
0
LINE
5
221a7
8
0-3
6
CONTINUOUS
62
  7
10
5605.150
20
2454.750
30
0.0
11
5623.650
21
2343.100
31
0.0
0
LINE
5
221a8
8
0-3
6
CONTINUOUS
62
  7
10
5496.330
20
2651.890
30
0.0
11
5483.650
21
2557.710
31
0.0
0
LINE
5
221a9
8
0-3
6
CONTINUOUS
62
  7
10
5605.240
20
2664.030
30
0.0
11
5623.650
21
2552.200
31
0.0
0
LINE
5
221aa
8
0-3
6
CONTINUOUS
62
  7
10
5496.330
20
2756.440
30
0.0
11
5483.650
21
2662.260
31
0.0
0
LINE
5
221ab
8
0-3
6
CONTINUOUS
62
  7
10
5605.150
20
2768.400
30
0.0
11
5623.650
21
2656.750
31
0.0
0
LINE
5
221ac
8
0-3
6
CONTINUOUS
62
  7
10
5496.330
20
2860.980
30
0.0
11
5483.650
21
2766.810
31
0.0
0
LINE
5
221ad
8
0-3
6
CONTINUOUS
62
  7
10
5605.240
20
2873.130
30
0.0
11
5623.650
21
2761.300
31
0.0
0
LINE
5
221ae
8
0-3
6
CONTINUOUS
62
  7
10
5496.330
20
2965.530
30
0.0
11
5483.650
21
2871.360
31
0.0
0
LINE
5
221af
8
0-3
6
CONTINUOUS
62
  7
10
5605.240
20
2977.670
30
0.0
11
5623.650
21
2865.850
31
0.0
0
LINE
5
221b0
8
0-3
6
CONTINUOUS
62
  7
10
5496.330
20
3070.080
30
0.0
11
5483.650
21
2975.910
31
0.0
0
LINE
5
221b1
8
0-3
6
CONTINUOUS
62
  7
10
5605.150
20
3082.040
30
0.0
11
5623.650
21
2970.400
31
0.0
0
LINE
5
221b2
8
0-3
6
CONTINUOUS
62
  7
10
5496.330
20
3174.630
30
0.0
11
5483.650
21
3080.460
31
0.0
0
LINE
5
221b3
8
0-3
6
CONTINUOUS
62
  7
10
5605.150
20
3186.590
30
0.0
11
5623.650
21
3074.950
31
0.0
0
LINE
5
221b4
8
0-3
6
CONTINUOUS
62
  7
10
5496.330
20
3279.180
30
0.0
11
5483.650
21
3185.010
31
0.0
0
LINE
5
221b5
8
0-3
6
CONTINUOUS
62
  7
10
5605.240
20
3291.320
30
0.0
11
5623.650
21
3179.490
31
0.0
0
LINE
5
221b6
8
0-3
6
CONTINUOUS
62
  7
10
5756.330
20
3279.180
30
0.0
11
5743.650
21
3185.010
31
0.0
0
LINE
5
221b7
8
0-3
6
CONTINUOUS
62
  7
10
5756.330
20
3174.630
30
0.0
11
5743.650
21
3080.460
31
0.0
0
LINE
5
221b8
8
0-3
6
CONTINUOUS
62
  7
10
5756.330
20
3070.080
30
0.0
11
5743.650
21
2975.910
31
0.0
0
LINE
5
221b9
8
0-3
6
CONTINUOUS
62
  7
10
5865.150
20
3291.140
30
0.0
11
5883.650
21
3179.490
31
0.0
0
LINE
5
221ba
8
0-3
6
CONTINUOUS
62
  7
10
5865.240
20
3186.770
30
0.0
11
5883.650
21
3074.950
31
0.0
0
LINE
5
221bb
8
0-3
6
CONTINUOUS
62
  7
10
5865.150
20
3082.040
30
0.0
11
5883.650
21
2970.400
31
0.0
0
LINE
5
221bc
8
0-3
6
CONTINUOUS
62
  7
10
6016.330
20
3279.180
30
0.0
11
6003.650
21
3185.010
31
0.0
0
LINE
5
221bd
8
0-3
6
CONTINUOUS
62
  7
10
6016.330
20
3174.630
30
0.0
11
6003.650
21
3080.460
31
0.0
0
LINE
5
221be
8
0-3
6
CONTINUOUS
62
  7
10
6016.330
20
3070.080
30
0.0
11
6003.650
21
2975.910
31
0.0
0
LINE
5
221bf
8
0-3
6
CONTINUOUS
62
  7
10
6125.230
20
3291.320
30
0.0
11
6143.650
21
3179.490
31
0.0
0
LINE
5
221c0
8
0-3
6
CONTINUOUS
62
  7
10
6125.230
20
3186.770
30
0.0
11
6143.650
21
3074.950
31
0.0
0
LINE
5
221c1
8
0-3
6
CONTINUOUS
62
  7
10
6125.140
20
3082.040
30
0.0
11
6143.650
21
2970.400
31
0.0
0
LINE
5
221c2
8
0-3
6
CONTINUOUS
62
  7
10
5756.330
20
2965.530
30
0.0
11
5743.650
21
2871.360
31
0.0
0
LINE
5
221c3
8
0-3
6
CONTINUOUS
62
  7
10
5756.330
20
2860.980
30
0.0
11
5743.650
21
2766.810
31
0.0
0
LINE
5
221c4
8
0-3
6
CONTINUOUS
62
  7
10
5756.330
20
2756.440
30
0.0
11
5743.650
21
2662.260
31
0.0
0
LINE
5
221c5
8
0-3
6
CONTINUOUS
62
  7
10
5756.330
20
2651.890
30
0.0
11
5743.650
21
2557.710
31
0.0
0
LINE
5
221c6
8
0-3
6
CONTINUOUS
62
  7
10
5865.240
20
2977.670
30
0.0
11
5883.650
21
2865.850
31
0.0
0
LINE
5
221c7
8
0-3
6
CONTINUOUS
62
  7
10
5865.150
20
2872.950
30
0.0
11
5883.650
21
2761.300
31
0.0
0
LINE
5
221c8
8
0-3
6
CONTINUOUS
62
  7
10
5865.150
20
2768.400
30
0.0
11
5883.650
21
2656.750
31
0.0
0
LINE
5
221c9
8
0-3
6
CONTINUOUS
62
  7
10
5865.150
20
2663.850
30
0.0
11
5883.650
21
2552.200
31
0.0
0
LINE
5
221ca
8
0-3
6
CONTINUOUS
62
  7
10
5756.330
20
2547.340
30
0.0
11
5743.650
21
2453.160
31
0.0
0
LINE
5
221cb
8
0-3
6
CONTINUOUS
62
  7
10
5865.240
20
2559.480
30
0.0
11
5883.650
21
2447.650
31
0.0
0
LINE
5
221cc
8
0-3
6
CONTINUOUS
62
  7
10
6016.330
20
2965.530
30
0.0
11
6003.650
21
2871.360
31
0.0
0
LINE
5
221cd
8
0-3
6
CONTINUOUS
62
  7
10
6016.330
20
2860.980
30
0.0
11
6003.650
21
2766.810
31
0.0
0
LINE
5
221ce
8
0-3
6
CONTINUOUS
62
  7
10
6016.330
20
2756.440
30
0.0
11
6003.650
21
2662.260
31
0.0
0
LINE
5
221cf
8
0-3
6
CONTINUOUS
62
  7
10
6016.330
20
2651.890
30
0.0
11
6003.650
21
2557.710
31
0.0
0
LINE
5
221d0
8
0-3
6
CONTINUOUS
62
  7
10
6125.140
20
2663.850
30
0.0
11
6143.650
21
2552.200
31
0.0
0
LINE
5
221d1
8
0-3
6
CONTINUOUS
62
  7
10
6125.140
20
2977.500
30
0.0
11
6143.650
21
2865.850
31
0.0
0
LINE
5
221d2
8
0-3
6
CONTINUOUS
62
  7
10
6125.230
20
2873.130
30
0.0
11
6143.650
21
2761.300
31
0.0
0
LINE
5
221d3
8
0-3
6
CONTINUOUS
62
  7
10
6125.140
20
2768.400
30
0.0
11
6143.650
21
2656.750
31
0.0
0
LINE
5
221d4
8
0-3
6
CONTINUOUS
62
  7
10
6016.330
20
2547.340
30
0.0
11
6003.650
21
2453.160
31
0.0
0
LINE
5
221d5
8
0-3
6
CONTINUOUS
62
  7
10
6125.140
20
2559.300
30
0.0
11
6143.650
21
2447.650
31
0.0
0
LINE
5
221d6
8
0-3
6
CONTINUOUS
62
  7
10
6016.330
20
2442.790
30
0.0
11
6003.650
21
2348.620
31
0.0
0
LINE
5
221d7
8
0-3
6
CONTINUOUS
62
  7
10
6125.230
20
2454.930
30
0.0
11
6143.650
21
2343.100
31
0.0
0
LINE
5
221d8
8
0-3
6
CONTINUOUS
62
  7
10
6276.330
20
2651.890
30
0.0
11
6263.650
21
2557.710
31
0.0
0
LINE
5
221d9
8
0-3
6
CONTINUOUS
62
  7
10
6276.330
20
2547.340
30
0.0
11
6263.650
21
2453.160
31
0.0
0
LINE
5
221da
8
0-3
6
CONTINUOUS
62
  7
10
6263.650
20
2348.610
30
0.0
11
6276.330
21
2442.790
31
0.0
0
LINE
5
221db
8
0-3
6
CONTINUOUS
62
  7
10
6385.280
20
2454.680
30
0.0
11
6403.650
21
2343.100
31
0.0
0
LINE
5
221dc
8
0-3
6
CONTINUOUS
62
  7
10
6385.230
20
2664.030
30
0.0
11
6403.650
21
2552.200
31
0.0
0
LINE
5
221dd
8
0-3
6
CONTINUOUS
62
  7
10
6385.280
20
2559.230
30
0.0
11
6403.650
21
2447.650
31
0.0
0
LINE
5
221de
8
0-3
6
CONTINUOUS
62
  7
10
6536.330
20
2651.890
30
0.0
11
6523.650
21
2557.710
31
0.0
0
LINE
5
221df
8
0-3
6
CONTINUOUS
62
  7
10
6536.330
20
2547.340
30
0.0
11
6523.650
21
2453.160
31
0.0
0
LINE
5
221e0
8
0-3
6
CONTINUOUS
62
  7
10
6536.330
20
2442.790
30
0.0
11
6523.650
21
2348.610
31
0.0
0
LINE
5
221e1
8
0-3
6
CONTINUOUS
62
  7
10
6645.140
20
2663.850
30
0.0
11
6663.650
21
2552.200
31
0.0
0
LINE
5
221e2
8
0-3
6
CONTINUOUS
62
  7
10
6645.140
20
2559.300
30
0.0
11
6663.650
21
2447.650
31
0.0
0
LINE
5
221e3
8
0-3
6
CONTINUOUS
62
  7
10
6645.230
20
2454.930
30
0.0
11
6663.650
21
2343.100
31
0.0
0
LINE
5
221e4
8
0-3
6
CONTINUOUS
62
  7
10
6276.330
20
2965.530
30
0.0
11
6263.650
21
2871.360
31
0.0
0
LINE
5
221e5
8
0-3
6
CONTINUOUS
62
  7
10
6276.330
20
2860.980
30
0.0
11
6263.650
21
2766.810
31
0.0
0
LINE
5
221e6
8
0-3
6
CONTINUOUS
62
  7
10
6276.330
20
2756.440
30
0.0
11
6263.650
21
2662.260
31
0.0
0
LINE
5
221e7
8
0-3
6
CONTINUOUS
62
  7
10
6385.280
20
2977.430
30
0.0
11
6403.650
21
2865.850
31
0.0
0
LINE
5
221e8
8
0-3
6
CONTINUOUS
62
  7
10
6385.230
20
2873.120
30
0.0
11
6403.650
21
2761.300
31
0.0
0
LINE
5
221e9
8
0-3
6
CONTINUOUS
62
  7
10
6385.230
20
2768.580
30
0.0
11
6403.650
21
2656.750
31
0.0
0
LINE
5
221ea
8
0-3
6
CONTINUOUS
62
  7
10
6536.330
20
2756.440
30
0.0
11
6523.650
21
2662.260
31
0.0
0
LINE
5
221eb
8
0-3
6
CONTINUOUS
62
  7
10
6536.330
20
2860.980
30
0.0
11
6523.650
21
2766.810
31
0.0
0
LINE
5
221ec
8
0-3
6
CONTINUOUS
62
  7
10
6536.330
20
2965.530
30
0.0
11
6523.650
21
2871.360
31
0.0
0
LINE
5
221ed
8
0-3
6
CONTINUOUS
62
  7
10
6276.330
20
3279.180
30
0.0
11
6263.650
21
3185.010
31
0.0
0
LINE
5
221ee
8
0-3
6
CONTINUOUS
62
  7
10
6276.330
20
3174.630
30
0.0
11
6263.650
21
3080.460
31
0.0
0
LINE
5
221ef
8
0-3
6
CONTINUOUS
62
  7
10
6263.650
20
2975.910
30
0.0
11
6276.330
21
3070.080
31
0.0
0
LINE
5
221f0
8
0-3
6
CONTINUOUS
62
  7
10
6385.230
20
3291.320
30
0.0
11
6403.650
21
3179.490
31
0.0
0
LINE
5
221f1
8
0-3
6
CONTINUOUS
62
  7
10
6385.280
20
3186.530
30
0.0
11
6403.650
21
3074.950
31
0.0
0
LINE
5
221f2
8
0-3
6
CONTINUOUS
62
  7
10
6385.230
20
3082.220
30
0.0
11
6403.650
21
2970.400
31
0.0
0
LINE
5
221f3
8
0-3
6
CONTINUOUS
62
  7
10
6536.330
20
3070.080
30
0.0
11
6523.650
21
2975.910
31
0.0
0
LINE
5
221f4
8
0-3
6
CONTINUOUS
62
  7
10
6536.330
20
3174.630
30
0.0
11
6523.650
21
3080.460
31
0.0
0
LINE
5
221f5
8
0-3
6
CONTINUOUS
62
  7
10
6536.330
20
3279.180
30
0.0
11
6523.650
21
3185.010
31
0.0
0
LINE
5
221f6
8
0-3
6
CONTINUOUS
62
  7
10
6663.650
20
3179.490
30
0.0
11
6645.140
21
3291.140
31
0.0
0
LINE
5
221f7
8
0-3
6
CONTINUOUS
62
  7
10
6645.140
20
3186.590
30
0.0
11
6663.650
21
3074.950
31
0.0
0
LINE
5
221f8
8
0-3
6
CONTINUOUS
62
  7
10
6645.140
20
3082.040
30
0.0
11
6663.650
21
2970.400
31
0.0
0
LINE
5
221f9
8
0-3
6
CONTINUOUS
62
  7
10
6796.330
20
3070.080
30
0.0
11
6783.650
21
2975.910
31
0.0
0
LINE
5
221fa
8
0-3
6
CONTINUOUS
62
  7
10
6796.330
20
3174.630
30
0.0
11
6783.650
21
3080.460
31
0.0
0
LINE
5
221fb
8
0-3
6
CONTINUOUS
62
  7
10
6796.330
20
3279.180
30
0.0
11
6783.650
21
3185.010
31
0.0
0
LINE
5
221fc
8
0-3
6
CONTINUOUS
62
  7
10
6905.240
20
3291.320
30
0.0
11
6923.650
21
3179.490
31
0.0
0
LINE
5
221fd
8
0-3
6
CONTINUOUS
62
  7
10
6905.240
20
3186.770
30
0.0
11
6923.650
21
3074.940
31
0.0
0
LINE
5
221fe
8
0-3
6
CONTINUOUS
62
  7
10
6905.280
20
3081.980
30
0.0
11
6923.650
21
2970.400
31
0.0
0
LINE
5
221ff
8
0-3
6
CONTINUOUS
62
  7
10
6645.230
20
2977.670
30
0.0
11
6663.650
21
2865.850
31
0.0
0
LINE
5
22200
8
0-3
6
CONTINUOUS
62
  7
10
6645.140
20
2872.950
30
0.0
11
6663.650
21
2761.300
31
0.0
0
LINE
5
22201
8
0-3
6
CONTINUOUS
62
  7
10
6645.140
20
2768.400
30
0.0
11
6663.650
21
2656.750
31
0.0
0
LINE
5
22202
8
0-3
6
CONTINUOUS
62
  7
10
6796.330
20
2965.530
30
0.0
11
6783.650
21
2871.360
31
0.0
0
LINE
5
22203
8
0-3
6
CONTINUOUS
62
  7
10
6796.330
20
2860.980
30
0.0
11
6783.650
21
2766.810
31
0.0
0
LINE
5
22204
8
0-3
6
CONTINUOUS
62
  7
10
6796.330
20
2756.440
30
0.0
11
6783.650
21
2662.260
31
0.0
0
LINE
5
22205
8
0-3
6
CONTINUOUS
62
  7
10
6905.280
20
2768.330
30
0.0
11
6923.650
21
2656.750
31
0.0
0
LINE
5
22206
8
0-3
6
CONTINUOUS
62
  7
10
6905.240
20
2873.120
30
0.0
11
6923.650
21
2761.300
31
0.0
0
LINE
5
22207
8
0-3
6
CONTINUOUS
62
  7
10
6905.240
20
2977.670
30
0.0
11
6923.650
21
2865.850
31
0.0
0
LINE
5
22208
8
0-3
6
CONTINUOUS
62
  7
10
6796.330
20
2651.890
30
0.0
11
6783.650
21
2557.710
31
0.0
0
LINE
5
22209
8
0-3
6
CONTINUOUS
62
  7
10
6796.330
20
2547.340
30
0.0
11
6783.650
21
2453.160
31
0.0
0
LINE
5
2220a
8
0-3
6
CONTINUOUS
62
  7
10
6796.330
20
2442.790
30
0.0
11
6783.650
21
2348.610
31
0.0
0
LINE
5
2220b
8
0-3
6
CONTINUOUS
62
  7
10
6905.240
20
2454.930
30
0.0
11
6923.650
21
2343.100
31
0.0
0
LINE
5
2220c
8
0-3
6
CONTINUOUS
62
  7
10
6905.240
20
2559.480
30
0.0
11
6923.650
21
2447.650
31
0.0
0
LINE
5
2220d
8
0-3
6
CONTINUOUS
62
  7
10
6923.650
20
2552.200
30
0.0
11
6905.280
21
2663.780
31
0.0
0
LINE
5
2220e
8
0-3
6
CONTINUOUS
62
  7
10
7056.330
20
3279.180
30
0.0
11
7043.650
21
3185.010
31
0.0
0
LINE
5
2220f
8
0-3
6
CONTINUOUS
62
  7
10
7056.330
20
3174.630
30
0.0
11
7043.650
21
3080.460
31
0.0
0
LINE
5
22210
8
0-3
6
CONTINUOUS
62
  7
10
7165.140
20
3291.140
30
0.0
11
7183.650
21
3179.490
31
0.0
0
LINE
5
22211
8
0-3
6
CONTINUOUS
62
  7
10
7165.240
20
3186.770
30
0.0
11
7183.650
21
3074.940
31
0.0
0
LINE
5
22212
8
0-3
6
CONTINUOUS
62
  7
10
7316.330
20
3279.180
30
0.0
11
7303.650
21
3185.010
31
0.0
0
LINE
5
22213
8
0-3
6
CONTINUOUS
62
  7
10
7303.650
20
3080.460
30
0.0
11
7316.330
21
3174.630
31
0.0
0
LINE
5
22214
8
0-3
6
CONTINUOUS
62
  7
10
7576.330
20
3279.180
30
0.0
11
7563.650
21
3185.000
31
0.0
0
LINE
5
22215
8
0-3
6
CONTINUOUS
62
  7
10
7576.330
20
3174.630
30
0.0
11
7563.650
21
3080.460
31
0.0
0
LINE
5
22216
8
0-3
6
CONTINUOUS
62
  7
10
7576.330
20
3070.080
30
0.0
11
7563.650
21
2975.910
31
0.0
0
LINE
5
22217
8
0-3
6
CONTINUOUS
62
  7
10
7316.330
20
3070.080
30
0.0
11
7303.650
21
2975.910
31
0.0
0
LINE
5
22218
8
0-3
6
CONTINUOUS
62
  7
10
7056.330
20
3070.080
30
0.0
11
7043.650
21
2975.910
31
0.0
0
LINE
5
22219
8
0-3
6
CONTINUOUS
62
  7
10
7165.140
20
3082.040
30
0.0
11
7183.650
21
2970.400
31
0.0
0
LINE
5
2221a
8
0-3
6
CONTINUOUS
62
  7
10
7425.240
20
3291.320
30
0.0
11
7443.650
21
3179.490
31
0.0
0
LINE
5
2221b
8
0-3
6
CONTINUOUS
62
  7
10
7425.140
20
3186.590
30
0.0
11
7443.650
21
3074.940
31
0.0
0
LINE
5
2221c
8
0-3
6
CONTINUOUS
62
  7
10
7425.240
20
3082.220
30
0.0
11
7443.650
21
2970.400
31
0.0
0
LINE
5
2221d
8
0-3
6
CONTINUOUS
62
  7
10
7685.240
20
3291.320
30
0.0
11
7703.650
21
3179.490
31
0.0
0
LINE
5
2221e
8
0-3
6
CONTINUOUS
62
  7
10
7685.240
20
3186.770
30
0.0
11
7703.650
21
3074.940
31
0.0
0
LINE
5
2221f
8
0-3
6
CONTINUOUS
62
  7
10
7685.240
20
3082.220
30
0.0
11
7703.650
21
2970.400
31
0.0
0
LINE
5
22220
8
0-3
6
CONTINUOUS
62
  7
10
7056.330
20
2965.530
30
0.0
11
7043.650
21
2871.360
31
0.0
0
LINE
5
22221
8
0-3
6
CONTINUOUS
62
  7
10
7056.330
20
2860.980
30
0.0
11
7043.650
21
2766.810
31
0.0
0
LINE
5
22222
8
0-3
6
CONTINUOUS
62
  7
10
7056.330
20
2756.430
30
0.0
11
7043.650
21
2662.260
31
0.0
0
LINE
5
22223
8
0-3
6
CONTINUOUS
62
  7
10
7056.330
20
2651.890
30
0.0
11
7043.650
21
2557.710
31
0.0
0
LINE
5
22224
8
0-3
6
CONTINUOUS
62
  7
10
7316.330
20
2965.530
30
0.0
11
7303.650
21
2871.360
31
0.0
0
LINE
5
22225
8
0-3
6
CONTINUOUS
62
  7
10
7316.330
20
2860.980
30
0.0
11
7303.650
21
2766.810
31
0.0
0
LINE
5
22226
8
0-3
6
CONTINUOUS
62
  7
10
7316.330
20
2756.430
30
0.0
11
7303.650
21
2662.260
31
0.0
0
LINE
5
22227
8
0-3
6
CONTINUOUS
62
  7
10
7303.650
20
2557.710
30
0.0
11
7316.330
21
2651.890
31
0.0
0
LINE
5
22228
8
0-3
6
CONTINUOUS
62
  7
10
7576.330
20
2965.530
30
0.0
11
7563.650
21
2871.360
31
0.0
0
LINE
5
22229
8
0-3
6
CONTINUOUS
62
  7
10
7576.330
20
2860.980
30
0.0
11
7563.650
21
2766.810
31
0.0
0
LINE
5
2222a
8
0-3
6
CONTINUOUS
62
  7
10
7576.330
20
2756.430
30
0.0
11
7563.650
21
2662.260
31
0.0
0
LINE
5
2222b
8
0-3
6
CONTINUOUS
62
  7
10
7576.330
20
2651.880
30
0.0
11
7563.650
21
2557.710
31
0.0
0
LINE
5
2222c
8
0-3
6
CONTINUOUS
62
  7
10
7165.240
20
2977.670
30
0.0
11
7183.650
21
2865.850
31
0.0
0
LINE
5
2222d
8
0-3
6
CONTINUOUS
62
  7
10
7165.140
20
2872.950
30
0.0
11
7183.650
21
2761.300
31
0.0
0
LINE
5
2222e
8
0-3
6
CONTINUOUS
62
  7
10
7165.140
20
2768.400
30
0.0
11
7183.650
21
2656.750
31
0.0
0
LINE
5
2222f
8
0-3
6
CONTINUOUS
62
  7
10
7165.140
20
2663.850
30
0.0
11
7183.650
21
2552.200
31
0.0
0
LINE
5
22230
8
0-3
6
CONTINUOUS
62
  7
10
7425.140
20
2977.490
30
0.0
11
7443.650
21
2865.850
31
0.0
0
LINE
5
22231
8
0-3
6
CONTINUOUS
62
  7
10
7425.240
20
2873.120
30
0.0
11
7443.650
21
2761.300
31
0.0
0
LINE
5
22232
8
0-3
6
CONTINUOUS
62
  7
10
7425.140
20
2768.400
30
0.0
11
7443.650
21
2656.750
31
0.0
0
LINE
5
22233
8
0-3
6
CONTINUOUS
62
  7
10
7425.140
20
2663.850
30
0.0
11
7443.650
21
2552.200
31
0.0
0
LINE
5
22234
8
0-3
6
CONTINUOUS
62
  7
10
7685.240
20
2977.670
30
0.0
11
7703.650
21
2865.850
31
0.0
0
LINE
5
22235
8
0-3
6
CONTINUOUS
62
  7
10
7685.240
20
2873.120
30
0.0
11
7703.650
21
2761.300
31
0.0
0
LINE
5
22236
8
0-3
6
CONTINUOUS
62
  7
10
7685.240
20
2768.570
30
0.0
11
7703.650
21
2656.750
31
0.0
0
LINE
5
22237
8
0-3
6
CONTINUOUS
62
  7
10
7685.910
20
2659.920
30
0.0
11
7703.650
21
2552.200
31
0.0
0
LINE
5
22238
8
0-3
6
CONTINUOUS
62
  7
10
7056.330
20
2547.340
30
0.0
11
7043.650
21
2453.160
31
0.0
0
LINE
5
22239
8
0-3
6
CONTINUOUS
62
  7
10
7056.330
20
2442.790
30
0.0
11
7043.650
21
2348.610
31
0.0
0
LINE
5
2223a
8
0-3
6
CONTINUOUS
62
  7
10
7165.140
20
2559.300
30
0.0
11
7183.650
21
2447.650
31
0.0
0
LINE
5
2223b
8
0-3
6
CONTINUOUS
62
  7
10
7165.240
20
2454.930
30
0.0
11
7183.650
21
2343.100
31
0.0
0
LINE
5
2223c
8
0-3
6
CONTINUOUS
62
  7
10
7316.330
20
2442.790
30
0.0
11
7303.650
21
2348.610
31
0.0
0
LINE
5
2223d
8
0-3
6
CONTINUOUS
62
  7
10
7316.330
20
2547.340
30
0.0
11
7303.650
21
2453.160
31
0.0
0
LINE
5
2223e
8
0-3
6
CONTINUOUS
62
  7
10
7425.240
20
2559.480
30
0.0
11
7443.650
21
2447.650
31
0.0
0
LINE
5
2223f
8
0-3
6
CONTINUOUS
62
  7
10
7425.240
20
2454.930
30
0.0
11
7443.650
21
2343.100
31
0.0
0
LINE
5
22240
8
0-3
6
CONTINUOUS
62
  7
10
7576.330
20
2442.790
30
0.0
11
7563.650
21
2348.610
31
0.0
0
LINE
5
22241
8
0-3
6
CONTINUOUS
62
  7
10
7576.330
20
2547.340
30
0.0
11
7563.650
21
2453.160
31
0.0
0
LINE
5
22242
8
0-3
6
CONTINUOUS
62
  7
10
7685.240
20
2559.480
30
0.0
11
7703.650
21
2447.650
31
0.0
0
LINE
5
22243
8
0-3
6
CONTINUOUS
62
  7
10
7685.240
20
2454.930
30
0.0
11
7703.650
21
2343.100
31
0.0
0
LINE
5
22244
8
0-3
6
CONTINUOUS
62
  7
10
5883.650
20
3389.500
30
0.0
11
5867.630
21
3487.560
31
0.0
0
LINE
5
22245
8
0-3
6
CONTINUOUS
62
  7
10
4443.650
20
3395.010
30
0.0
11
4455.880
21
3486.670
31
0.0
0
LINE
5
22246
8
0-3
6
CONTINUOUS
62
  7
10
4583.650
20
3389.500
30
0.0
11
4567.780
21
3486.670
31
0.0
0
LINE
5
22247
8
0-3
6
CONTINUOUS
62
  7
10
4703.650
20
3395.010
30
0.0
11
4715.870
21
3486.670
31
0.0
0
LINE
5
22248
8
0-3
6
CONTINUOUS
62
  7
10
4843.650
20
3389.500
30
0.0
11
4827.780
21
3486.670
31
0.0
0
LINE
5
22249
8
0-3
6
CONTINUOUS
62
  7
10
4963.650
20
3395.010
30
0.0
11
4975.870
21
3486.670
31
0.0
0
LINE
5
2224a
8
0-3
6
CONTINUOUS
62
  7
10
5103.650
20
3389.500
30
0.0
11
5087.780
21
3486.670
31
0.0
0
LINE
5
2224b
8
0-3
6
CONTINUOUS
62
  7
10
5223.650
20
3395.010
30
0.0
11
5235.870
21
3486.670
31
0.0
0
LINE
5
2224c
8
0-3
6
CONTINUOUS
62
  7
10
5363.650
20
3389.500
30
0.0
11
5347.780
21
3486.670
31
0.0
0
LINE
5
2224d
8
0-3
6
CONTINUOUS
62
  7
10
5483.650
20
3395.010
30
0.0
11
5495.870
21
3486.670
31
0.0
0
LINE
5
2224e
8
0-3
6
CONTINUOUS
62
  7
10
5623.650
20
3389.500
30
0.0
11
5607.780
21
3486.670
31
0.0
0
LINE
5
2224f
8
0-3
6
CONTINUOUS
62
  7
10
5743.650
20
3395.010
30
0.0
11
5755.870
21
3486.670
31
0.0
0
LINE
5
22250
8
0-3
6
CONTINUOUS
62
  7
10
6003.650
20
3395.010
30
0.0
11
6015.870
21
3486.670
31
0.0
0
LINE
5
22251
8
0-3
6
CONTINUOUS
62
  7
10
6143.650
20
3389.500
30
0.0
11
6127.780
21
3486.670
31
0.0
0
LINE
5
22252
8
0-3
6
CONTINUOUS
62
  7
10
6263.650
20
3395.010
30
0.0
11
6275.870
21
3486.670
31
0.0
0
LINE
5
22253
8
0-3
6
CONTINUOUS
62
  7
10
6403.650
20
3389.500
30
0.0
11
6387.770
21
3486.670
31
0.0
0
LINE
5
22254
8
0-3
6
CONTINUOUS
62
  7
10
6523.650
20
3395.010
30
0.0
11
6535.870
21
3486.670
31
0.0
0
LINE
5
22255
8
0-3
6
CONTINUOUS
62
  7
10
6663.650
20
3389.500
30
0.0
11
6647.770
21
3486.670
31
0.0
0
LINE
5
22256
8
0-3
6
CONTINUOUS
62
  7
10
6923.650
20
3389.500
30
0.0
11
6907.780
21
3486.670
31
0.0
0
LINE
5
22257
8
0-3
6
CONTINUOUS
62
  7
10
6783.650
20
3395.010
30
0.0
11
6795.870
21
3486.670
31
0.0
0
LINE
5
22258
8
0-3
6
CONTINUOUS
62
  7
10
7043.650
20
3395.010
30
0.0
11
7055.870
21
3486.670
31
0.0
0
LINE
5
22259
8
0-3
6
CONTINUOUS
62
  7
10
7303.650
20
3395.010
30
0.0
11
7315.870
21
3486.670
31
0.0
0
LINE
5
2225a
8
0-3
6
CONTINUOUS
62
  7
10
7183.650
20
3389.500
30
0.0
11
7167.780
21
3486.670
31
0.0
0
LINE
5
2225b
8
0-3
6
CONTINUOUS
62
  7
10
7443.650
20
3389.500
30
0.0
11
7427.780
21
3486.670
31
0.0
0
LINE
5
2225c
8
0-3
6
CONTINUOUS
62
  7
10
7563.650
20
3395.010
30
0.0
11
7575.870
21
3486.670
31
0.0
0
LINE
5
2225d
8
0-3
6
CONTINUOUS
62
  7
10
7703.650
20
3389.500
30
0.0
11
7687.780
21
3486.670
31
0.0
0
LINE
5
2225e
8
0-0
6
CONTINUOUS
62
  7
10
2010.810
20
2059.460
30
0.0
11
8091.890
21
2059.460
31
0.0
0
LINE
5
2225f
8
ADD_LINE
6
HIDDEN
62
  3
10
4179.550
20
2187.650
30
0.0
11
4179.550
21
2127.070
31
0.0
0
LINE
5
22260
8
ADD_LINE
6
HIDDEN
62
  3
10
4179.550
20
2187.650
30
0.0
11
4207.410
21
2187.650
31
0.0
0
CIRCLE
5
22261
8
0-0
6
CONTINUOUS
62
  7
10
3741.470
20
2311.590
30
0.0
40
3.000
0
CIRCLE
5
22262
8
0-0
6
CONTINUOUS
62
  7
10
3874.830
20
2253.730
30
0.0
40
3.000
0
CIRCLE
5
22263
8
0-0
6
CONTINUOUS
62
  7
10
3500.520
20
2416.140
30
0.0
40
3.000
0
CIRCLE
5
22264
8
0-0
6
CONTINUOUS
62
  7
10
3633.870
20
2358.280
30
0.0
40
3.000
0
CIRCLE
5
22265
8
0-0
6
CONTINUOUS
62
  7
10
3259.560
20
2520.690
30
0.0
40
3.000
0
CIRCLE
5
22266
8
0-0
6
CONTINUOUS
62
  7
10
3392.920
20
2462.830
30
0.0
40
3.000
0
CIRCLE
5
22267
8
0-0
6
CONTINUOUS
62
  7
10
3018.610
20
2625.240
30
0.0
40
3.000
0
CIRCLE
5
22268
8
0-0
6
CONTINUOUS
62
  7
10
3151.960
20
2567.380
30
0.0
40
3.000
0
CIRCLE
5
22269
8
0-0
6
CONTINUOUS
62
  7
10
2777.650
20
2729.790
30
0.0
40
3.000
0
CIRCLE
5
2226a
8
0-0
6
CONTINUOUS
62
  7
10
2911.010
20
2671.930
30
0.0
40
3.000
0
CIRCLE
5
2226b
8
0-0
6
CONTINUOUS
62
  7
10
2536.700
20
2834.340
30
0.0
40
3.000
0
CIRCLE
5
2226c
8
0-0
6
CONTINUOUS
62
  7
10
2670.050
20
2776.480
30
0.0
40
3.000
0
CIRCLE
5
2226d
8
0-0
6
CONTINUOUS
62
  7
10
2295.740
20
2938.890
30
0.0
40
3.000
0
CIRCLE
5
2226e
8
0-0
6
CONTINUOUS
62
  7
10
2429.100
20
2881.030
30
0.0
40
3.000
0
CIRCLE
5
2226f
8
0-0
6
CONTINUOUS
62
  7
10
2054.790
20
3043.440
30
0.0
40
3.000
0
CIRCLE
5
22270
8
0-0
6
CONTINUOUS
62
  7
10
2188.140
20
2985.580
30
0.0
40
3.000
0
CIRCLE
5
22271
8
0-0
6
CONTINUOUS
62
  7
10
1813.830
20
3147.990
30
0.0
40
3.000
0
CIRCLE
5
22272
8
0-0
6
CONTINUOUS
62
  7
10
1947.190
20
3090.130
30
0.0
40
3.000
0
CIRCLE
5
22273
8
0-0
6
CONTINUOUS
62
  7
10
1572.880
20
3252.540
30
0.0
40
3.000
0
CIRCLE
5
22274
8
0-0
6
CONTINUOUS
62
  7
10
1706.230
20
3194.680
30
0.0
40
3.000
0
ARC
5
22275
8
0-1
6
CONTINUOUS
62
  7
10
4248.650
20
2226.880
30
0.0
40
75.770
50
368.171265
51
531.828735
0
ARC
5
22276
8
0-1
6
CONTINUOUS
62
  7
10
4248.650
20
2226.880
30
0.0
40
58.770
50
383.856689
51
532.482910
0
CIRCLE
5
22277
8
0-0
6
CONTINUOUS
62
  7
10
1572.880
20
3252.540
30
0.0
40
3.000
0
CIRCLE
5
22278
8
0-0
6
CONTINUOUS
62
  7
10
1331.930
20
3357.080
30
0.0
40
3.000
0
CIRCLE
5
22279
8
0-0
6
CONTINUOUS
62
  7
10
1465.280
20
3299.220
30
0.0
40
3.000
0
CIRCLE
5
2227a
8
0-0
6
CONTINUOUS
62
  7
10
1090.970
20
3461.630
30
0.0
40
3.000
0
CIRCLE
5
2227b
8
0-0
6
CONTINUOUS
62
  7
10
1224.320
20
3403.770
30
0.0
40
3.000
0
ARC
5
2227c
8
0-1
6
CONTINUOUS
62
  7
10
4248.650
20
2331.430
30
0.0
40
75.770
50
368.171265
51
531.828735
0
ARC
5
2227d
8
0-1
6
CONTINUOUS
62
  7
10
4248.650
20
2331.430
30
0.0
40
58.770
50
383.856689
51
532.482910
0
ARC
5
2227e
8
0-1
6
CONTINUOUS
62
  7
10
4248.650
20
2435.980
30
0.0
40
75.770
50
368.171265
51
531.828735
0
ARC
5
2227f
8
0-1
6
CONTINUOUS
62
  7
10
4248.650
20
2435.980
30
0.0
40
58.770
50
383.856689
51
532.482910
0
ARC
5
22280
8
0-1
6
CONTINUOUS
62
  7
10
4248.650
20
2540.530
30
0.0
40
75.770
50
368.171265
51
531.828735
0
ARC
5
22281
8
0-1
6
CONTINUOUS
62
  7
10
4248.650
20
2540.530
30
0.0
40
58.770
50
383.856689
51
532.482910
0
ARC
5
22282
8
0-1
6
CONTINUOUS
62
  7
10
4248.650
20
2645.080
30
0.0
40
75.770
50
368.171265
51
531.828735
0
ARC
5
22283
8
0-1
6
CONTINUOUS
62
  7
10
4248.650
20
2645.080
30
0.0
40
58.770
50
383.856689
51
532.482910
0
ARC
5
22284
8
0-1
6
CONTINUOUS
62
  7
10
4248.650
20
2749.630
30
0.0
40
75.770
50
368.171265
51
531.828735
0
ARC
5
22285
8
0-1
6
CONTINUOUS
62
  7
10
4248.650
20
2749.630
30
0.0
40
58.770
50
383.856689
51
532.482910
0
ARC
5
22286
8
0-1
6
CONTINUOUS
62
  7
10
4248.650
20
2854.180
30
0.0
40
75.770
50
368.171265
51
531.828735
0
ARC
5
22287
8
0-1
6
CONTINUOUS
62
  7
10
4248.650
20
2854.180
30
0.0
40
58.770
50
383.856689
51
532.482910
0
ARC
5
22288
8
0-1
6
CONTINUOUS
62
  7
10
4248.650
20
2958.730
30
0.0
40
75.770
50
368.171265
51
531.828735
0
ARC
5
22289
8
0-1
6
CONTINUOUS
62
  7
10
4248.650
20
2958.730
30
0.0
40
58.770
50
383.856689
51
532.482910
0
ARC
5
2228a
8
0-1
6
CONTINUOUS
62
  7
10
4248.650
20
3063.280
30
0.0
40
75.770
50
368.171265
51
531.828735
0
ARC
5
2228b
8
0-1
6
CONTINUOUS
62
  7
10
4248.650
20
3063.280
30
0.0
40
58.770
50
383.856689
51
532.482910
0
ARC
5
2228c
8
0-1
6
CONTINUOUS
62
  7
10
4248.650
20
3167.820
30
0.0
40
75.770
50
368.171265
51
531.828735
0
ARC
5
2228d
8
0-1
6
CONTINUOUS
62
  7
10
4248.650
20
3167.820
30
0.0
40
58.770
50
383.856689
51
532.482910
0
ARC
5
2228e
8
0-1
6
CONTINUOUS
62
  7
10
4248.650
20
3272.370
30
0.0
40
75.770
50
368.171265
51
531.828735
0
ARC
5
2228f
8
0-1
6
CONTINUOUS
62
  7
10
4248.650
20
3272.370
30
0.0
40
58.770
50
383.856689
51
532.482910
0
ARC
5
22290
8
0-1
6
CONTINUOUS
62
  7
10
4248.650
20
3376.920
30
0.0
40
75.770
50
368.171265
51
531.828735
0
ARC
5
22291
8
0-1
6
CONTINUOUS
62
  7
10
4248.650
20
3376.920
30
0.0
40
58.770
50
383.856689
51
532.482910
0
ARC
5
22292
8
0-2
6
CONTINUOUS
62
  7
10
4512.860
20
2221.180
30
0.0
40
72.890
50
13.791901
51
161.698517
0
ARC
5
22293
8
0-2
6
CONTINUOUS
62
  7
10
4376.730
20
2380.930
30
0.0
40
167.380
50
231.983124
51
298.395081
0
ARC
5
22294
8
0-2
6
CONTINUOUS
62
  7
10
4512.860
20
2221.180
30
0.0
40
57.890
50
25.205399
51
167.515991
0
ARC
5
22295
8
0-2
6
CONTINUOUS
62
  7
10
4375.990
20
2384.070
30
0.0
40
155.490
50
234.579666
51
295.792664
0
ARC
5
22296
8
0-2
6
CONTINUOUS
62
  7
10
4293.450
20
2264.630
30
0.0
40
10.510
50
201.075867
51
223.839203
0
ARC
5
22297
8
0-2
6
CONTINUOUS
62
  7
10
4772.850
20
2221.180
30
0.0
40
72.890
50
13.791901
51
161.698517
0
ARC
5
22298
8
0-2
6
CONTINUOUS
62
  7
10
4636.730
20
2380.930
30
0.0
40
167.380
50
231.983124
51
298.395081
0
ARC
5
22299
8
0-2
6
CONTINUOUS
62
  7
10
4772.850
20
2221.180
30
0.0
40
57.890
50
25.205399
51
167.515991
0
ARC
5
2229a
8
0-2
6
CONTINUOUS
62
  7
10
4635.990
20
2384.070
30
0.0
40
155.490
50
234.579666
51
295.792664
0
ARC
5
2229b
8
0-2
6
CONTINUOUS
62
  7
10
4553.450
20
2264.630
30
0.0
40
10.510
50
201.075867
51
223.839203
0
ARC
5
2229c
8
0-2
6
CONTINUOUS
62
  7
10
5032.850
20
2221.180
30
0.0
40
72.890
50
13.791901
51
161.698517
0
ARC
5
2229d
8
0-2
6
CONTINUOUS
62
  7
10
4896.730
20
2380.930
30
0.0
40
167.380
50
231.983124
51
298.395081
0
ARC
5
2229e
8
0-2
6
CONTINUOUS
62
  7
10
5032.850
20
2221.180
30
0.0
40
57.890
50
25.205399
51
167.515991
0
ARC
5
2229f
8
0-2
6
CONTINUOUS
62
  7
10
4895.990
20
2384.070
30
0.0
40
155.490
50
234.579666
51
295.792664
0
ARC
5
222a0
8
0-2
6
CONTINUOUS
62
  7
10
4813.450
20
2264.630
30
0.0
40
10.510
50
201.075867
51
223.839203
0
ARC
5
222a1
8
0-2
6
CONTINUOUS
62
  7
10
5292.850
20
2221.180
30
0.0
40
72.890
50
13.791901
51
161.698517
0
ARC
5
222a2
8
0-2
6
CONTINUOUS
62
  7
10
5156.730
20
2380.930
30
0.0
40
167.380
50
231.983124
51
298.395081
0
ARC
5
222a3
8
0-2
6
CONTINUOUS
62
  7
10
5292.850
20
2221.180
30
0.0
40
57.890
50
25.205399
51
167.515991
0
ARC
5
222a4
8
0-2
6
CONTINUOUS
62
  7
10
5155.990
20
2384.070
30
0.0
40
155.490
50
234.579666
51
295.792664
0
ARC
5
222a5
8
0-2
6
CONTINUOUS
62
  7
10
5073.450
20
2264.630
30
0.0
40
10.510
50
201.075867
51
223.839203
0
ARC
5
222a6
8
0-2
6
CONTINUOUS
62
  7
10
5552.850
20
2221.180
30
0.0
40
72.890
50
13.791901
51
161.698517
0
ARC
5
222a7
8
0-2
6
CONTINUOUS
62
  7
10
5416.730
20
2380.930
30
0.0
40
167.380
50
231.983124
51
298.395081
0
ARC
5
222a8
8
0-2
6
CONTINUOUS
62
  7
10
5552.850
20
2221.180
30
0.0
40
57.890
50
25.205399
51
167.515991
0
ARC
5
222a9
8
0-2
6
CONTINUOUS
62
  7
10
5415.990
20
2384.070
30
0.0
40
155.490
50
234.579666
51
295.792664
0
ARC
5
222aa
8
0-2
6
CONTINUOUS
62
  7
10
5333.450
20
2264.630
30
0.0
40
10.510
50
201.075867
51
223.839203
0
ARC
5
222ab
8
0-2
6
CONTINUOUS
62
  7
10
5812.850
20
2221.180
30
0.0
40
72.890
50
13.791901
51
161.698517
0
ARC
5
222ac
8
0-2
6
CONTINUOUS
62
  7
10
5676.730
20
2380.930
30
0.0
40
167.380
50
231.983124
51
298.395081
0
ARC
5
222ad
8
0-2
6
CONTINUOUS
62
  7
10
5812.850
20
2221.180
30
0.0
40
57.890
50
25.205399
51
167.515991
0
ARC
5
222ae
8
0-2
6
CONTINUOUS
62
  7
10
5675.990
20
2384.070
30
0.0
40
155.490
50
234.579666
51
295.792664
0
ARC
5
222af
8
0-2
6
CONTINUOUS
62
  7
10
5593.450
20
2264.630
30
0.0
40
10.510
50
201.075867
51
223.839203
0
ARC
5
222b0
8
0-2
6
CONTINUOUS
62
  7
10
6072.850
20
2221.180
30
0.0
40
72.890
50
13.791901
51
161.698517
0
ARC
5
222b1
8
0-2
6
CONTINUOUS
62
  7
10
5936.730
20
2380.930
30
0.0
40
167.380
50
231.983124
51
298.395081
0
ARC
5
222b2
8
0-2
6
CONTINUOUS
62
  7
10
6072.850
20
2221.180
30
0.0
40
57.890
50
25.205399
51
167.515991
0
ARC
5
222b3
8
0-2
6
CONTINUOUS
62
  7
10
5935.990
20
2384.070
30
0.0
40
155.490
50
234.579666
51
295.792664
0
ARC
5
222b4
8
0-2
6
CONTINUOUS
62
  7
10
5853.450
20
2264.630
30
0.0
40
10.510
50
201.075867
51
223.839203
0
ARC
5
222b5
8
0-2
6
CONTINUOUS
62
  7
10
6332.850
20
2221.180
30
0.0
40
72.890
50
13.791901
51
161.698517
0
ARC
5
222b6
8
0-2
6
CONTINUOUS
62
  7
10
6196.730
20
2380.930
30
0.0
40
167.380
50
231.983124
51
298.395081
0
ARC
5
222b7
8
0-2
6
CONTINUOUS
62
  7
10
6332.850
20
2221.180
30
0.0
40
57.890
50
25.205399
51
167.515991
0
ARC
5
222b8
8
0-2
6
CONTINUOUS
62
  7
10
6195.990
20
2384.070
30
0.0
40
155.490
50
234.579666
51
295.792664
0
ARC
5
222b9
8
0-2
6
CONTINUOUS
62
  7
10
6113.450
20
2264.630
30
0.0
40
10.510
50
201.075867
51
223.839203
0
ARC
5
222ba
8
0-2
6
CONTINUOUS
62
  7
10
6592.850
20
2221.180
30
0.0
40
72.890
50
13.791901
51
161.698517
0
ARC
5
222bb
8
0-2
6
CONTINUOUS
62
  7
10
6456.730
20
2380.930
30
0.0
40
167.380
50
231.983124
51
298.395081
0
ARC
5
222bc
8
0-2
6
CONTINUOUS
62
  7
10
6592.850
20
2221.180
30
0.0
40
57.890
50
25.205399
51
167.515991
0
ARC
5
222bd
8
0-2
6
CONTINUOUS
62
  7
10
6455.990
20
2384.070
30
0.0
40
155.490
50
234.579666
51
295.792664
0
ARC
5
222be
8
0-2
6
CONTINUOUS
62
  7
10
6373.450
20
2264.630
30
0.0
40
10.510
50
201.075867
51
223.839203
0
ARC
5
222bf
8
0-2
6
CONTINUOUS
62
  7
10
6852.850
20
2221.180
30
0.0
40
72.890
50
13.791901
51
161.698517
0
ARC
5
222c0
8
0-2
6
CONTINUOUS
62
  7
10
6716.730
20
2380.930
30
0.0
40
167.380
50
231.983124
51
298.395081
0
ARC
5
222c1
8
0-2
6
CONTINUOUS
62
  7
10
6852.850
20
2221.180
30
0.0
40
57.890
50
25.205399
51
167.515991
0
ARC
5
222c2
8
0-2
6
CONTINUOUS
62
  7
10
6715.990
20
2384.070
30
0.0
40
155.490
50
234.579666
51
295.792664
0
ARC
5
222c3
8
0-2
6
CONTINUOUS
62
  7
10
6633.450
20
2264.630
30
0.0
40
10.510
50
201.075867
51
223.839203
0
ARC
5
222c4
8
0-2
6
CONTINUOUS
62
  7
10
7112.850
20
2221.170
30
0.0
40
72.890
50
13.791901
51
161.698517
0
ARC
5
222c5
8
0-2
6
CONTINUOUS
62
  7
10
6976.730
20
2380.930
30
0.0
40
167.380
50
231.983124
51
298.395081
0
ARC
5
222c6
8
0-2
6
CONTINUOUS
62
  7
10
7112.850
20
2221.170
30
0.0
40
57.890
50
25.205399
51
167.515991
0
ARC
5
222c7
8
0-2
6
CONTINUOUS
62
  7
10
6975.990
20
2384.060
30
0.0
40
155.490
50
234.579666
51
295.792664
0
ARC
5
222c8
8
0-2
6
CONTINUOUS
62
  7
10
6893.450
20
2264.630
30
0.0
40
10.510
50
201.075867
51
223.839203
0
ARC
5
222c9
8
0-2
6
CONTINUOUS
62
  7
10
7372.850
20
2221.170
30
0.0
40
72.890
50
13.791901
51
161.698517
0
ARC
5
222ca
8
0-2
6
CONTINUOUS
62
  7
10
7236.730
20
2380.930
30
0.0
40
167.380
50
231.983124
51
298.395081
0
ARC
5
222cb
8
0-2
6
CONTINUOUS
62
  7
10
7372.850
20
2221.170
30
0.0
40
57.890
50
25.205399
51
167.515991
0
ARC
5
222cc
8
0-2
6
CONTINUOUS
62
  7
10
7235.990
20
2384.060
30
0.0
40
155.490
50
234.579666
51
295.792664
0
ARC
5
222cd
8
0-2
6
CONTINUOUS
62
  7
10
7153.450
20
2264.630
30
0.0
40
10.510
50
201.075867
51
223.839203
0
ARC
5
222ce
8
0-2
6
CONTINUOUS
62
  7
10
7632.850
20
2221.170
30
0.0
40
72.890
50
13.791901
51
161.698517
0
ARC
5
222cf
8
0-2
6
CONTINUOUS
62
  7
10
7496.730
20
2380.930
30
0.0
40
167.380
50
231.983124
51
298.395081
0
ARC
5
222d0
8
0-2
6
CONTINUOUS
62
  7
10
7632.850
20
2221.170
30
0.0
40
57.890
50
25.205399
51
167.515991
0
ARC
5
222d1
8
0-2
6
CONTINUOUS
62
  7
10
7495.990
20
2384.060
30
0.0
40
155.490
50
234.579666
51
295.792664
0
ARC
5
222d2
8
0-2
6
CONTINUOUS
62
  7
10
7413.450
20
2264.630
30
0.0
40
10.510
50
201.075867
51
223.839203
0
ARC
5
222d3
8
0-2
6
CONTINUOUS
62
  7
10
7763.650
20
2491.050
30
0.0
40
277.500
50
251.075363
51
288.924622
0
ARC
5
222d4
8
0-2
6
CONTINUOUS
62
  7
10
7763.650
20
2607.230
30
0.0
40
373.680
50
256.063538
51
283.936462
0
ARC
5
222d5
8
0-1
6
CONTINUOUS
62
  7
10
7898.650
20
2226.880
30
0.0
40
75.770
50
8.171249
51
171.828751
0
ARC
5
222d6
8
0-1
6
CONTINUOUS
62
  7
10
7898.650
20
2226.880
30
0.0
40
58.770
50
7.517105
51
156.143311
0
ARC
5
222d7
8
0-1
6
CONTINUOUS
62
  7
10
7898.650
20
2331.430
30
0.0
40
75.770
50
8.171249
51
171.828751
0
ARC
5
222d8
8
0-1
6
CONTINUOUS
62
  7
10
7898.650
20
2331.430
30
0.0
40
58.770
50
7.517105
51
156.143311
0
ARC
5
222d9
8
0-1
6
CONTINUOUS
62
  7
10
7898.650
20
2435.980
30
0.0
40
75.770
50
8.171249
51
171.828751
0
ARC
5
222da
8
0-1
6
CONTINUOUS
62
  7
10
7898.650
20
2435.980
30
0.0
40
58.770
50
7.517105
51
156.143311
0
ARC
5
222db
8
0-1
6
CONTINUOUS
62
  7
10
7898.650
20
2540.530
30
0.0
40
75.770
50
8.171249
51
171.828751
0
ARC
5
222dc
8
0-1
6
CONTINUOUS
62
  7
10
7898.650
20
2540.530
30
0.0
40
58.770
50
7.517105
51
156.143311
0
ARC
5
222dd
8
0-1
6
CONTINUOUS
62
  7
10
7898.650
20
2645.080
30
0.0
40
75.770
50
8.171249
51
171.828751
0
ARC
5
222de
8
0-1
6
CONTINUOUS
62
  7
10
7898.650
20
2645.080
30
0.0
40
58.770
50
7.517105
51
156.143311
0
ARC
5
222df
8
0-1
6
CONTINUOUS
62
  7
10
7898.650
20
2749.630
30
0.0
40
75.770
50
8.171249
51
171.828751
0
ARC
5
222e0
8
0-1
6
CONTINUOUS
62
  7
10
7898.650
20
2749.630
30
0.0
40
58.770
50
7.517105
51
156.143311
0
ARC
5
222e1
8
0-1
6
CONTINUOUS
62
  7
10
7898.650
20
2854.180
30
0.0
40
75.770
50
8.171249
51
171.828751
0
ARC
5
222e2
8
0-1
6
CONTINUOUS
62
  7
10
7898.650
20
2854.180
30
0.0
40
58.770
50
7.517105
51
156.143311
0
ARC
5
222e3
8
0-1
6
CONTINUOUS
62
  7
10
7898.650
20
2958.730
30
0.0
40
75.770
50
8.171249
51
171.828751
0
ARC
5
222e4
8
0-1
6
CONTINUOUS
62
  7
10
7898.650
20
2958.730
30
0.0
40
58.770
50
7.517105
51
156.143311
0
ARC
5
222e5
8
0-1
6
CONTINUOUS
62
  7
10
7898.650
20
3063.280
30
0.0
40
75.770
50
8.171249
51
171.828751
0
ARC
5
222e6
8
0-1
6
CONTINUOUS
62
  7
10
7898.650
20
3063.280
30
0.0
40
58.770
50
7.517105
51
156.143311
0
ARC
5
222e7
8
0-1
6
CONTINUOUS
62
  7
10
7898.650
20
3167.820
30
0.0
40
75.770
50
8.171249
51
171.828751
0
ARC
5
222e8
8
0-1
6
CONTINUOUS
62
  7
10
7898.650
20
3167.820
30
0.0
40
58.770
50
7.517105
51
156.143311
0
ARC
5
222e9
8
0-1
6
CONTINUOUS
62
  7
10
7898.650
20
3272.370
30
0.0
40
75.770
50
8.171249
51
171.828751
0
ARC
5
222ea
8
0-1
6
CONTINUOUS
62
  7
10
7898.650
20
3272.370
30
0.0
40
58.770
50
7.517105
51
156.143311
0
ARC
5
222eb
8
0-1
6
CONTINUOUS
62
  7
10
7898.650
20
3376.920
30
0.0
40
75.770
50
8.171249
51
171.828751
0
ARC
5
222ec
8
0-1
6
CONTINUOUS
62
  7
10
7898.650
20
3376.920
30
0.0
40
58.770
50
7.517105
51
156.143311
0
ARC
5
222ed
8
0-2
6
CONTINUOUS
62
  7
10
4512.860
20
2325.730
30
0.0
40
72.890
50
13.791901
51
161.698517
0
ARC
5
222ee
8
0-2
6
CONTINUOUS
62
  7
10
4512.860
20
2325.730
30
0.0
40
57.890
50
25.205399
51
167.515991
0
ARC
5
222ef
8
0-2
6
CONTINUOUS
62
  7
10
4772.850
20
2325.730
30
0.0
40
72.890
50
13.791901
51
161.698517
0
ARC
5
222f0
8
0-2
6
CONTINUOUS
62
  7
10
4772.850
20
2325.730
30
0.0
40
57.890
50
25.205399
51
167.515991
0
ARC
5
222f1
8
0-2
6
CONTINUOUS
62
  7
10
5032.850
20
2325.730
30
0.0
40
72.890
50
13.791901
51
161.698517
0
ARC
5
222f2
8
0-2
6
CONTINUOUS
62
  7
10
5032.850
20
2325.730
30
0.0
40
57.890
50
25.205399
51
167.515991
0
ARC
5
222f3
8
0-2
6
CONTINUOUS
62
  7
10
5292.850
20
2325.730
30
0.0
40
72.890
50
13.791901
51
161.698517
0
ARC
5
222f4
8
0-2
6
CONTINUOUS
62
  7
10
5292.850
20
2325.730
30
0.0
40
57.890
50
25.205399
51
167.515991
0
ARC
5
222f5
8
0-2
6
CONTINUOUS
62
  7
10
5552.850
20
2325.730
30
0.0
40
72.890
50
13.791901
51
161.698517
0
ARC
5
222f6
8
0-2
6
CONTINUOUS
62
  7
10
5552.850
20
2325.730
30
0.0
40
57.890
50
25.205399
51
167.515991
0
ARC
5
222f7
8
0-2
6
CONTINUOUS
62
  7
10
5812.850
20
2325.730
30
0.0
40
72.890
50
13.791901
51
161.698517
0
ARC
5
222f8
8
0-2
6
CONTINUOUS
62
  7
10
5812.850
20
2325.730
30
0.0
40
57.890
50
25.205399
51
167.515991
0
ARC
5
222f9
8
0-2
6
CONTINUOUS
62
  7
10
6072.850
20
2325.730
30
0.0
40
72.890
50
13.791901
51
161.698517
0
ARC
5
222fa
8
0-2
6
CONTINUOUS
62
  7
10
6072.850
20
2325.730
30
0.0
40
57.890
50
25.205399
51
167.515991
0
ARC
5
222fb
8
0-2
6
CONTINUOUS
62
  7
10
6332.850
20
2325.720
30
0.0
40
72.890
50
13.791901
51
161.698517
0
ARC
5
222fc
8
0-2
6
CONTINUOUS
62
  7
10
6332.850
20
2325.720
30
0.0
40
57.890
50
25.205399
51
167.515991
0
ARC
5
222fd
8
0-2
6
CONTINUOUS
62
  7
10
6592.850
20
2325.720
30
0.0
40
72.890
50
13.791901
51
161.698517
0
ARC
5
222fe
8
0-2
6
CONTINUOUS
62
  7
10
6592.850
20
2325.720
30
0.0
40
57.890
50
25.205399
51
167.515991
0
ARC
5
222ff
8
0-2
6
CONTINUOUS
62
  7
10
6852.850
20
2325.720
30
0.0
40
72.890
50
13.791901
51
161.698517
0
ARC
5
22300
8
0-2
6
CONTINUOUS
62
  7
10
6852.850
20
2325.720
30
0.0
40
57.890
50
25.205399
51
167.515991
0
ARC
5
22301
8
0-2
6
CONTINUOUS
62
  7
10
7112.850
20
2325.720
30
0.0
40
72.890
50
13.791901
51
161.698517
0
ARC
5
22302
8
0-2
6
CONTINUOUS
62
  7
10
7112.850
20
2325.720
30
0.0
40
57.890
50
25.205399
51
167.515991
0
ARC
5
22303
8
0-2
6
CONTINUOUS
62
  7
10
7372.850
20
2325.720
30
0.0
40
72.890
50
13.791901
51
161.698517
0
ARC
5
22304
8
0-2
6
CONTINUOUS
62
  7
10
7372.850
20
2325.720
30
0.0
40
57.890
50
25.205399
51
167.515991
0
ARC
5
22305
8
0-2
6
CONTINUOUS
62
  7
10
7632.850
20
2325.720
30
0.0
40
72.890
50
13.791901
51
161.698517
0
ARC
5
22306
8
0-2
6
CONTINUOUS
62
  7
10
7632.850
20
2325.720
30
0.0
40
57.890
50
25.205399
51
167.515991
0
ARC
5
22307
8
0-2
6
CONTINUOUS
62
  7
10
4376.730
20
2485.480
30
0.0
40
167.380
50
245.111343
51
298.395081
0
ARC
5
22308
8
0-2
6
CONTINUOUS
62
  7
10
4375.990
20
2488.620
30
0.0
40
155.490
50
242.047699
51
295.792664
0
ARC
5
22309
8
0-2
6
CONTINUOUS
62
  7
10
7763.650
20
2595.600
30
0.0
40
277.500
50
254.365295
51
285.999725
0
ARC
5
2230a
8
0-2
6
CONTINUOUS
62
  7
10
7763.650
20
2711.780
30
0.0
40
373.680
50
257.993408
51
282.317261
0
ARC
5
2230b
8
0-2
6
CONTINUOUS
62
  7
10
4636.730
20
2485.480
30
0.0
40
167.380
50
245.803665
51
298.395081
0
ARC
5
2230c
8
0-2
6
CONTINUOUS
62
  7
10
4635.990
20
2488.620
30
0.0
40
155.490
50
242.950119
51
295.792664
0
ARC
5
2230d
8
0-2
6
CONTINUOUS
62
  7
10
4896.730
20
2485.480
30
0.0
40
167.380
50
245.803177
51
298.395081
0
ARC
5
2230e
8
0-2
6
CONTINUOUS
62
  7
10
4895.990
20
2488.620
30
0.0
40
155.490
50
242.894943
51
295.792664
0
ARC
5
2230f
8
0-2
6
CONTINUOUS
62
  7
10
5156.730
20
2485.480
30
0.0
40
167.380
50
245.803177
51
298.395081
0
ARC
5
22310
8
0-2
6
CONTINUOUS
62
  7
10
5155.990
20
2488.620
30
0.0
40
155.490
50
242.894867
51
295.792664
0
ARC
5
22311
8
0-2
6
CONTINUOUS
62
  7
10
5416.730
20
2485.480
30
0.0
40
167.380
50
245.803177
51
298.395081
0
ARC
5
22312
8
0-2
6
CONTINUOUS
62
  7
10
5415.990
20
2488.620
30
0.0
40
155.490
50
242.894897
51
295.792664
0
ARC
5
22313
8
0-2
6
CONTINUOUS
62
  7
10
5676.730
20
2485.480
30
0.0
40
167.380
50
245.803101
51
298.395081
0
ARC
5
22314
8
0-2
6
CONTINUOUS
62
  7
10
5675.990
20
2488.620
30
0.0
40
155.490
50
242.894897
51
295.792664
0
ARC
5
22315
8
0-2
6
CONTINUOUS
62
  7
10
5936.730
20
2485.480
30
0.0
40
167.380
50
245.803665
51
298.395081
0
ARC
5
22316
8
0-2
6
CONTINUOUS
62
  7
10
5935.990
20
2488.620
30
0.0
40
155.490
50
242.895432
51
295.792664
0
ARC
5
22317
8
0-2
6
CONTINUOUS
62
  7
10
6196.730
20
2485.480
30
0.0
40
167.380
50
245.803101
51
298.395081
0
ARC
5
22318
8
0-2
6
CONTINUOUS
62
  7
10
6195.990
20
2488.610
30
0.0
40
155.490
50
242.894867
51
295.792664
0
ARC
5
22319
8
0-2
6
CONTINUOUS
62
  7
10
6456.730
20
2485.480
30
0.0
40
167.380
50
245.803101
51
298.395081
0
ARC
5
2231a
8
0-2
6
CONTINUOUS
62
  7
10
6455.990
20
2488.610
30
0.0
40
155.490
50
242.949509
51
295.792664
0
ARC
5
2231b
8
0-2
6
CONTINUOUS
62
  7
10
6716.730
20
2485.480
30
0.0
40
167.380
50
245.802917
51
298.395081
0
ARC
5
2231c
8
0-2
6
CONTINUOUS
62
  7
10
6715.990
20
2488.610
30
0.0
40
155.490
50
242.894699
51
295.792664
0
ARC
5
2231d
8
0-2
6
CONTINUOUS
62
  7
10
6976.730
20
2485.480
30
0.0
40
167.380
50
245.802917
51
298.395081
0
ARC
5
2231e
8
0-2
6
CONTINUOUS
62
  7
10
6975.990
20
2488.610
30
0.0
40
155.490
50
242.949310
51
295.792664
0
ARC
5
2231f
8
0-2
6
CONTINUOUS
62
  7
10
7236.730
20
2485.480
30
0.0
40
167.380
50
245.802917
51
298.395081
0
ARC
5
22320
8
0-2
6
CONTINUOUS
62
  7
10
7235.990
20
2488.610
30
0.0
40
155.490
50
242.894699
51
295.792664
0
ARC
5
22321
8
0-2
6
CONTINUOUS
62
  7
10
7496.730
20
2485.480
30
0.0
40
167.380
50
245.803101
51
298.395081
0
ARC
5
22322
8
0-2
6
CONTINUOUS
62
  7
10
7495.990
20
2488.610
30
0.0
40
155.490
50
242.894730
51
295.792664
0
ARC
5
22323
8
0-2
6
CONTINUOUS
62
  7
10
4512.860
20
3266.670
30
0.0
40
72.890
50
13.791901
51
161.698517
0
ARC
5
22324
8
0-2
6
CONTINUOUS
62
  7
10
4512.860
20
3266.670
30
0.0
40
57.890
50
25.205399
51
167.515991
0
ARC
5
22325
8
0-2
6
CONTINUOUS
62
  7
10
4772.850
20
3266.670
30
0.0
40
72.890
50
13.791901
51
161.698517
0
ARC
5
22326
8
0-2
6
CONTINUOUS
62
  7
10
4772.850
20
3266.670
30
0.0
40
57.890
50
25.205399
51
167.515991
0
ARC
5
22327
8
0-2
6
CONTINUOUS
62
  7
10
5032.850
20
3266.670
30
0.0
40
72.890
50
13.791901
51
161.698517
0
ARC
5
22328
8
0-2
6
CONTINUOUS
62
  7
10
5032.850
20
3266.670
30
0.0
40
57.890
50
25.205399
51
167.515991
0
ARC
5
22329
8
0-2
6
CONTINUOUS
62
  7
10
5292.850
20
3266.670
30
0.0
40
72.890
50
13.791901
51
161.698517
0
ARC
5
2232a
8
0-2
6
CONTINUOUS
62
  7
10
5292.850
20
3266.670
30
0.0
40
57.890
50
25.205399
51
167.515991
0
ARC
5
2232b
8
0-2
6
CONTINUOUS
62
  7
10
5552.850
20
3266.670
30
0.0
40
72.890
50
13.791901
51
161.698517
0
ARC
5
2232c
8
0-2
6
CONTINUOUS
62
  7
10
5552.850
20
3266.670
30
0.0
40
57.890
50
25.205399
51
167.515991
0
ARC
5
2232d
8
0-2
6
CONTINUOUS
62
  7
10
5812.850
20
3266.670
30
0.0
40
72.890
50
13.791901
51
161.698517
0
ARC
5
2232e
8
0-2
6
CONTINUOUS
62
  7
10
5812.850
20
3266.670
30
0.0
40
57.890
50
25.205399
51
167.515991
0
ARC
5
2232f
8
0-2
6
CONTINUOUS
62
  7
10
6072.850
20
3266.670
30
0.0
40
72.890
50
13.791901
51
161.698517
0
ARC
5
22330
8
0-2
6
CONTINUOUS
62
  7
10
6072.850
20
3266.670
30
0.0
40
57.890
50
25.205399
51
167.515991
0
ARC
5
22331
8
0-2
6
CONTINUOUS
62
  7
10
6332.850
20
3266.670
30
0.0
40
72.890
50
13.791901
51
161.698517
0
ARC
5
22332
8
0-2
6
CONTINUOUS
62
  7
10
6332.850
20
3266.670
30
0.0
40
57.890
50
25.205399
51
167.515991
0
ARC
5
22333
8
0-2
6
CONTINUOUS
62
  7
10
6592.850
20
3266.670
30
0.0
40
72.890
50
13.791901
51
161.698517
0
ARC
5
22334
8
0-2
6
CONTINUOUS
62
  7
10
6592.850
20
3266.670
30
0.0
40
57.890
50
25.205399
51
167.515991
0
ARC
5
22335
8
0-2
6
CONTINUOUS
62
  7
10
6852.850
20
3266.670
30
0.0
40
72.890
50
13.791901
51
161.698517
0
ARC
5
22336
8
0-2
6
CONTINUOUS
62
  7
10
6852.850
20
3266.670
30
0.0
40
57.890
50
25.205399
51
167.515991
0
ARC
5
22337
8
0-2
6
CONTINUOUS
62
  7
10
7112.850
20
3266.660
30
0.0
40
72.890
50
13.791901
51
161.698517
0
ARC
5
22338
8
0-2
6
CONTINUOUS
62
  7
10
7112.850
20
3266.660
30
0.0
40
57.890
50
25.205399
51
167.515991
0
ARC
5
22339
8
0-2
6
CONTINUOUS
62
  7
10
7372.850
20
3266.660
30
0.0
40
72.890
50
13.791901
51
161.698517
0
ARC
5
2233a
8
0-2
6
CONTINUOUS
62
  7
10
7372.850
20
3266.660
30
0.0
40
57.890
50
25.205399
51
167.515991
0
ARC
5
2233b
8
0-2
6
CONTINUOUS
62
  7
10
7632.850
20
3266.660
30
0.0
40
72.890
50
13.791901
51
161.698517
0
ARC
5
2233c
8
0-2
6
CONTINUOUS
62
  7
10
7632.850
20
3266.660
30
0.0
40
57.890
50
25.205399
51
167.515991
0
ARC
5
2233d
8
0-2
6
CONTINUOUS
62
  7
10
4376.730
20
3426.420
30
0.0
40
167.380
50
245.111343
51
298.395081
0
ARC
5
2233e
8
0-2
6
CONTINUOUS
62
  7
10
4375.990
20
3429.560
30
0.0
40
155.490
50
242.047699
51
295.792664
0
ARC
5
2233f
8
0-2
6
CONTINUOUS
62
  7
10
7763.650
20
3536.540
30
0.0
40
277.500
50
254.365295
51
285.999725
0
ARC
5
22340
8
0-2
6
CONTINUOUS
62
  7
10
7763.650
20
3652.720
30
0.0
40
373.680
50
257.993408
51
282.317261
0
ARC
5
22341
8
0-2
6
CONTINUOUS
62
  7
10
4636.730
20
3426.420
30
0.0
40
167.380
50
245.803665
51
298.395081
0
ARC
5
22342
8
0-2
6
CONTINUOUS
62
  7
10
4635.990
20
3429.560
30
0.0
40
155.490
50
242.950119
51
295.792664
0
ARC
5
22343
8
0-2
6
CONTINUOUS
62
  7
10
4896.730
20
3426.420
30
0.0
40
167.380
50
245.803177
51
298.395081
0
ARC
5
22344
8
0-2
6
CONTINUOUS
62
  7
10
4895.990
20
3429.560
30
0.0
40
155.490
50
242.894943
51
295.792664
0
ARC
5
22345
8
0-2
6
CONTINUOUS
62
  7
10
5156.730
20
3426.420
30
0.0
40
167.380
50
245.803177
51
298.395081
0
ARC
5
22346
8
0-2
6
CONTINUOUS
62
  7
10
5155.990
20
3429.560
30
0.0
40
155.490
50
242.894867
51
295.792664
0
ARC
5
22347
8
0-2
6
CONTINUOUS
62
  7
10
5416.730
20
3426.420
30
0.0
40
167.380
50
245.803177
51
298.395081
0
ARC
5
22348
8
0-2
6
CONTINUOUS
62
  7
10
5415.990
20
3429.560
30
0.0
40
155.490
50
242.894897
51
295.792664
0
ARC
5
22349
8
0-2
6
CONTINUOUS
62
  7
10
5676.730
20
3426.420
30
0.0
40
167.380
50
245.803101
51
298.395081
0
ARC
5
2234a
8
0-2
6
CONTINUOUS
62
  7
10
5675.990
20
3429.560
30
0.0
40
155.490
50
242.894897
51
295.792664
0
ARC
5
2234b
8
0-2
6
CONTINUOUS
62
  7
10
5936.730
20
3426.420
30
0.0
40
167.380
50
245.803665
51
298.395081
0
ARC
5
2234c
8
0-2
6
CONTINUOUS
62
  7
10
5935.990
20
3429.560
30
0.0
40
155.490
50
242.895432
51
295.792664
0
ARC
5
2234d
8
0-2
6
CONTINUOUS
62
  7
10
6196.730
20
3426.420
30
0.0
40
167.380
50
245.803101
51
298.395081
0
ARC
5
2234e
8
0-2
6
CONTINUOUS
62
  7
10
6195.990
20
3429.560
30
0.0
40
155.490
50
242.894867
51
295.792664
0
ARC
5
2234f
8
0-2
6
CONTINUOUS
62
  7
10
6456.730
20
3426.420
30
0.0
40
167.380
50
245.803101
51
298.395081
0
ARC
5
22350
8
0-2
6
CONTINUOUS
62
  7
10
6455.990
20
3429.560
30
0.0
40
155.490
50
242.949509
51
295.792664
0
ARC
5
22351
8
0-2
6
CONTINUOUS
62
  7
10
6716.730
20
3426.420
30
0.0
40
167.380
50
245.802917
51
298.395081
0
ARC
5
22352
8
0-2
6
CONTINUOUS
62
  7
10
6715.990
20
3429.560
30
0.0
40
155.490
50
242.894699
51
295.792664
0
ARC
5
22353
8
0-2
6
CONTINUOUS
62
  7
10
6976.730
20
3426.420
30
0.0
40
167.380
50
245.802917
51
298.395081
0
ARC
5
22354
8
0-2
6
CONTINUOUS
62
  7
10
6975.990
20
3429.550
30
0.0
40
155.490
50
242.949310
51
295.792664
0
ARC
5
22355
8
0-2
6
CONTINUOUS
62
  7
10
7236.730
20
3426.420
30
0.0
40
167.380
50
245.802917
51
298.395081
0
ARC
5
22356
8
0-2
6
CONTINUOUS
62
  7
10
7235.990
20
3429.550
30
0.0
40
155.490
50
242.894699
51
295.792664
0
ARC
5
22357
8
0-2
6
CONTINUOUS
62
  7
10
7496.730
20
3426.420
30
0.0
40
167.380
50
245.803101
51
298.395081
0
ARC
5
22358
8
0-2
6
CONTINUOUS
62
  7
10
7495.990
20
3429.550
30
0.0
40
155.490
50
242.894730
51
295.792664
0
ARC
5
22359
8
0-2
6
CONTINUOUS
62
  7
10
4512.860
20
3372.120
30
0.0
40
72.890
50
13.791901
51
161.698517
0
ARC
5
2235a
8
0-2
6
CONTINUOUS
62
  7
10
4512.860
20
3372.120
30
0.0
40
57.890
50
25.205399
51
167.515991
0
ARC
5
2235b
8
0-2
6
CONTINUOUS
62
  7
10
4772.850
20
3372.120
30
0.0
40
72.890
50
13.791901
51
161.698517
0
ARC
5
2235c
8
0-2
6
CONTINUOUS
62
  7
10
4772.850
20
3372.120
30
0.0
40
57.890
50
25.205399
51
167.515991
0
ARC
5
2235d
8
0-2
6
CONTINUOUS
62
  7
10
5032.850
20
3372.120
30
0.0
40
72.890
50
13.791901
51
161.698517
0
ARC
5
2235e
8
0-2
6
CONTINUOUS
62
  7
10
5032.850
20
3372.120
30
0.0
40
57.890
50
25.205399
51
167.515991
0
ARC
5
2235f
8
0-2
6
CONTINUOUS
62
  7
10
5292.850
20
3372.120
30
0.0
40
72.890
50
13.791901
51
161.698517
0
ARC
5
22360
8
0-2
6
CONTINUOUS
62
  7
10
5292.850
20
3372.120
30
0.0
40
57.890
50
25.205399
51
167.515991
0
ARC
5
22361
8
0-2
6
CONTINUOUS
62
  7
10
5552.850
20
3372.120
30
0.0
40
72.890
50
13.791901
51
161.698517
0
ARC
5
22362
8
0-2
6
CONTINUOUS
62
  7
10
5552.850
20
3372.120
30
0.0
40
57.890
50
25.205399
51
167.515991
0
ARC
5
22363
8
0-2
6
CONTINUOUS
62
  7
10
5812.850
20
3372.120
30
0.0
40
72.890
50
13.791901
51
161.698517
0
ARC
5
22364
8
0-2
6
CONTINUOUS
62
  7
10
5812.850
20
3372.120
30
0.0
40
57.890
50
25.205399
51
167.515991
0
ARC
5
22365
8
0-2
6
CONTINUOUS
62
  7
10
6072.850
20
3372.120
30
0.0
40
72.890
50
13.791901
51
161.698517
0
ARC
5
22366
8
0-2
6
CONTINUOUS
62
  7
10
6072.850
20
3372.120
30
0.0
40
57.890
50
25.205399
51
167.515991
0
ARC
5
22367
8
0-2
6
CONTINUOUS
62
  7
10
6332.850
20
3372.120
30
0.0
40
72.890
50
13.791901
51
161.698517
0
ARC
5
22368
8
0-2
6
CONTINUOUS
62
  7
10
6332.850
20
3372.120
30
0.0
40
57.890
50
25.205399
51
167.515991
0
ARC
5
22369
8
0-2
6
CONTINUOUS
62
  7
10
6592.850
20
3372.120
30
0.0
40
72.890
50
13.791901
51
161.698517
0
ARC
5
2236a
8
0-2
6
CONTINUOUS
62
  7
10
6592.850
20
3372.120
30
0.0
40
57.890
50
25.205399
51
167.515991
0
ARC
5
2236b
8
0-2
6
CONTINUOUS
62
  7
10
6852.850
20
3372.120
30
0.0
40
72.890
50
13.791901
51
161.698517
0
ARC
5
2236c
8
0-2
6
CONTINUOUS
62
  7
10
6852.850
20
3372.120
30
0.0
40
57.890
50
25.205399
51
167.515991
0
ARC
5
2236d
8
0-2
6
CONTINUOUS
62
  7
10
7112.850
20
3372.120
30
0.0
40
72.890
50
13.791901
51
161.698517
0
ARC
5
2236e
8
0-2
6
CONTINUOUS
62
  7
10
7112.850
20
3372.120
30
0.0
40
57.890
50
25.205399
51
167.515991
0
ARC
5
2236f
8
0-2
6
CONTINUOUS
62
  7
10
7372.850
20
3372.120
30
0.0
40
72.890
50
13.791901
51
161.698517
0
ARC
5
22370
8
0-2
6
CONTINUOUS
62
  7
10
7372.850
20
3372.120
30
0.0
40
57.890
50
25.205399
51
167.515991
0
ARC
5
22371
8
0-2
6
CONTINUOUS
62
  7
10
7632.850
20
3372.120
30
0.0
40
72.890
50
13.791901
51
161.698517
0
ARC
5
22372
8
0-2
6
CONTINUOUS
62
  7
10
7632.850
20
3372.120
30
0.0
40
57.890
50
25.205399
51
167.515991
0
ARC
5
22373
8
0-2
6
CONTINUOUS
62
  7
10
4376.730
20
3531.880
30
0.0
40
167.380
50
245.111343
51
298.395081
0
ARC
5
22374
8
0-2
6
CONTINUOUS
62
  7
10
4375.990
20
3535.010
30
0.0
40
155.490
50
242.047699
51
295.792664
0
ARC
5
22375
8
0-2
6
CONTINUOUS
62
  7
10
7763.650
20
3642.000
30
0.0
40
277.500
50
254.365295
51
285.999725
0
ARC
5
22376
8
0-2
6
CONTINUOUS
62
  7
10
7763.650
20
3758.180
30
0.0
40
373.680
50
257.993408
51
282.317261
0
ARC
5
22377
8
0-2
6
CONTINUOUS
62
  7
10
4636.730
20
3531.880
30
0.0
40
167.380
50
245.803665
51
298.395081
0
ARC
5
22378
8
0-2
6
CONTINUOUS
62
  7
10
4635.990
20
3535.010
30
0.0
40
155.490
50
242.950119
51
295.792664
0
ARC
5
22379
8
0-2
6
CONTINUOUS
62
  7
10
4896.730
20
3531.880
30
0.0
40
167.380
50
245.803177
51
298.395081
0
ARC
5
2237a
8
0-2
6
CONTINUOUS
62
  7
10
4895.990
20
3535.010
30
0.0
40
155.490
50
242.894943
51
295.792664
0
ARC
5
2237b
8
0-2
6
CONTINUOUS
62
  7
10
5156.730
20
3531.870
30
0.0
40
167.380
50
245.803177
51
298.395081
0
ARC
5
2237c
8
0-2
6
CONTINUOUS
62
  7
10
5155.990
20
3535.010
30
0.0
40
155.490
50
242.894867
51
295.792664
0
ARC
5
2237d
8
0-2
6
CONTINUOUS
62
  7
10
5416.730
20
3531.870
30
0.0
40
167.380
50
245.803177
51
298.395081
0
ARC
5
2237e
8
0-2
6
CONTINUOUS
62
  7
10
5415.990
20
3535.010
30
0.0
40
155.490
50
242.894897
51
295.792664
0
ARC
5
2237f
8
0-2
6
CONTINUOUS
62
  7
10
5676.730
20
3531.870
30
0.0
40
167.380
50
245.803101
51
298.395081
0
ARC
5
22380
8
0-2
6
CONTINUOUS
62
  7
10
5675.990
20
3535.010
30
0.0
40
155.490
50
242.894897
51
295.792664
0
ARC
5
22381
8
0-2
6
CONTINUOUS
62
  7
10
5936.730
20
3531.870
30
0.0
40
167.380
50
245.803665
51
298.395081
0
ARC
5
22382
8
0-2
6
CONTINUOUS
62
  7
10
5935.990
20
3535.010
30
0.0
40
155.490
50
242.895432
51
295.792664
0
ARC
5
22383
8
0-2
6
CONTINUOUS
62
  7
10
6196.730
20
3531.870
30
0.0
40
167.380
50
245.803101
51
298.395081
0
ARC
5
22384
8
0-2
6
CONTINUOUS
62
  7
10
6195.990
20
3535.010
30
0.0
40
155.490
50
242.894867
51
295.792664
0
ARC
5
22385
8
0-2
6
CONTINUOUS
62
  7
10
6456.730
20
3531.870
30
0.0
40
167.380
50
245.803101
51
298.395081
0
ARC
5
22386
8
0-2
6
CONTINUOUS
62
  7
10
6455.990
20
3535.010
30
0.0
40
155.490
50
242.949509
51
295.792664
0
ARC
5
22387
8
0-2
6
CONTINUOUS
62
  7
10
6716.730
20
3531.870
30
0.0
40
167.380
50
245.802917
51
298.395081
0
ARC
5
22388
8
0-2
6
CONTINUOUS
62
  7
10
6715.990
20
3535.010
30
0.0
40
155.490
50
242.894699
51
295.792664
0
ARC
5
22389
8
0-2
6
CONTINUOUS
62
  7
10
6976.730
20
3531.870
30
0.0
40
167.380
50
245.802917
51
298.395081
0
ARC
5
2238a
8
0-2
6
CONTINUOUS
62
  7
10
6975.990
20
3535.010
30
0.0
40
155.490
50
242.949310
51
295.792664
0
ARC
5
2238b
8
0-2
6
CONTINUOUS
62
  7
10
7236.730
20
3531.870
30
0.0
40
167.380
50
245.802917
51
298.395081
0
ARC
5
2238c
8
0-2
6
CONTINUOUS
62
  7
10
7235.990
20
3535.010
30
0.0
40
155.490
50
242.894699
51
295.792664
0
ARC
5
2238d
8
0-2
6
CONTINUOUS
62
  7
10
7496.730
20
3531.870
30
0.0
40
167.380
50
245.803101
51
298.395081
0
ARC
5
2238e
8
0-2
6
CONTINUOUS
62
  7
10
7495.990
20
3535.010
30
0.0
40
155.490
50
242.894730
51
295.792664
0
ARC
5
2238f
8
0-2
6
CONTINUOUS
62
  7
10
4512.860
20
2430.280
30
0.0
40
72.890
50
13.791901
51
161.698517
0
ARC
5
22390
8
0-2
6
CONTINUOUS
62
  7
10
4512.860
20
2430.280
30
0.0
40
57.890
50
25.205399
51
167.515991
0
ARC
5
22391
8
0-2
6
CONTINUOUS
62
  7
10
4772.850
20
2430.280
30
0.0
40
72.890
50
13.791901
51
161.698517
0
ARC
5
22392
8
0-2
6
CONTINUOUS
62
  7
10
4772.850
20
2430.280
30
0.0
40
57.890
50
25.205399
51
167.515991
0
ARC
5
22393
8
0-2
6
CONTINUOUS
62
  7
10
5032.850
20
2430.280
30
0.0
40
72.890
50
13.791901
51
161.698517
0
ARC
5
22394
8
0-2
6
CONTINUOUS
62
  7
10
5032.850
20
2430.280
30
0.0
40
57.890
50
25.205399
51
167.515991
0
ARC
5
22395
8
0-2
6
CONTINUOUS
62
  7
10
5292.850
20
2430.270
30
0.0
40
72.890
50
13.791901
51
161.698517
0
ARC
5
22396
8
0-2
6
CONTINUOUS
62
  7
10
5292.850
20
2430.270
30
0.0
40
57.890
50
25.205399
51
167.515991
0
ARC
5
22397
8
0-2
6
CONTINUOUS
62
  7
10
5552.850
20
2430.270
30
0.0
40
72.890
50
13.791901
51
161.698517
0
ARC
5
22398
8
0-2
6
CONTINUOUS
62
  7
10
5552.850
20
2430.270
30
0.0
40
57.890
50
25.205399
51
167.515991
0
ARC
5
22399
8
0-2
6
CONTINUOUS
62
  7
10
5812.850
20
2430.270
30
0.0
40
72.890
50
13.791901
51
161.698517
0
ARC
5
2239a
8
0-2
6
CONTINUOUS
62
  7
10
5812.850
20
2430.270
30
0.0
40
57.890
50
25.205399
51
167.515991
0
ARC
5
2239b
8
0-2
6
CONTINUOUS
62
  7
10
6072.850
20
2430.270
30
0.0
40
72.890
50
13.791901
51
161.698517
0
ARC
5
2239c
8
0-2
6
CONTINUOUS
62
  7
10
6072.850
20
2430.270
30
0.0
40
57.890
50
25.205399
51
167.515991
0
ARC
5
2239d
8
0-2
6
CONTINUOUS
62
  7
10
6332.850
20
2430.270
30
0.0
40
72.890
50
13.791901
51
161.698517
0
ARC
5
2239e
8
0-2
6
CONTINUOUS
62
  7
10
6332.850
20
2430.270
30
0.0
40
57.890
50
25.205399
51
167.515991
0
ARC
5
2239f
8
0-2
6
CONTINUOUS
62
  7
10
6592.850
20
2430.270
30
0.0
40
72.890
50
13.791901
51
161.698517
0
ARC
5
223a0
8
0-2
6
CONTINUOUS
62
  7
10
6592.850
20
2430.270
30
0.0
40
57.890
50
25.205399
51
167.515991
0
ARC
5
223a1
8
0-2
6
CONTINUOUS
62
  7
10
6852.850
20
2430.270
30
0.0
40
72.890
50
13.791901
51
161.698517
0
ARC
5
223a2
8
0-2
6
CONTINUOUS
62
  7
10
6852.850
20
2430.270
30
0.0
40
57.890
50
25.205399
51
167.515991
0
ARC
5
223a3
8
0-2
6
CONTINUOUS
62
  7
10
7112.850
20
2430.270
30
0.0
40
72.890
50
13.791901
51
161.698517
0
ARC
5
223a4
8
0-2
6
CONTINUOUS
62
  7
10
7112.850
20
2430.270
30
0.0
40
57.890
50
25.205399
51
167.515991
0
ARC
5
223a5
8
0-2
6
CONTINUOUS
62
  7
10
7372.850
20
2430.270
30
0.0
40
72.890
50
13.791901
51
161.698517
0
ARC
5
223a6
8
0-2
6
CONTINUOUS
62
  7
10
7372.850
20
2430.270
30
0.0
40
57.890
50
25.205399
51
167.515991
0
ARC
5
223a7
8
0-2
6
CONTINUOUS
62
  7
10
7632.850
20
2430.270
30
0.0
40
72.890
50
13.791901
51
161.698517
0
ARC
5
223a8
8
0-2
6
CONTINUOUS
62
  7
10
7632.850
20
2430.270
30
0.0
40
57.890
50
25.205399
51
167.515991
0
ARC
5
223a9
8
0-2
6
CONTINUOUS
62
  7
10
4376.730
20
2590.030
30
0.0
40
167.380
50
245.111343
51
298.395081
0
ARC
5
223aa
8
0-2
6
CONTINUOUS
62
  7
10
4375.990
20
2593.170
30
0.0
40
155.490
50
242.047699
51
295.792664
0
ARC
5
223ab
8
0-2
6
CONTINUOUS
62
  7
10
7763.650
20
2700.150
30
0.0
40
277.500
50
254.365295
51
285.999725
0
ARC
5
223ac
8
0-2
6
CONTINUOUS
62
  7
10
7763.650
20
2816.330
30
0.0
40
373.680
50
257.993408
51
282.317261
0
ARC
5
223ad
8
0-2
6
CONTINUOUS
62
  7
10
4636.730
20
2590.030
30
0.0
40
167.380
50
245.803665
51
298.395081
0
ARC
5
223ae
8
0-2
6
CONTINUOUS
62
  7
10
4635.990
20
2593.170
30
0.0
40
155.490
50
242.950119
51
295.792664
0
ARC
5
223af
8
0-2
6
CONTINUOUS
62
  7
10
4896.730
20
2590.030
30
0.0
40
167.380
50
245.803177
51
298.395081
0
ARC
5
223b0
8
0-2
6
CONTINUOUS
62
  7
10
4895.990
20
2593.170
30
0.0
40
155.490
50
242.894943
51
295.792664
0
ARC
5
223b1
8
0-2
6
CONTINUOUS
62
  7
10
5156.730
20
2590.030
30
0.0
40
167.380
50
245.803177
51
298.395081
0
ARC
5
223b2
8
0-2
6
CONTINUOUS
62
  7
10
5155.990
20
2593.160
30
0.0
40
155.490
50
242.894867
51
295.792664
0
ARC
5
223b3
8
0-2
6
CONTINUOUS
62
  7
10
5416.730
20
2590.030
30
0.0
40
167.380
50
245.803177
51
298.395081
0
ARC
5
223b4
8
0-2
6
CONTINUOUS
62
  7
10
5415.990
20
2593.160
30
0.0
40
155.490
50
242.894897
51
295.792664
0
ARC
5
223b5
8
0-2
6
CONTINUOUS
62
  7
10
5676.730
20
2590.030
30
0.0
40
167.380
50
245.803101
51
298.395081
0
ARC
5
223b6
8
0-2
6
CONTINUOUS
62
  7
10
5675.990
20
2593.160
30
0.0
40
155.490
50
242.894897
51
295.792664
0
ARC
5
223b7
8
0-2
6
CONTINUOUS
62
  7
10
5936.730
20
2590.030
30
0.0
40
167.380
50
245.803665
51
298.395081
0
ARC
5
223b8
8
0-2
6
CONTINUOUS
62
  7
10
5935.990
20
2593.160
30
0.0
40
155.490
50
242.895432
51
295.792664
0
ARC
5
223b9
8
0-2
6
CONTINUOUS
62
  7
10
6196.730
20
2590.030
30
0.0
40
167.380
50
245.803101
51
298.395081
0
ARC
5
223ba
8
0-2
6
CONTINUOUS
62
  7
10
6195.990
20
2593.160
30
0.0
40
155.490
50
242.894867
51
295.792664
0
ARC
5
223bb
8
0-2
6
CONTINUOUS
62
  7
10
6456.730
20
2590.030
30
0.0
40
167.380
50
245.803101
51
298.395081
0
ARC
5
223bc
8
0-2
6
CONTINUOUS
62
  7
10
6455.990
20
2593.160
30
0.0
40
155.490
50
242.949509
51
295.792664
0
ARC
5
223bd
8
0-2
6
CONTINUOUS
62
  7
10
6716.730
20
2590.030
30
0.0
40
167.380
50
245.802917
51
298.395081
0
ARC
5
223be
8
0-2
6
CONTINUOUS
62
  7
10
6715.990
20
2593.160
30
0.0
40
155.490
50
242.894699
51
295.792664
0
ARC
5
223bf
8
0-2
6
CONTINUOUS
62
  7
10
6976.730
20
2590.030
30
0.0
40
167.380
50
245.802917
51
298.395081
0
ARC
5
223c0
8
0-2
6
CONTINUOUS
62
  7
10
6975.990
20
2593.160
30
0.0
40
155.490
50
242.949310
51
295.792664
0
ARC
5
223c1
8
0-2
6
CONTINUOUS
62
  7
10
7236.730
20
2590.030
30
0.0
40
167.380
50
245.802917
51
298.395081
0
ARC
5
223c2
8
0-2
6
CONTINUOUS
62
  7
10
7235.990
20
2593.160
30
0.0
40
155.490
50
242.894699
51
295.792664
0
ARC
5
223c3
8
0-2
6
CONTINUOUS
62
  7
10
7496.730
20
2590.030
30
0.0
40
167.380
50
245.803101
51
298.395081
0
ARC
5
223c4
8
0-2
6
CONTINUOUS
62
  7
10
7495.990
20
2593.160
30
0.0
40
155.490
50
242.894730
51
295.792664
0
ARC
5
223c5
8
0-2
6
CONTINUOUS
62
  7
10
4512.860
20
2534.820
30
0.0
40
72.890
50
13.791901
51
161.698517
0
ARC
5
223c6
8
0-2
6
CONTINUOUS
62
  7
10
4512.860
20
2534.820
30
0.0
40
57.890
50
25.205399
51
167.515991
0
ARC
5
223c7
8
0-2
6
CONTINUOUS
62
  7
10
4772.850
20
2534.820
30
0.0
40
72.890
50
13.791901
51
161.698517
0
ARC
5
223c8
8
0-2
6
CONTINUOUS
62
  7
10
4772.850
20
2534.820
30
0.0
40
57.890
50
25.205399
51
167.515991
0
ARC
5
223c9
8
0-2
6
CONTINUOUS
62
  7
10
5032.850
20
2534.820
30
0.0
40
72.890
50
13.791901
51
161.698517
0
ARC
5
223ca
8
0-2
6
CONTINUOUS
62
  7
10
5032.850
20
2534.820
30
0.0
40
57.890
50
25.205399
51
167.515991
0
ARC
5
223cb
8
0-2
6
CONTINUOUS
62
  7
10
5292.850
20
2534.820
30
0.0
40
72.890
50
13.791901
51
161.698517
0
ARC
5
223cc
8
0-2
6
CONTINUOUS
62
  7
10
5292.850
20
2534.820
30
0.0
40
57.890
50
25.205399
51
167.515991
0
ARC
5
223cd
8
0-2
6
CONTINUOUS
62
  7
10
5552.850
20
2534.820
30
0.0
40
72.890
50
13.791901
51
161.698517
0
ARC
5
223ce
8
0-2
6
CONTINUOUS
62
  7
10
5552.850
20
2534.820
30
0.0
40
57.890
50
25.205399
51
167.515991
0
ARC
5
223cf
8
0-2
6
CONTINUOUS
62
  7
10
5812.850
20
2534.820
30
0.0
40
72.890
50
13.791901
51
161.698517
0
ARC
5
223d0
8
0-2
6
CONTINUOUS
62
  7
10
5812.850
20
2534.820
30
0.0
40
57.890
50
25.205399
51
167.515991
0
ARC
5
223d1
8
0-2
6
CONTINUOUS
62
  7
10
6072.850
20
2534.820
30
0.0
40
72.890
50
13.791901
51
161.698517
0
ARC
5
223d2
8
0-2
6
CONTINUOUS
62
  7
10
6072.850
20
2534.820
30
0.0
40
57.890
50
25.205399
51
167.515991
0
ARC
5
223d3
8
0-2
6
CONTINUOUS
62
  7
10
6332.850
20
2534.820
30
0.0
40
72.890
50
13.791901
51
161.698517
0
ARC
5
223d4
8
0-2
6
CONTINUOUS
62
  7
10
6332.850
20
2534.820
30
0.0
40
57.890
50
25.205399
51
167.515991
0
ARC
5
223d5
8
0-2
6
CONTINUOUS
62
  7
10
6592.850
20
2534.820
30
0.0
40
72.890
50
13.791901
51
161.698517
0
ARC
5
223d6
8
0-2
6
CONTINUOUS
62
  7
10
6592.850
20
2534.820
30
0.0
40
57.890
50
25.205399
51
167.515991
0
ARC
5
223d7
8
0-2
6
CONTINUOUS
62
  7
10
6852.850
20
2534.820
30
0.0
40
72.890
50
13.791901
51
161.698517
0
ARC
5
223d8
8
0-2
6
CONTINUOUS
62
  7
10
6852.850
20
2534.820
30
0.0
40
57.890
50
25.205399
51
167.515991
0
ARC
5
223d9
8
0-2
6
CONTINUOUS
62
  7
10
7112.850
20
2534.820
30
0.0
40
72.890
50
13.791901
51
161.698517
0
ARC
5
223da
8
0-2
6
CONTINUOUS
62
  7
10
7112.850
20
2534.820
30
0.0
40
57.890
50
25.205399
51
167.515991
0
ARC
5
223db
8
0-2
6
CONTINUOUS
62
  7
10
7372.850
20
2534.820
30
0.0
40
72.890
50
13.791901
51
161.698517
0
ARC
5
223dc
8
0-2
6
CONTINUOUS
62
  7
10
7372.850
20
2534.820
30
0.0
40
57.890
50
25.205399
51
167.515991
0
ARC
5
223dd
8
0-2
6
CONTINUOUS
62
  7
10
7632.850
20
2534.820
30
0.0
40
72.890
50
13.791901
51
161.698517
0
ARC
5
223de
8
0-2
6
CONTINUOUS
62
  7
10
7632.850
20
2534.820
30
0.0
40
57.890
50
25.205399
51
167.515991
0
ARC
5
223df
8
0-2
6
CONTINUOUS
62
  7
10
4376.730
20
2694.580
30
0.0
40
167.380
50
245.111343
51
298.395081
0
ARC
5
223e0
8
0-2
6
CONTINUOUS
62
  7
10
4375.990
20
2697.710
30
0.0
40
155.490
50
242.047699
51
295.792664
0
ARC
5
223e1
8
0-2
6
CONTINUOUS
62
  7
10
7763.650
20
2804.700
30
0.0
40
277.500
50
254.365295
51
285.999725
0
ARC
5
223e2
8
0-2
6
CONTINUOUS
62
  7
10
7763.650
20
2920.880
30
0.0
40
373.680
50
257.993408
51
282.317261
0
ARC
5
223e3
8
0-2
6
CONTINUOUS
62
  7
10
4636.730
20
2694.580
30
0.0
40
167.380
50
245.803665
51
298.395081
0
ARC
5
223e4
8
0-2
6
CONTINUOUS
62
  7
10
4635.990
20
2697.710
30
0.0
40
155.490
50
242.950119
51
295.792664
0
ARC
5
223e5
8
0-2
6
CONTINUOUS
62
  7
10
4896.730
20
2694.580
30
0.0
40
167.380
50
245.803177
51
298.395081
0
ARC
5
223e6
8
0-2
6
CONTINUOUS
62
  7
10
4895.990
20
2697.710
30
0.0
40
155.490
50
242.894943
51
295.792664
0
ARC
5
223e7
8
0-2
6
CONTINUOUS
62
  7
10
5156.730
20
2694.580
30
0.0
40
167.380
50
245.803177
51
298.395081
0
ARC
5
223e8
8
0-2
6
CONTINUOUS
62
  7
10
5155.990
20
2697.710
30
0.0
40
155.490
50
242.894867
51
295.792664
0
ARC
5
223e9
8
0-2
6
CONTINUOUS
62
  7
10
5416.730
20
2694.580
30
0.0
40
167.380
50
245.803177
51
298.395081
0
ARC
5
223ea
8
0-2
6
CONTINUOUS
62
  7
10
5415.990
20
2697.710
30
0.0
40
155.490
50
242.894897
51
295.792664
0
ARC
5
223eb
8
0-2
6
CONTINUOUS
62
  7
10
5676.730
20
2694.580
30
0.0
40
167.380
50
245.803101
51
298.395081
0
ARC
5
223ec
8
0-2
6
CONTINUOUS
62
  7
10
5675.990
20
2697.710
30
0.0
40
155.490
50
242.894897
51
295.792664
0
ARC
5
223ed
8
0-2
6
CONTINUOUS
62
  7
10
5936.730
20
2694.580
30
0.0
40
167.380
50
245.803665
51
298.395081
0
ARC
5
223ee
8
0-2
6
CONTINUOUS
62
  7
10
5935.990
20
2697.710
30
0.0
40
155.490
50
242.895432
51
295.792664
0
ARC
5
223ef
8
0-2
6
CONTINUOUS
62
  7
10
6196.730
20
2694.580
30
0.0
40
167.380
50
245.803101
51
298.395081
0
ARC
5
223f0
8
0-2
6
CONTINUOUS
62
  7
10
6195.990
20
2697.710
30
0.0
40
155.490
50
242.894867
51
295.792664
0
ARC
5
223f1
8
0-2
6
CONTINUOUS
62
  7
10
6456.730
20
2694.580
30
0.0
40
167.380
50
245.803101
51
298.395081
0
ARC
5
223f2
8
0-2
6
CONTINUOUS
62
  7
10
6455.990
20
2697.710
30
0.0
40
155.490
50
242.949509
51
295.792664
0
ARC
5
223f3
8
0-2
6
CONTINUOUS
62
  7
10
6716.730
20
2694.580
30
0.0
40
167.380
50
245.802917
51
298.395081
0
ARC
5
223f4
8
0-2
6
CONTINUOUS
62
  7
10
6715.990
20
2697.710
30
0.0
40
155.490
50
242.894699
51
295.792664
0
ARC
5
223f5
8
0-2
6
CONTINUOUS
62
  7
10
6976.730
20
2694.580
30
0.0
40
167.380
50
245.802917
51
298.395081
0
ARC
5
223f6
8
0-2
6
CONTINUOUS
62
  7
10
6975.990
20
2697.710
30
0.0
40
155.490
50
242.949310
51
295.792664
0
ARC
5
223f7
8
0-2
6
CONTINUOUS
62
  7
10
7236.730
20
2694.570
30
0.0
40
167.380
50
245.802917
51
298.395081
0
ARC
5
223f8
8
0-2
6
CONTINUOUS
62
  7
10
7235.990
20
2697.710
30
0.0
40
155.490
50
242.894699
51
295.792664
0
ARC
5
223f9
8
0-2
6
CONTINUOUS
62
  7
10
7496.730
20
2694.570
30
0.0
40
167.380
50
245.803101
51
298.395081
0
ARC
5
223fa
8
0-2
6
CONTINUOUS
62
  7
10
7495.990
20
2697.710
30
0.0
40
155.490
50
242.894730
51
295.792664
0
ARC
5
223fb
8
0-2
6
CONTINUOUS
62
  7
10
4512.860
20
2639.370
30
0.0
40
72.890
50
13.791901
51
161.698517
0
ARC
5
223fc
8
0-2
6
CONTINUOUS
62
  7
10
4512.860
20
2639.370
30
0.0
40
57.890
50
25.205399
51
167.515991
0
ARC
5
223fd
8
0-2
6
CONTINUOUS
62
  7
10
4772.850
20
2639.370
30
0.0
40
72.890
50
13.791901
51
161.698517
0
ARC
5
223fe
8
0-2
6
CONTINUOUS
62
  7
10
4772.850
20
2639.370
30
0.0
40
57.890
50
25.205399
51
167.515991
0
ARC
5
223ff
8
0-2
6
CONTINUOUS
62
  7
10
5032.850
20
2639.370
30
0.0
40
72.890
50
13.791901
51
161.698517
0
ARC
5
22400
8
0-2
6
CONTINUOUS
62
  7
10
5032.850
20
2639.370
30
0.0
40
57.890
50
25.205399
51
167.515991
0
ARC
5
22401
8
0-2
6
CONTINUOUS
62
  7
10
5292.850
20
2639.370
30
0.0
40
72.890
50
13.791901
51
161.698517
0
ARC
5
22402
8
0-2
6
CONTINUOUS
62
  7
10
5292.850
20
2639.370
30
0.0
40
57.890
50
25.205399
51
167.515991
0
ARC
5
22403
8
0-2
6
CONTINUOUS
62
  7
10
5552.850
20
2639.370
30
0.0
40
72.890
50
13.791901
51
161.698517
0
ARC
5
22404
8
0-2
6
CONTINUOUS
62
  7
10
5552.850
20
2639.370
30
0.0
40
57.890
50
25.205399
51
167.515991
0
ARC
5
22405
8
0-2
6
CONTINUOUS
62
  7
10
5812.850
20
2639.370
30
0.0
40
72.890
50
13.791901
51
161.698517
0
ARC
5
22406
8
0-2
6
CONTINUOUS
62
  7
10
5812.850
20
2639.370
30
0.0
40
57.890
50
25.205399
51
167.515991
0
ARC
5
22407
8
0-2
6
CONTINUOUS
62
  7
10
6072.850
20
2639.370
30
0.0
40
72.890
50
13.791901
51
161.698517
0
ARC
5
22408
8
0-2
6
CONTINUOUS
62
  7
10
6072.850
20
2639.370
30
0.0
40
57.890
50
25.205399
51
167.515991
0
ARC
5
22409
8
0-2
6
CONTINUOUS
62
  7
10
6332.850
20
2639.370
30
0.0
40
72.890
50
13.791901
51
161.698517
0
ARC
5
2240a
8
0-2
6
CONTINUOUS
62
  7
10
6332.850
20
2639.370
30
0.0
40
57.890
50
25.205399
51
167.515991
0
ARC
5
2240b
8
0-2
6
CONTINUOUS
62
  7
10
6592.850
20
2639.370
30
0.0
40
72.890
50
13.791901
51
161.698517
0
ARC
5
2240c
8
0-2
6
CONTINUOUS
62
  7
10
6592.850
20
2639.370
30
0.0
40
57.890
50
25.205399
51
167.515991
0
ARC
5
2240d
8
0-2
6
CONTINUOUS
62
  7
10
6852.850
20
2639.370
30
0.0
40
72.890
50
13.791901
51
161.698517
0
ARC
5
2240e
8
0-2
6
CONTINUOUS
62
  7
10
6852.850
20
2639.370
30
0.0
40
57.890
50
25.205399
51
167.515991
0
ARC
5
2240f
8
0-2
6
CONTINUOUS
62
  7
10
7112.850
20
2639.370
30
0.0
40
72.890
50
13.791901
51
161.698517
0
ARC
5
22410
8
0-2
6
CONTINUOUS
62
  7
10
7112.850
20
2639.370
30
0.0
40
57.890
50
25.205399
51
167.515991
0
ARC
5
22411
8
0-2
6
CONTINUOUS
62
  7
10
7372.850
20
2639.370
30
0.0
40
72.890
50
13.791901
51
161.698517
0
ARC
5
22412
8
0-2
6
CONTINUOUS
62
  7
10
7372.850
20
2639.370
30
0.0
40
57.890
50
25.205399
51
167.515991
0
ARC
5
22413
8
0-2
6
CONTINUOUS
62
  7
10
7632.850
20
2639.370
30
0.0
40
72.890
50
13.791901
51
161.698517
0
ARC
5
22414
8
0-2
6
CONTINUOUS
62
  7
10
7632.850
20
2639.370
30
0.0
40
57.890
50
25.205399
51
167.515991
0
ARC
5
22415
8
0-2
6
CONTINUOUS
62
  7
10
4376.730
20
2799.130
30
0.0
40
167.380
50
245.111343
51
298.395081
0
ARC
5
22416
8
0-2
6
CONTINUOUS
62
  7
10
4375.990
20
2802.260
30
0.0
40
155.490
50
242.047699
51
295.792664
0
ARC
5
22417
8
0-2
6
CONTINUOUS
62
  7
10
7763.650
20
2909.250
30
0.0
40
277.500
50
254.365295
51
285.999725
0
ARC
5
22418
8
0-2
6
CONTINUOUS
62
  7
10
7763.650
20
3025.430
30
0.0
40
373.680
50
257.993408
51
282.317261
0
ARC
5
22419
8
0-2
6
CONTINUOUS
62
  7
10
4636.730
20
2799.130
30
0.0
40
167.380
50
245.803665
51
298.395081
0
ARC
5
2241a
8
0-2
6
CONTINUOUS
62
  7
10
4635.990
20
2802.260
30
0.0
40
155.490
50
242.950119
51
295.792664
0
ARC
5
2241b
8
0-2
6
CONTINUOUS
62
  7
10
4896.730
20
2799.130
30
0.0
40
167.380
50
245.803177
51
298.395081
0
ARC
5
2241c
8
0-2
6
CONTINUOUS
62
  7
10
4895.990
20
2802.260
30
0.0
40
155.490
50
242.894943
51
295.792664
0
ARC
5
2241d
8
0-2
6
CONTINUOUS
62
  7
10
5156.730
20
2799.130
30
0.0
40
167.380
50
245.803177
51
298.395081
0
ARC
5
2241e
8
0-2
6
CONTINUOUS
62
  7
10
5155.990
20
2802.260
30
0.0
40
155.490
50
242.894867
51
295.792664
0
ARC
5
2241f
8
0-2
6
CONTINUOUS
62
  7
10
5416.730
20
2799.130
30
0.0
40
167.380
50
245.803177
51
298.395081
0
ARC
5
22420
8
0-2
6
CONTINUOUS
62
  7
10
5415.990
20
2802.260
30
0.0
40
155.490
50
242.894897
51
295.792664
0
ARC
5
22421
8
0-2
6
CONTINUOUS
62
  7
10
5676.730
20
2799.130
30
0.0
40
167.380
50
245.803101
51
298.395081
0
ARC
5
22422
8
0-2
6
CONTINUOUS
62
  7
10
5675.990
20
2802.260
30
0.0
40
155.490
50
242.894897
51
295.792664
0
ARC
5
22423
8
0-2
6
CONTINUOUS
62
  7
10
5936.730
20
2799.130
30
0.0
40
167.380
50
245.803665
51
298.395081
0
ARC
5
22424
8
0-2
6
CONTINUOUS
62
  7
10
5935.990
20
2802.260
30
0.0
40
155.490
50
242.895432
51
295.792664
0
ARC
5
22425
8
0-2
6
CONTINUOUS
62
  7
10
6196.730
20
2799.130
30
0.0
40
167.380
50
245.803101
51
298.395081
0
ARC
5
22426
8
0-2
6
CONTINUOUS
62
  7
10
6195.990
20
2802.260
30
0.0
40
155.490
50
242.894867
51
295.792664
0
ARC
5
22427
8
0-2
6
CONTINUOUS
62
  7
10
6456.730
20
2799.130
30
0.0
40
167.380
50
245.803101
51
298.395081
0
ARC
5
22428
8
0-2
6
CONTINUOUS
62
  7
10
6455.990
20
2802.260
30
0.0
40
155.490
50
242.949509
51
295.792664
0
ARC
5
22429
8
0-2
6
CONTINUOUS
62
  7
10
6716.730
20
2799.130
30
0.0
40
167.380
50
245.802917
51
298.395081
0
ARC
5
2242a
8
0-2
6
CONTINUOUS
62
  7
10
6715.990
20
2802.260
30
0.0
40
155.490
50
242.894699
51
295.792664
0
ARC
5
2242b
8
0-2
6
CONTINUOUS
62
  7
10
6976.730
20
2799.120
30
0.0
40
167.380
50
245.802917
51
298.395081
0
ARC
5
2242c
8
0-2
6
CONTINUOUS
62
  7
10
6975.990
20
2802.260
30
0.0
40
155.490
50
242.949310
51
295.792664
0
ARC
5
2242d
8
0-2
6
CONTINUOUS
62
  7
10
7236.730
20
2799.120
30
0.0
40
167.380
50
245.802917
51
298.395081
0
ARC
5
2242e
8
0-2
6
CONTINUOUS
62
  7
10
7235.990
20
2802.260
30
0.0
40
155.490
50
242.894699
51
295.792664
0
ARC
5
2242f
8
0-2
6
CONTINUOUS
62
  7
10
7496.730
20
2799.120
30
0.0
40
167.380
50
245.803101
51
298.395081
0
ARC
5
22430
8
0-2
6
CONTINUOUS
62
  7
10
7495.990
20
2802.260
30
0.0
40
155.490
50
242.894730
51
295.792664
0
ARC
5
22431
8
0-2
6
CONTINUOUS
62
  7
10
4512.860
20
2743.920
30
0.0
40
72.890
50
13.791901
51
161.698517
0
ARC
5
22432
8
0-2
6
CONTINUOUS
62
  7
10
4512.860
20
2743.920
30
0.0
40
57.890
50
25.205399
51
167.515991
0
ARC
5
22433
8
0-2
6
CONTINUOUS
62
  7
10
4772.850
20
2743.920
30
0.0
40
72.890
50
13.791901
51
161.698517
0
ARC
5
22434
8
0-2
6
CONTINUOUS
62
  7
10
4772.850
20
2743.920
30
0.0
40
57.890
50
25.205399
51
167.515991
0
ARC
5
22435
8
0-2
6
CONTINUOUS
62
  7
10
5032.850
20
2743.920
30
0.0
40
72.890
50
13.791901
51
161.698517
0
ARC
5
22436
8
0-2
6
CONTINUOUS
62
  7
10
5032.850
20
2743.920
30
0.0
40
57.890
50
25.205399
51
167.515991
0
ARC
5
22437
8
0-2
6
CONTINUOUS
62
  7
10
5292.850
20
2743.920
30
0.0
40
72.890
50
13.791901
51
161.698517
0
ARC
5
22438
8
0-2
6
CONTINUOUS
62
  7
10
5292.850
20
2743.920
30
0.0
40
57.890
50
25.205399
51
167.515991
0
ARC
5
22439
8
0-2
6
CONTINUOUS
62
  7
10
5552.850
20
2743.920
30
0.0
40
72.890
50
13.791901
51
161.698517
0
ARC
5
2243a
8
0-2
6
CONTINUOUS
62
  7
10
5552.850
20
2743.920
30
0.0
40
57.890
50
25.205399
51
167.515991
0
ARC
5
2243b
8
0-2
6
CONTINUOUS
62
  7
10
5812.850
20
2743.920
30
0.0
40
72.890
50
13.791901
51
161.698517
0
ARC
5
2243c
8
0-2
6
CONTINUOUS
62
  7
10
5812.850
20
2743.920
30
0.0
40
57.890
50
25.205399
51
167.515991
0
ARC
5
2243d
8
0-2
6
CONTINUOUS
62
  7
10
6072.850
20
2743.920
30
0.0
40
72.890
50
13.791901
51
161.698517
0
ARC
5
2243e
8
0-2
6
CONTINUOUS
62
  7
10
6072.850
20
2743.920
30
0.0
40
57.890
50
25.205399
51
167.515991
0
ARC
5
2243f
8
0-2
6
CONTINUOUS
62
  7
10
6332.850
20
2743.920
30
0.0
40
72.890
50
13.791901
51
161.698517
0
ARC
5
22440
8
0-2
6
CONTINUOUS
62
  7
10
6332.850
20
2743.920
30
0.0
40
57.890
50
25.205399
51
167.515991
0
ARC
5
22441
8
0-2
6
CONTINUOUS
62
  7
10
6592.850
20
2743.920
30
0.0
40
72.890
50
13.791901
51
161.698517
0
ARC
5
22442
8
0-2
6
CONTINUOUS
62
  7
10
6592.850
20
2743.920
30
0.0
40
57.890
50
25.205399
51
167.515991
0
ARC
5
22443
8
0-2
6
CONTINUOUS
62
  7
10
6852.850
20
2743.920
30
0.0
40
72.890
50
13.791901
51
161.698517
0
ARC
5
22444
8
0-2
6
CONTINUOUS
62
  7
10
6852.850
20
2743.920
30
0.0
40
57.890
50
25.205399
51
167.515991
0
ARC
5
22445
8
0-2
6
CONTINUOUS
62
  7
10
7112.850
20
2743.920
30
0.0
40
72.890
50
13.791901
51
161.698517
0
ARC
5
22446
8
0-2
6
CONTINUOUS
62
  7
10
7112.850
20
2743.920
30
0.0
40
57.890
50
25.205399
51
167.515991
0
ARC
5
22447
8
0-2
6
CONTINUOUS
62
  7
10
7372.850
20
2743.920
30
0.0
40
72.890
50
13.791901
51
161.698517
0
ARC
5
22448
8
0-2
6
CONTINUOUS
62
  7
10
7372.850
20
2743.920
30
0.0
40
57.890
50
25.205399
51
167.515991
0
ARC
5
22449
8
0-2
6
CONTINUOUS
62
  7
10
7632.850
20
2743.920
30
0.0
40
72.890
50
13.791901
51
161.698517
0
ARC
5
2244a
8
0-2
6
CONTINUOUS
62
  7
10
7632.850
20
2743.920
30
0.0
40
57.890
50
25.205399
51
167.515991
0
ARC
5
2244b
8
0-2
6
CONTINUOUS
62
  7
10
4376.730
20
2903.680
30
0.0
40
167.380
50
245.111343
51
298.395081
0
ARC
5
2244c
8
0-2
6
CONTINUOUS
62
  7
10
4375.990
20
2906.810
30
0.0
40
155.490
50
242.047699
51
295.792664
0
ARC
5
2244d
8
0-2
6
CONTINUOUS
62
  7
10
7763.650
20
3013.800
30
0.0
40
277.500
50
254.365295
51
285.999725
0
ARC
5
2244e
8
0-2
6
CONTINUOUS
62
  7
10
7763.650
20
3129.980
30
0.0
40
373.680
50
257.993408
51
282.317261
0
ARC
5
2244f
8
0-2
6
CONTINUOUS
62
  7
10
4636.730
20
2903.680
30
0.0
40
167.380
50
245.803665
51
298.395081
0
ARC
5
22450
8
0-2
6
CONTINUOUS
62
  7
10
4635.990
20
2906.810
30
0.0
40
155.490
50
242.950119
51
295.792664
0
ARC
5
22451
8
0-2
6
CONTINUOUS
62
  7
10
4896.730
20
2903.680
30
0.0
40
167.380
50
245.803177
51
298.395081
0
ARC
5
22452
8
0-2
6
CONTINUOUS
62
  7
10
4895.990
20
2906.810
30
0.0
40
155.490
50
242.894943
51
295.792664
0
ARC
5
22453
8
0-2
6
CONTINUOUS
62
  7
10
5156.730
20
2903.680
30
0.0
40
167.380
50
245.803177
51
298.395081
0
ARC
5
22454
8
0-2
6
CONTINUOUS
62
  7
10
5155.990
20
2906.810
30
0.0
40
155.490
50
242.894867
51
295.792664
0
ARC
5
22455
8
0-2
6
CONTINUOUS
62
  7
10
5416.730
20
2903.680
30
0.0
40
167.380
50
245.803177
51
298.395081
0
ARC
5
22456
8
0-2
6
CONTINUOUS
62
  7
10
5415.990
20
2906.810
30
0.0
40
155.490
50
242.894897
51
295.792664
0
ARC
5
22457
8
0-2
6
CONTINUOUS
62
  7
10
5676.730
20
2903.680
30
0.0
40
167.380
50
245.803101
51
298.395081
0
ARC
5
22458
8
0-2
6
CONTINUOUS
62
  7
10
5675.990
20
2906.810
30
0.0
40
155.490
50
242.894897
51
295.792664
0
ARC
5
22459
8
0-2
6
CONTINUOUS
62
  7
10
5936.730
20
2903.680
30
0.0
40
167.380
50
245.803665
51
298.395081
0
ARC
5
2245a
8
0-2
6
CONTINUOUS
62
  7
10
5935.990
20
2906.810
30
0.0
40
155.490
50
242.895432
51
295.792664
0
ARC
5
2245b
8
0-2
6
CONTINUOUS
62
  7
10
6196.730
20
2903.680
30
0.0
40
167.380
50
245.803101
51
298.395081
0
ARC
5
2245c
8
0-2
6
CONTINUOUS
62
  7
10
6195.990
20
2906.810
30
0.0
40
155.490
50
242.894867
51
295.792664
0
ARC
5
2245d
8
0-2
6
CONTINUOUS
62
  7
10
6456.730
20
2903.680
30
0.0
40
167.380
50
245.803101
51
298.395081
0
ARC
5
2245e
8
0-2
6
CONTINUOUS
62
  7
10
6455.990
20
2906.810
30
0.0
40
155.490
50
242.949509
51
295.792664
0
ARC
5
2245f
8
0-2
6
CONTINUOUS
62
  7
10
6716.730
20
2903.670
30
0.0
40
167.380
50
245.802917
51
298.395081
0
ARC
5
22460
8
0-2
6
CONTINUOUS
62
  7
10
6715.990
20
2906.810
30
0.0
40
155.490
50
242.894699
51
295.792664
0
ARC
5
22461
8
0-2
6
CONTINUOUS
62
  7
10
6976.730
20
2903.670
30
0.0
40
167.380
50
245.802917
51
298.395081
0
ARC
5
22462
8
0-2
6
CONTINUOUS
62
  7
10
6975.990
20
2906.810
30
0.0
40
155.490
50
242.949310
51
295.792664
0
ARC
5
22463
8
0-2
6
CONTINUOUS
62
  7
10
7236.730
20
2903.670
30
0.0
40
167.380
50
245.802917
51
298.395081
0
ARC
5
22464
8
0-2
6
CONTINUOUS
62
  7
10
7235.990
20
2906.810
30
0.0
40
155.490
50
242.894699
51
295.792664
0
ARC
5
22465
8
0-2
6
CONTINUOUS
62
  7
10
7496.730
20
2903.670
30
0.0
40
167.380
50
245.803101
51
298.395081
0
ARC
5
22466
8
0-2
6
CONTINUOUS
62
  7
10
7495.990
20
2906.810
30
0.0
40
155.490
50
242.894730
51
295.792664
0
ARC
5
22467
8
0-2
6
CONTINUOUS
62
  7
10
4512.860
20
2848.470
30
0.0
40
72.890
50
13.791901
51
161.698517
0
ARC
5
22468
8
0-2
6
CONTINUOUS
62
  7
10
4512.860
20
2848.470
30
0.0
40
57.890
50
25.205399
51
167.515991
0
ARC
5
22469
8
0-2
6
CONTINUOUS
62
  7
10
4772.850
20
2848.470
30
0.0
40
72.890
50
13.791901
51
161.698517
0
ARC
5
2246a
8
0-2
6
CONTINUOUS
62
  7
10
4772.850
20
2848.470
30
0.0
40
57.890
50
25.205399
51
167.515991
0
ARC
5
2246b
8
0-2
6
CONTINUOUS
62
  7
10
5032.850
20
2848.470
30
0.0
40
72.890
50
13.791901
51
161.698517
0
ARC
5
2246c
8
0-2
6
CONTINUOUS
62
  7
10
5032.850
20
2848.470
30
0.0
40
57.890
50
25.205399
51
167.515991
0
ARC
5
2246d
8
0-2
6
CONTINUOUS
62
  7
10
5292.850
20
2848.470
30
0.0
40
72.890
50
13.791901
51
161.698517
0
ARC
5
2246e
8
0-2
6
CONTINUOUS
62
  7
10
5292.850
20
2848.470
30
0.0
40
57.890
50
25.205399
51
167.515991
0
ARC
5
2246f
8
0-2
6
CONTINUOUS
62
  7
10
5552.850
20
2848.470
30
0.0
40
72.890
50
13.791901
51
161.698517
0
ARC
5
22470
8
0-2
6
CONTINUOUS
62
  7
10
5552.850
20
2848.470
30
0.0
40
57.890
50
25.205399
51
167.515991
0
ARC
5
22471
8
0-2
6
CONTINUOUS
62
  7
10
5812.850
20
2848.470
30
0.0
40
72.890
50
13.791901
51
161.698517
0
ARC
5
22472
8
0-2
6
CONTINUOUS
62
  7
10
5812.850
20
2848.470
30
0.0
40
57.890
50
25.205399
51
167.515991
0
ARC
5
22473
8
0-2
6
CONTINUOUS
62
  7
10
6072.850
20
2848.470
30
0.0
40
72.890
50
13.791901
51
161.698517
0
ARC
5
22474
8
0-2
6
CONTINUOUS
62
  7
10
6072.850
20
2848.470
30
0.0
40
57.890
50
25.205399
51
167.515991
0
ARC
5
22475
8
0-2
6
CONTINUOUS
62
  7
10
6332.850
20
2848.470
30
0.0
40
72.890
50
13.791901
51
161.698517
0
ARC
5
22476
8
0-2
6
CONTINUOUS
62
  7
10
6332.850
20
2848.470
30
0.0
40
57.890
50
25.205399
51
167.515991
0
ARC
5
22477
8
0-2
6
CONTINUOUS
62
  7
10
6592.850
20
2848.470
30
0.0
40
72.890
50
13.791901
51
161.698517
0
ARC
5
22478
8
0-2
6
CONTINUOUS
62
  7
10
6592.850
20
2848.470
30
0.0
40
57.890
50
25.205399
51
167.515991
0
ARC
5
22479
8
0-2
6
CONTINUOUS
62
  7
10
6852.850
20
2848.470
30
0.0
40
72.890
50
13.791901
51
161.698517
0
ARC
5
2247a
8
0-2
6
CONTINUOUS
62
  7
10
6852.850
20
2848.470
30
0.0
40
57.890
50
25.205399
51
167.515991
0
ARC
5
2247b
8
0-2
6
CONTINUOUS
62
  7
10
7112.850
20
2848.470
30
0.0
40
72.890
50
13.791901
51
161.698517
0
ARC
5
2247c
8
0-2
6
CONTINUOUS
62
  7
10
7112.850
20
2848.470
30
0.0
40
57.890
50
25.205399
51
167.515991
0
ARC
5
2247d
8
0-2
6
CONTINUOUS
62
  7
10
7372.850
20
2848.470
30
0.0
40
72.890
50
13.791901
51
161.698517
0
ARC
5
2247e
8
0-2
6
CONTINUOUS
62
  7
10
7372.850
20
2848.470
30
0.0
40
57.890
50
25.205399
51
167.515991
0
ARC
5
2247f
8
0-2
6
CONTINUOUS
62
  7
10
7632.850
20
2848.470
30
0.0
40
72.890
50
13.791901
51
161.698517
0
ARC
5
22480
8
0-2
6
CONTINUOUS
62
  7
10
7632.850
20
2848.470
30
0.0
40
57.890
50
25.205399
51
167.515991
0
ARC
5
22481
8
0-2
6
CONTINUOUS
62
  7
10
4376.730
20
3008.230
30
0.0
40
167.380
50
245.111343
51
298.395081
0
ARC
5
22482
8
0-2
6
CONTINUOUS
62
  7
10
4375.990
20
3011.360
30
0.0
40
155.490
50
242.047699
51
295.792664
0
ARC
5
22483
8
0-2
6
CONTINUOUS
62
  7
10
7763.650
20
3118.350
30
0.0
40
277.500
50
254.365295
51
285.999725
0
ARC
5
22484
8
0-2
6
CONTINUOUS
62
  7
10
7763.650
20
3234.530
30
0.0
40
373.680
50
257.993408
51
282.317261
0
ARC
5
22485
8
0-2
6
CONTINUOUS
62
  7
10
4636.730
20
3008.230
30
0.0
40
167.380
50
245.803665
51
298.395081
0
ARC
5
22486
8
0-2
6
CONTINUOUS
62
  7
10
4635.990
20
3011.360
30
0.0
40
155.490
50
242.950119
51
295.792664
0
ARC
5
22487
8
0-2
6
CONTINUOUS
62
  7
10
4896.730
20
3008.230
30
0.0
40
167.380
50
245.803177
51
298.395081
0
ARC
5
22488
8
0-2
6
CONTINUOUS
62
  7
10
4895.990
20
3011.360
30
0.0
40
155.490
50
242.894943
51
295.792664
0
ARC
5
22489
8
0-2
6
CONTINUOUS
62
  7
10
5156.730
20
3008.220
30
0.0
40
167.380
50
245.803177
51
298.395081
0
ARC
5
2248a
8
0-2
6
CONTINUOUS
62
  7
10
5155.990
20
3011.360
30
0.0
40
155.490
50
242.894867
51
295.792664
0
ARC
5
2248b
8
0-2
6
CONTINUOUS
62
  7
10
5416.730
20
3008.220
30
0.0
40
167.380
50
245.803177
51
298.395081
0
ARC
5
2248c
8
0-2
6
CONTINUOUS
62
  7
10
5415.990
20
3011.360
30
0.0
40
155.490
50
242.894897
51
295.792664
0
ARC
5
2248d
8
0-2
6
CONTINUOUS
62
  7
10
5676.730
20
3008.220
30
0.0
40
167.380
50
245.803101
51
298.395081
0
ARC
5
2248e
8
0-2
6
CONTINUOUS
62
  7
10
5675.990
20
3011.360
30
0.0
40
155.490
50
242.894897
51
295.792664
0
ARC
5
2248f
8
0-2
6
CONTINUOUS
62
  7
10
5936.730
20
3008.220
30
0.0
40
167.380
50
245.803665
51
298.395081
0
ARC
5
22490
8
0-2
6
CONTINUOUS
62
  7
10
5935.990
20
3011.360
30
0.0
40
155.490
50
242.895432
51
295.792664
0
ARC
5
22491
8
0-2
6
CONTINUOUS
62
  7
10
6196.730
20
3008.220
30
0.0
40
167.380
50
245.803101
51
298.395081
0
ARC
5
22492
8
0-2
6
CONTINUOUS
62
  7
10
6195.990
20
3011.360
30
0.0
40
155.490
50
242.894867
51
295.792664
0
ARC
5
22493
8
0-2
6
CONTINUOUS
62
  7
10
6456.730
20
3008.220
30
0.0
40
167.380
50
245.803101
51
298.395081
0
ARC
5
22494
8
0-2
6
CONTINUOUS
62
  7
10
6455.990
20
3011.360
30
0.0
40
155.490
50
242.949509
51
295.792664
0
ARC
5
22495
8
0-2
6
CONTINUOUS
62
  7
10
6716.730
20
3008.220
30
0.0
40
167.380
50
245.802917
51
298.395081
0
ARC
5
22496
8
0-2
6
CONTINUOUS
62
  7
10
6715.990
20
3011.360
30
0.0
40
155.490
50
242.894699
51
295.792664
0
ARC
5
22497
8
0-2
6
CONTINUOUS
62
  7
10
6976.730
20
3008.220
30
0.0
40
167.380
50
245.802917
51
298.395081
0
ARC
5
22498
8
0-2
6
CONTINUOUS
62
  7
10
6975.990
20
3011.360
30
0.0
40
155.490
50
242.949310
51
295.792664
0
ARC
5
22499
8
0-2
6
CONTINUOUS
62
  7
10
7236.730
20
3008.220
30
0.0
40
167.380
50
245.802917
51
298.395081
0
ARC
5
2249a
8
0-2
6
CONTINUOUS
62
  7
10
7235.990
20
3011.360
30
0.0
40
155.490
50
242.894699
51
295.792664
0
ARC
5
2249b
8
0-2
6
CONTINUOUS
62
  7
10
7496.730
20
3008.220
30
0.0
40
167.380
50
245.803101
51
298.395081
0
ARC
5
2249c
8
0-2
6
CONTINUOUS
62
  7
10
7495.990
20
3011.360
30
0.0
40
155.490
50
242.894730
51
295.792664
0
ARC
5
2249d
8
0-2
6
CONTINUOUS
62
  7
10
4512.860
20
2953.020
30
0.0
40
72.890
50
13.791901
51
161.698517
0
ARC
5
2249e
8
0-2
6
CONTINUOUS
62
  7
10
4512.860
20
2953.020
30
0.0
40
57.890
50
25.205399
51
167.515991
0
ARC
5
2249f
8
0-2
6
CONTINUOUS
62
  7
10
4772.850
20
2953.020
30
0.0
40
72.890
50
13.791901
51
161.698517
0
ARC
5
224a0
8
0-2
6
CONTINUOUS
62
  7
10
4772.850
20
2953.020
30
0.0
40
57.890
50
25.205399
51
167.515991
0
ARC
5
224a1
8
0-2
6
CONTINUOUS
62
  7
10
5032.850
20
2953.020
30
0.0
40
72.890
50
13.791901
51
161.698517
0
ARC
5
224a2
8
0-2
6
CONTINUOUS
62
  7
10
5032.850
20
2953.020
30
0.0
40
57.890
50
25.205399
51
167.515991
0
ARC
5
224a3
8
0-2
6
CONTINUOUS
62
  7
10
5292.850
20
2953.020
30
0.0
40
72.890
50
13.791901
51
161.698517
0
ARC
5
224a4
8
0-2
6
CONTINUOUS
62
  7
10
5292.850
20
2953.020
30
0.0
40
57.890
50
25.205399
51
167.515991
0
ARC
5
224a5
8
0-2
6
CONTINUOUS
62
  7
10
5552.850
20
2953.020
30
0.0
40
72.890
50
13.791901
51
161.698517
0
ARC
5
224a6
8
0-2
6
CONTINUOUS
62
  7
10
5552.850
20
2953.020
30
0.0
40
57.890
50
25.205399
51
167.515991
0
ARC
5
224a7
8
0-2
6
CONTINUOUS
62
  7
10
5812.850
20
2953.020
30
0.0
40
72.890
50
13.791901
51
161.698517
0
ARC
5
224a8
8
0-2
6
CONTINUOUS
62
  7
10
5812.850
20
2953.020
30
0.0
40
57.890
50
25.205399
51
167.515991
0
ARC
5
224a9
8
0-2
6
CONTINUOUS
62
  7
10
6072.850
20
2953.020
30
0.0
40
72.890
50
13.791901
51
161.698517
0
ARC
5
224aa
8
0-2
6
CONTINUOUS
62
  7
10
6072.850
20
2953.020
30
0.0
40
57.890
50
25.205399
51
167.515991
0
ARC
5
224ab
8
0-2
6
CONTINUOUS
62
  7
10
6332.850
20
2953.020
30
0.0
40
72.890
50
13.791901
51
161.698517
0
ARC
5
224ac
8
0-2
6
CONTINUOUS
62
  7
10
6332.850
20
2953.020
30
0.0
40
57.890
50
25.205399
51
167.515991
0
ARC
5
224ad
8
0-2
6
CONTINUOUS
62
  7
10
6592.850
20
2953.020
30
0.0
40
72.890
50
13.791901
51
161.698517
0
ARC
5
224ae
8
0-2
6
CONTINUOUS
62
  7
10
6592.850
20
2953.020
30
0.0
40
57.890
50
25.205399
51
167.515991
0
ARC
5
224af
8
0-2
6
CONTINUOUS
62
  7
10
6852.850
20
2953.020
30
0.0
40
72.890
50
13.791901
51
161.698517
0
ARC
5
224b0
8
0-2
6
CONTINUOUS
62
  7
10
6852.850
20
2953.020
30
0.0
40
57.890
50
25.205399
51
167.515991
0
ARC
5
224b1
8
0-2
6
CONTINUOUS
62
  7
10
7112.850
20
2953.020
30
0.0
40
72.890
50
13.791901
51
161.698517
0
ARC
5
224b2
8
0-2
6
CONTINUOUS
62
  7
10
7112.850
20
2953.020
30
0.0
40
57.890
50
25.205399
51
167.515991
0
ARC
5
224b3
8
0-2
6
CONTINUOUS
62
  7
10
7372.850
20
2953.020
30
0.0
40
72.890
50
13.791901
51
161.698517
0
ARC
5
224b4
8
0-2
6
CONTINUOUS
62
  7
10
7372.850
20
2953.020
30
0.0
40
57.890
50
25.205399
51
167.515991
0
ARC
5
224b5
8
0-2
6
CONTINUOUS
62
  7
10
7632.850
20
2953.020
30
0.0
40
72.890
50
13.791901
51
161.698517
0
ARC
5
224b6
8
0-2
6
CONTINUOUS
62
  7
10
7632.850
20
2953.020
30
0.0
40
57.890
50
25.205399
51
167.515991
0
ARC
5
224b7
8
0-2
6
CONTINUOUS
62
  7
10
4376.730
20
3112.780
30
0.0
40
167.380
50
245.111343
51
298.395081
0
ARC
5
224b8
8
0-2
6
CONTINUOUS
62
  7
10
4375.990
20
3115.910
30
0.0
40
155.490
50
242.047699
51
295.792664
0
ARC
5
224b9
8
0-2
6
CONTINUOUS
62
  7
10
7763.650
20
3222.900
30
0.0
40
277.500
50
254.365295
51
285.999725
0
ARC
5
224ba
8
0-2
6
CONTINUOUS
62
  7
10
7763.650
20
3339.080
30
0.0
40
373.680
50
257.993408
51
282.317261
0
ARC
5
224bb
8
0-2
6
CONTINUOUS
62
  7
10
4636.730
20
3112.780
30
0.0
40
167.380
50
245.803665
51
298.395081
0
ARC
5
224bc
8
0-2
6
CONTINUOUS
62
  7
10
4635.990
20
3115.910
30
0.0
40
155.490
50
242.950119
51
295.792664
0
ARC
5
224bd
8
0-2
6
CONTINUOUS
62
  7
10
4896.730
20
3112.770
30
0.0
40
167.380
50
245.803177
51
298.395081
0
ARC
5
224be
8
0-2
6
CONTINUOUS
62
  7
10
4895.990
20
3115.910
30
0.0
40
155.490
50
242.894943
51
295.792664
0
ARC
5
224bf
8
0-2
6
CONTINUOUS
62
  7
10
5156.730
20
3112.770
30
0.0
40
167.380
50
245.803177
51
298.395081
0
ARC
5
224c0
8
0-2
6
CONTINUOUS
62
  7
10
5155.990
20
3115.910
30
0.0
40
155.490
50
242.894867
51
295.792664
0
ARC
5
224c1
8
0-2
6
CONTINUOUS
62
  7
10
5416.730
20
3112.770
30
0.0
40
167.380
50
245.803177
51
298.395081
0
ARC
5
224c2
8
0-2
6
CONTINUOUS
62
  7
10
5415.990
20
3115.910
30
0.0
40
155.490
50
242.894897
51
295.792664
0
ARC
5
224c3
8
0-2
6
CONTINUOUS
62
  7
10
5676.730
20
3112.770
30
0.0
40
167.380
50
245.803101
51
298.395081
0
ARC
5
224c4
8
0-2
6
CONTINUOUS
62
  7
10
5675.990
20
3115.910
30
0.0
40
155.490
50
242.894897
51
295.792664
0
ARC
5
224c5
8
0-2
6
CONTINUOUS
62
  7
10
5936.730
20
3112.770
30
0.0
40
167.380
50
245.803665
51
298.395081
0
ARC
5
224c6
8
0-2
6
CONTINUOUS
62
  7
10
5935.990
20
3115.910
30
0.0
40
155.490
50
242.895432
51
295.792664
0
ARC
5
224c7
8
0-2
6
CONTINUOUS
62
  7
10
6196.730
20
3112.770
30
0.0
40
167.380
50
245.803101
51
298.395081
0
ARC
5
224c8
8
0-2
6
CONTINUOUS
62
  7
10
6195.990
20
3115.910
30
0.0
40
155.490
50
242.894867
51
295.792664
0
ARC
5
224c9
8
0-2
6
CONTINUOUS
62
  7
10
6456.730
20
3112.770
30
0.0
40
167.380
50
245.803101
51
298.395081
0
ARC
5
224ca
8
0-2
6
CONTINUOUS
62
  7
10
6455.990
20
3115.910
30
0.0
40
155.490
50
242.949509
51
295.792664
0
ARC
5
224cb
8
0-2
6
CONTINUOUS
62
  7
10
6716.730
20
3112.770
30
0.0
40
167.380
50
245.802917
51
298.395081
0
ARC
5
224cc
8
0-2
6
CONTINUOUS
62
  7
10
6715.990
20
3115.910
30
0.0
40
155.490
50
242.894699
51
295.792664
0
ARC
5
224cd
8
0-2
6
CONTINUOUS
62
  7
10
6976.730
20
3112.770
30
0.0
40
167.380
50
245.802917
51
298.395081
0
ARC
5
224ce
8
0-2
6
CONTINUOUS
62
  7
10
6975.990
20
3115.910
30
0.0
40
155.490
50
242.949310
51
295.792664
0
ARC
5
224cf
8
0-2
6
CONTINUOUS
62
  7
10
7236.730
20
3112.770
30
0.0
40
167.380
50
245.802917
51
298.395081
0
ARC
5
224d0
8
0-2
6
CONTINUOUS
62
  7
10
7235.990
20
3115.910
30
0.0
40
155.490
50
242.894699
51
295.792664
0
ARC
5
224d1
8
0-2
6
CONTINUOUS
62
  7
10
7496.730
20
3112.770
30
0.0
40
167.380
50
245.803101
51
298.395081
0
ARC
5
224d2
8
0-2
6
CONTINUOUS
62
  7
10
7495.990
20
3115.910
30
0.0
40
155.490
50
242.894730
51
295.792664
0
ARC
5
224d3
8
0-2
6
CONTINUOUS
62
  7
10
4512.860
20
3057.570
30
0.0
40
72.890
50
13.791901
51
161.698517
0
ARC
5
224d4
8
0-2
6
CONTINUOUS
62
  7
10
4512.860
20
3057.570
30
0.0
40
57.890
50
25.205399
51
167.515991
0
ARC
5
224d5
8
0-2
6
CONTINUOUS
62
  7
10
4772.850
20
3057.570
30
0.0
40
72.890
50
13.791901
51
161.698517
0
ARC
5
224d6
8
0-2
6
CONTINUOUS
62
  7
10
4772.850
20
3057.570
30
0.0
40
57.890
50
25.205399
51
167.515991
0
ARC
5
224d7
8
0-2
6
CONTINUOUS
62
  7
10
5032.850
20
3057.570
30
0.0
40
72.890
50
13.791901
51
161.698517
0
ARC
5
224d8
8
0-2
6
CONTINUOUS
62
  7
10
5032.850
20
3057.570
30
0.0
40
57.890
50
25.205399
51
167.515991
0
ARC
5
224d9
8
0-2
6
CONTINUOUS
62
  7
10
5292.850
20
3057.570
30
0.0
40
72.890
50
13.791901
51
161.698517
0
ARC
5
224da
8
0-2
6
CONTINUOUS
62
  7
10
5292.850
20
3057.570
30
0.0
40
57.890
50
25.205399
51
167.515991
0
ARC
5
224db
8
0-2
6
CONTINUOUS
62
  7
10
5552.850
20
3057.570
30
0.0
40
72.890
50
13.791901
51
161.698517
0
ARC
5
224dc
8
0-2
6
CONTINUOUS
62
  7
10
5552.850
20
3057.570
30
0.0
40
57.890
50
25.205399
51
167.515991
0
ARC
5
224dd
8
0-2
6
CONTINUOUS
62
  7
10
5812.850
20
3057.570
30
0.0
40
72.890
50
13.791901
51
161.698517
0
ARC
5
224de
8
0-2
6
CONTINUOUS
62
  7
10
5812.850
20
3057.570
30
0.0
40
57.890
50
25.205399
51
167.515991
0
ARC
5
224df
8
0-2
6
CONTINUOUS
62
  7
10
6072.850
20
3057.570
30
0.0
40
72.890
50
13.791901
51
161.698517
0
ARC
5
224e0
8
0-2
6
CONTINUOUS
62
  7
10
6072.850
20
3057.570
30
0.0
40
57.890
50
25.205399
51
167.515991
0
ARC
5
224e1
8
0-2
6
CONTINUOUS
62
  7
10
6332.850
20
3057.570
30
0.0
40
72.890
50
13.791901
51
161.698517
0
ARC
5
224e2
8
0-2
6
CONTINUOUS
62
  7
10
6332.850
20
3057.570
30
0.0
40
57.890
50
25.205399
51
167.515991
0
ARC
5
224e3
8
0-2
6
CONTINUOUS
62
  7
10
6592.850
20
3057.570
30
0.0
40
72.890
50
13.791901
51
161.698517
0
ARC
5
224e4
8
0-2
6
CONTINUOUS
62
  7
10
6592.850
20
3057.570
30
0.0
40
57.890
50
25.205399
51
167.515991
0
ARC
5
224e5
8
0-2
6
CONTINUOUS
62
  7
10
6852.850
20
3057.570
30
0.0
40
72.890
50
13.791901
51
161.698517
0
ARC
5
224e6
8
0-2
6
CONTINUOUS
62
  7
10
6852.850
20
3057.570
30
0.0
40
57.890
50
25.205399
51
167.515991
0
ARC
5
224e7
8
0-2
6
CONTINUOUS
62
  7
10
7112.850
20
3057.570
30
0.0
40
72.890
50
13.791901
51
161.698517
0
ARC
5
224e8
8
0-2
6
CONTINUOUS
62
  7
10
7112.850
20
3057.570
30
0.0
40
57.890
50
25.205399
51
167.515991
0
ARC
5
224e9
8
0-2
6
CONTINUOUS
62
  7
10
7372.850
20
3057.570
30
0.0
40
72.890
50
13.791901
51
161.698517
0
ARC
5
224ea
8
0-2
6
CONTINUOUS
62
  7
10
7372.850
20
3057.570
30
0.0
40
57.890
50
25.205399
51
167.515991
0
ARC
5
224eb
8
0-2
6
CONTINUOUS
62
  7
10
7632.850
20
3057.570
30
0.0
40
72.890
50
13.791901
51
161.698517
0
ARC
5
224ec
8
0-2
6
CONTINUOUS
62
  7
10
7632.850
20
3057.570
30
0.0
40
57.890
50
25.205399
51
167.515991
0
ARC
5
224ed
8
0-2
6
CONTINUOUS
62
  7
10
4376.730
20
3217.320
30
0.0
40
167.380
50
245.111343
51
298.395081
0
ARC
5
224ee
8
0-2
6
CONTINUOUS
62
  7
10
4375.990
20
3220.460
30
0.0
40
155.490
50
242.047699
51
295.792664
0
ARC
5
224ef
8
0-2
6
CONTINUOUS
62
  7
10
7763.650
20
3327.440
30
0.0
40
277.500
50
254.365295
51
285.999725
0
ARC
5
224f0
8
0-2
6
CONTINUOUS
62
  7
10
7763.650
20
3443.630
30
0.0
40
373.680
50
257.993408
51
282.317261
0
ARC
5
224f1
8
0-2
6
CONTINUOUS
62
  7
10
4636.730
20
3217.320
30
0.0
40
167.380
50
245.803665
51
298.395081
0
ARC
5
224f2
8
0-2
6
CONTINUOUS
62
  7
10
4635.990
20
3220.460
30
0.0
40
155.490
50
242.950119
51
295.792664
0
ARC
5
224f3
8
0-2
6
CONTINUOUS
62
  7
10
4896.730
20
3217.320
30
0.0
40
167.380
50
245.803177
51
298.395081
0
ARC
5
224f4
8
0-2
6
CONTINUOUS
62
  7
10
4895.990
20
3220.460
30
0.0
40
155.490
50
242.894943
51
295.792664
0
ARC
5
224f5
8
0-2
6
CONTINUOUS
62
  7
10
5156.730
20
3217.320
30
0.0
40
167.380
50
245.803177
51
298.395081
0
ARC
5
224f6
8
0-2
6
CONTINUOUS
62
  7
10
5155.990
20
3220.460
30
0.0
40
155.490
50
242.894867
51
295.792664
0
ARC
5
224f7
8
0-2
6
CONTINUOUS
62
  7
10
5416.730
20
3217.320
30
0.0
40
167.380
50
245.803177
51
298.395081
0
ARC
5
224f8
8
0-2
6
CONTINUOUS
62
  7
10
5415.990
20
3220.460
30
0.0
40
155.490
50
242.894897
51
295.792664
0
ARC
5
224f9
8
0-2
6
CONTINUOUS
62
  7
10
5676.730
20
3217.320
30
0.0
40
167.380
50
245.803101
51
298.395081
0
ARC
5
224fa
8
0-2
6
CONTINUOUS
62
  7
10
5675.990
20
3220.460
30
0.0
40
155.490
50
242.894897
51
295.792664
0
ARC
5
224fb
8
0-2
6
CONTINUOUS
62
  7
10
5936.730
20
3217.320
30
0.0
40
167.380
50
245.803665
51
298.395081
0
ARC
5
224fc
8
0-2
6
CONTINUOUS
62
  7
10
5935.990
20
3220.460
30
0.0
40
155.490
50
242.895432
51
295.792664
0
ARC
5
224fd
8
0-2
6
CONTINUOUS
62
  7
10
6196.730
20
3217.320
30
0.0
40
167.380
50
245.803101
51
298.395081
0
ARC
5
224fe
8
0-2
6
CONTINUOUS
62
  7
10
6195.990
20
3220.460
30
0.0
40
155.490
50
242.894867
51
295.792664
0
ARC
5
224ff
8
0-2
6
CONTINUOUS
62
  7
10
6456.730
20
3217.320
30
0.0
40
167.380
50
245.803101
51
298.395081
0
ARC
5
22500
8
0-2
6
CONTINUOUS
62
  7
10
6455.990
20
3220.460
30
0.0
40
155.490
50
242.949509
51
295.792664
0
ARC
5
22501
8
0-2
6
CONTINUOUS
62
  7
10
6716.730
20
3217.320
30
0.0
40
167.380
50
245.802917
51
298.395081
0
ARC
5
22502
8
0-2
6
CONTINUOUS
62
  7
10
6715.990
20
3220.460
30
0.0
40
155.490
50
242.894699
51
295.792664
0
ARC
5
22503
8
0-2
6
CONTINUOUS
62
  7
10
6976.730
20
3217.320
30
0.0
40
167.380
50
245.802917
51
298.395081
0
ARC
5
22504
8
0-2
6
CONTINUOUS
62
  7
10
6975.990
20
3220.460
30
0.0
40
155.490
50
242.949310
51
295.792664
0
ARC
5
22505
8
0-2
6
CONTINUOUS
62
  7
10
7236.730
20
3217.320
30
0.0
40
167.380
50
245.802917
51
298.395081
0
ARC
5
22506
8
0-2
6
CONTINUOUS
62
  7
10
7235.990
20
3220.460
30
0.0
40
155.490
50
242.894699
51
295.792664
0
ARC
5
22507
8
0-2
6
CONTINUOUS
62
  7
10
7496.730
20
3217.320
30
0.0
40
167.380
50
245.803101
51
298.395081
0
ARC
5
22508
8
0-2
6
CONTINUOUS
62
  7
10
7495.990
20
3220.460
30
0.0
40
155.490
50
242.894730
51
295.792664
0
ARC
5
22509
8
0-2
6
CONTINUOUS
62
  7
10
4512.860
20
3162.120
30
0.0
40
72.890
50
13.791901
51
161.698517
0
ARC
5
2250a
8
0-2
6
CONTINUOUS
62
  7
10
4512.860
20
3162.120
30
0.0
40
57.890
50
25.205399
51
167.515991
0
ARC
5
2250b
8
0-2
6
CONTINUOUS
62
  7
10
4772.850
20
3162.120
30
0.0
40
72.890
50
13.791901
51
161.698517
0
ARC
5
2250c
8
0-2
6
CONTINUOUS
62
  7
10
4772.850
20
3162.120
30
0.0
40
57.890
50
25.205399
51
167.515991
0
ARC
5
2250d
8
0-2
6
CONTINUOUS
62
  7
10
5032.850
20
3162.120
30
0.0
40
72.890
50
13.791901
51
161.698517
0
ARC
5
2250e
8
0-2
6
CONTINUOUS
62
  7
10
5032.850
20
3162.120
30
0.0
40
57.890
50
25.205399
51
167.515991
0
ARC
5
2250f
8
0-2
6
CONTINUOUS
62
  7
10
5292.850
20
3162.120
30
0.0
40
72.890
50
13.791901
51
161.698517
0
ARC
5
22510
8
0-2
6
CONTINUOUS
62
  7
10
5292.850
20
3162.120
30
0.0
40
57.890
50
25.205399
51
167.515991
0
ARC
5
22511
8
0-2
6
CONTINUOUS
62
  7
10
5552.850
20
3162.120
30
0.0
40
72.890
50
13.791901
51
161.698517
0
ARC
5
22512
8
0-2
6
CONTINUOUS
62
  7
10
5552.850
20
3162.120
30
0.0
40
57.890
50
25.205399
51
167.515991
0
ARC
5
22513
8
0-2
6
CONTINUOUS
62
  7
10
5812.850
20
3162.120
30
0.0
40
72.890
50
13.791901
51
161.698517
0
ARC
5
22514
8
0-2
6
CONTINUOUS
62
  7
10
5812.850
20
3162.120
30
0.0
40
57.890
50
25.205399
51
167.515991
0
ARC
5
22515
8
0-2
6
CONTINUOUS
62
  7
10
6072.850
20
3162.120
30
0.0
40
72.890
50
13.791901
51
161.698517
0
ARC
5
22516
8
0-2
6
CONTINUOUS
62
  7
10
6072.850
20
3162.120
30
0.0
40
57.890
50
25.205399
51
167.515991
0
ARC
5
22517
8
0-2
6
CONTINUOUS
62
  7
10
6332.850
20
3162.120
30
0.0
40
72.890
50
13.791901
51
161.698517
0
ARC
5
22518
8
0-2
6
CONTINUOUS
62
  7
10
6332.850
20
3162.120
30
0.0
40
57.890
50
25.205399
51
167.515991
0
ARC
5
22519
8
0-2
6
CONTINUOUS
62
  7
10
6592.850
20
3162.120
30
0.0
40
72.890
50
13.791901
51
161.698517
0
ARC
5
2251a
8
0-2
6
CONTINUOUS
62
  7
10
6592.850
20
3162.120
30
0.0
40
57.890
50
25.205399
51
167.515991
0
ARC
5
2251b
8
0-2
6
CONTINUOUS
62
  7
10
6852.850
20
3162.120
30
0.0
40
72.890
50
13.791901
51
161.698517
0
ARC
5
2251c
8
0-2
6
CONTINUOUS
62
  7
10
6852.850
20
3162.120
30
0.0
40
57.890
50
25.205399
51
167.515991
0
ARC
5
2251d
8
0-2
6
CONTINUOUS
62
  7
10
7112.850
20
3162.120
30
0.0
40
72.890
50
13.791901
51
161.698517
0
ARC
5
2251e
8
0-2
6
CONTINUOUS
62
  7
10
7112.850
20
3162.120
30
0.0
40
57.890
50
25.205399
51
167.515991
0
ARC
5
2251f
8
0-2
6
CONTINUOUS
62
  7
10
7372.850
20
3162.120
30
0.0
40
72.890
50
13.791901
51
161.698517
0
ARC
5
22520
8
0-2
6
CONTINUOUS
62
  7
10
7372.850
20
3162.120
30
0.0
40
57.890
50
25.205399
51
167.515991
0
ARC
5
22521
8
0-2
6
CONTINUOUS
62
  7
10
7632.850
20
3162.110
30
0.0
40
72.890
50
13.791901
51
161.698517
0
ARC
5
22522
8
0-2
6
CONTINUOUS
62
  7
10
7632.850
20
3162.110
30
0.0
40
57.890
50
25.205399
51
167.515991
0
ARC
5
22523
8
0-2
6
CONTINUOUS
62
  7
10
4376.730
20
3321.870
30
0.0
40
167.380
50
245.111343
51
298.395081
0
ARC
5
22524
8
0-2
6
CONTINUOUS
62
  7
10
4375.990
20
3325.010
30
0.0
40
155.490
50
242.047699
51
295.792664
0
ARC
5
22525
8
0-2
6
CONTINUOUS
62
  7
10
7763.650
20
3431.990
30
0.0
40
277.500
50
254.365295
51
285.999725
0
ARC
5
22526
8
0-2
6
CONTINUOUS
62
  7
10
7763.650
20
3548.180
30
0.0
40
373.680
50
257.993408
51
282.317261
0
ARC
5
22527
8
0-2
6
CONTINUOUS
62
  7
10
4636.730
20
3321.870
30
0.0
40
167.380
50
245.803665
51
298.395081
0
ARC
5
22528
8
0-2
6
CONTINUOUS
62
  7
10
4635.990
20
3325.010
30
0.0
40
155.490
50
242.950119
51
295.792664
0
ARC
5
22529
8
0-2
6
CONTINUOUS
62
  7
10
4896.730
20
3321.870
30
0.0
40
167.380
50
245.803177
51
298.395081
0
ARC
5
2252a
8
0-2
6
CONTINUOUS
62
  7
10
4895.990
20
3325.010
30
0.0
40
155.490
50
242.894943
51
295.792664
0
ARC
5
2252b
8
0-2
6
CONTINUOUS
62
  7
10
5156.730
20
3321.870
30
0.0
40
167.380
50
245.803177
51
298.395081
0
ARC
5
2252c
8
0-2
6
CONTINUOUS
62
  7
10
5155.990
20
3325.010
30
0.0
40
155.490
50
242.894867
51
295.792664
0
ARC
5
2252d
8
0-2
6
CONTINUOUS
62
  7
10
5416.730
20
3321.870
30
0.0
40
167.380
50
245.803177
51
298.395081
0
ARC
5
2252e
8
0-2
6
CONTINUOUS
62
  7
10
5415.990
20
3325.010
30
0.0
40
155.490
50
242.894897
51
295.792664
0
ARC
5
2252f
8
0-2
6
CONTINUOUS
62
  7
10
5676.730
20
3321.870
30
0.0
40
167.380
50
245.803101
51
298.395081
0
ARC
5
22530
8
0-2
6
CONTINUOUS
62
  7
10
5675.990
20
3325.010
30
0.0
40
155.490
50
242.894897
51
295.792664
0
ARC
5
22531
8
0-2
6
CONTINUOUS
62
  7
10
5936.730
20
3321.870
30
0.0
40
167.380
50
245.803665
51
298.395081
0
ARC
5
22532
8
0-2
6
CONTINUOUS
62
  7
10
5935.990
20
3325.010
30
0.0
40
155.490
50
242.895432
51
295.792664
0
ARC
5
22533
8
0-2
6
CONTINUOUS
62
  7
10
6196.730
20
3321.870
30
0.0
40
167.380
50
245.803101
51
298.395081
0
ARC
5
22534
8
0-2
6
CONTINUOUS
62
  7
10
6195.990
20
3325.010
30
0.0
40
155.490
50
242.894867
51
295.792664
0
ARC
5
22535
8
0-2
6
CONTINUOUS
62
  7
10
6456.730
20
3321.870
30
0.0
40
167.380
50
245.803101
51
298.395081
0
ARC
5
22536
8
0-2
6
CONTINUOUS
62
  7
10
6455.990
20
3325.010
30
0.0
40
155.490
50
242.949509
51
295.792664
0
ARC
5
22537
8
0-2
6
CONTINUOUS
62
  7
10
6716.730
20
3321.870
30
0.0
40
167.380
50
245.802917
51
298.395081
0
ARC
5
22538
8
0-2
6
CONTINUOUS
62
  7
10
6715.990
20
3325.010
30
0.0
40
155.490
50
242.894699
51
295.792664
0
ARC
5
22539
8
0-2
6
CONTINUOUS
62
  7
10
6976.730
20
3321.870
30
0.0
40
167.380
50
245.802917
51
298.395081
0
ARC
5
2253a
8
0-2
6
CONTINUOUS
62
  7
10
6975.990
20
3325.010
30
0.0
40
155.490
50
242.949310
51
295.792664
0
ARC
5
2253b
8
0-2
6
CONTINUOUS
62
  7
10
7236.730
20
3321.870
30
0.0
40
167.380
50
245.802917
51
298.395081
0
ARC
5
2253c
8
0-2
6
CONTINUOUS
62
  7
10
7235.990
20
3325.010
30
0.0
40
155.490
50
242.894699
51
295.792664
0
ARC
5
2253d
8
0-2
6
CONTINUOUS
62
  7
10
7496.730
20
3321.870
30
0.0
40
167.380
50
245.803101
51
298.395081
0
ARC
5
2253e
8
0-2
6
CONTINUOUS
62
  7
10
7495.990
20
3325.000
30
0.0
40
155.490
50
242.894730
51
295.792664
0
CIRCLE
5
2253f
8
ADD_LINE
6
HIDDEN
62
  3
10
4179.550
20
2187.650
30
0.0
40
3.000
0
ENDSEC
0
EOF
